999
DXF file: C:\Users\sesa63760\Dev\_Creo\CAD\MCADPD0003771_3D-CAD\drw0001_1.dxf
999
Pro/ENGINEER 2019471 by Parametric Technology Corporation
  0
SECTION
  2
HEADER
  9
$ACADVER
  1
AC1024
  9
$DWGCODEPAGE
  3
ANSI_1252
  9
$EXTMAX
 10
88.5002816496
 20
125.1646840474
 30
0.0
  9
$EXTMIN
 10
0.0
 20
0.0
 30
0.0
  9
$LIMMIN
 10
0.0
 20
0.0
  9
$LIMMAX
 10
88.5002816496
 20
125.1646840474
  9
$VIEWCTR
 10
44.2501408248
 20
62.5823420237
  9
$VIEWSIZE
 40
125.1646840474
  9
$CLAYER
  8
0
  9
$LTSCALE
 40
8.1588831083
  9
$CELTYPE
  6
BYLAYER
  9
$DIMSCALE
 40
1.0
  9
$DIMASZ
 40
1.0535747815
  9
$DIMEXO
 40
1.0
  9
$DIMDLI
 40
5.6370465112
  9
$DIMEXE
 40
1.0
  9
$DIMCEN
 40
1.3350899632
  9
$DIMLFAC
 40
1.0
  9
$DIMBLK
  1
_FILLED
  9
$DIMALT
 70
0
  9
$DIMALTF
 40
0.0393700787
  9
$DIMTXT
 40
1.4750046942
  9
$DIMTOL
 70
1
  9
$DIMLIM
 70
0
  9
$DIMTFAC
 40
1.0
  9
$DIMTP
 40
0.01
  9
$DIMTM
 40
0.01
  9
$DIMGAP
 40
0.625
  9
$DIMDSEP
 70
46
  9
$AUNITS
 70
0
  9
$PDMODE
 70
3
  9
$PDSIZE
 40
0.3125
  9
$HANDSEED
  5
330
  9
$TILEMODE
 70
1
  9
$MEASUREMENT
 70
1
  9
$INSUNITS
 70
4
  0
ENDSEC
  0
SECTION
  2
CLASSES
  0
CLASS
  1
ACDBDICTIONARYWDFLT
  2
AcDbDictionaryWithDefault
  3
AutoCAD 2000
 90
0
 91
1
280
0
281
0
  0
CLASS
  1
ACDBPLACEHOLDER
  2
AcDbPlaceHolder
  3
AutoCAD 2000
 90
0
 91
1
280
0
281
0
  0
CLASS
  1
LAYOUT
  2
AcDbLayout
  3
AutoCAD 2000
 90
0
 91
0
280
0
281
0
  0
ENDSEC
  0
SECTION
  2
TABLES
  0
TABLE
  2
VPORT
  5
8
100
AcDbSymbolTable
 70
2
  0
VPORT
  5
1F4
100
AcDbSymbolTableRecord
100
AcDbViewportTableRecord
  2
*ACTIVE
 70
0
 10
0.0
 20
0.0
 11
1.0
 21
1.0
 12
44.2501408248
 22
62.5823420237
 13
0.0
 23
0.0
 14
1.0
 24
1.0
 15
0.0
 25
0.0
 16
0.0
 26
0.0
 36
1.0
 17
0.0
 27
0.0
 37
0.0
 40
125.1646840474
 41
0.7070707071
 42
50.0
 43
0.0
 44
0.0
 50
0.0
 51
0.0
 71
0
 72
100
 73
1
 74
1
 75
0
 76
0
 77
0
 78
0
  0
ENDTAB
  0
TABLE
  2
LTYPE
  5
5
100
AcDbSymbolTable
 70
6
  0
LTYPE
  5
14
100
AcDbSymbolTableRecord
100
AcDbLinetypeTableRecord
  2
BYBLOCK
 70
0
  3

 72
65
 73
0
 40
0.0
  0
LTYPE
  5
15
100
AcDbSymbolTableRecord
100
AcDbLinetypeTableRecord
  2
BYLAYER
 70
0
  3

 72
65
 73
0
 40
0.0
  0
LTYPE
  5
16
100
AcDbSymbolTableRecord
100
AcDbLinetypeTableRecord
  2
CONTINUOUS
 70
64
  3
Solid line
 72
65
 73
0
 40
0.0
  0
LTYPE
  5
1F5
100
AcDbSymbolTableRecord
100
AcDbLinetypeTableRecord
  2
CENTER
 70
64
  3
____ _ ____ _ ____ _ ____ _ ____ _ ____ _ ____
 72
65
 73
4
 40
0.6
 49
0.375
 74
0
 49
-0.075
 74
0
 49
0.075
 74
0
 49
-0.075
 74
0
  0
LTYPE
  5
1F6
100
AcDbSymbolTableRecord
100
AcDbLinetypeTableRecord
  2
HIDDEN
 70
64
  3
- - - - - - - - - - - - - - - - - - - -
 72
65
 73
2
 40
0.2
 49
0.1
 74
0
 49
-0.1
 74
0
  0
LTYPE
  5
1F7
100
AcDbSymbolTableRecord
100
AcDbLinetypeTableRecord
  2
PHANTOM
 70
64
  3
_____ _ _ _____ _ _ _____ _ _ _____
 72
65
 73
6
 40
0.8
 49
0.45
 74
0
 49
-0.05
 74
0
 49
0.1
 74
0
 49
-0.05
 74
0
 49
0.1
 74
0
 49
-0.05
 74
0
  0
LTYPE
  5
1F8
100
AcDbSymbolTableRecord
100
AcDbLinetypeTableRecord
  2
DOT
 70
64
  3
. . . . . . . . . . . . . . . . . . . .
 72
65
 73
2
 40
0.2
 49
0.1
 74
0
 49
-0.1
 74
0
  0
LTYPE
  5
1F9
100
AcDbSymbolTableRecord
100
AcDbLinetypeTableRecord
  2
DASHED
 70
64
  3
- - - - - - - - - - - - - - - - - - - -
 72
65
 73
2
 40
0.2
 49
0.1
 74
0
 49
-0.1
 74
0
  0
ENDTAB
  0
TABLE
  2
LAYER
  5
2
100
AcDbSymbolTable
 70
36
  0
LAYER
  5
10
100
AcDbSymbolTableRecord
100
AcDbLayerTableRecord
  2
0
 70
0
 62
7
  6
CONTINUOUS
370
-3
390
F
  0
LAYER
  5
1FA
100
AcDbSymbolTableRecord
100
AcDbLayerTableRecord
  2
DEFAULT_1
 70
0
 62
7
  6
CENTER
370
-3
390
F
  0
LAYER
  5
1FB
100
AcDbSymbolTableRecord
100
AcDbLayerTableRecord
  2
DEFAULT_2
 70
0
 62
7
  6
HIDDEN
370
-3
390
F
  0
LAYER
  5
1FC
100
AcDbSymbolTableRecord
100
AcDbLayerTableRecord
  2
DEFAULT_3
 70
0
 62
7
  6
PHANTOM
370
-3
390
F
  0
LAYER
  5
1FD
100
AcDbSymbolTableRecord
100
AcDbLayerTableRecord
  2
00_COMPONENTS
 70
0
 62
7
  6
CONTINUOUS
370
-3
390
F
  0
LAYER
  5
1FE
100
AcDbSymbolTableRecord
100
AcDbLayerTableRecord
  2
01_1_DEFAULT_DATUMS
 70
0
 62
7
  6
CONTINUOUS
370
-3
390
F
  0
LAYER
  5
1FF
100
AcDbSymbolTableRecord
100
AcDbLayerTableRecord
  2
01_PLANES
 70
0
 62
7
  6
CONTINUOUS
370
-3
390
F
  0
LAYER
  5
200
100
AcDbSymbolTableRecord
100
AcDbLayerTableRecord
  2
02_COORD_SYS
 70
0
 62
7
  6
CONTINUOUS
370
-3
390
F
  0
LAYER
  5
201
100
AcDbSymbolTableRecord
100
AcDbLayerTableRecord
  2
03_AXES
 70
0
 62
7
  6
CONTINUOUS
370
-3
390
F
  0
LAYER
  5
202
100
AcDbSymbolTableRecord
100
AcDbLayerTableRecord
  2
04_POINTS
 70
0
 62
7
  6
CONTINUOUS
370
-3
390
F
  0
LAYER
  5
203
100
AcDbSymbolTableRecord
100
AcDbLayerTableRecord
  2
05_CURVES
 70
0
 62
7
  6
CONTINUOUS
370
-3
390
F
  0
LAYER
  5
204
100
AcDbSymbolTableRecord
100
AcDbLayerTableRecord
  2
06_SURFS
 70
0
 62
7
  6
CONTINUOUS
370
-3
390
F
  0
LAYER
  5
205
100
AcDbSymbolTableRecord
100
AcDbLayerTableRecord
  2
07_COSMETICS
 70
0
 62
7
  6
CONTINUOUS
370
-3
390
F
  0
LAYER
  5
206
100
AcDbSymbolTableRecord
100
AcDbLayerTableRecord
  2
10_NOTES
 70
0
 62
7
  6
CONTINUOUS
370
-3
390
F
  0
LAYER
  5
207
100
AcDbSymbolTableRecord
100
AcDbLayerTableRecord
  2
11_NOTES_PUB
 70
0
 62
7
  6
CONTINUOUS
370
-3
390
F
  0
LAYER
  5
208
100
AcDbSymbolTableRecord
100
AcDbLayerTableRecord
  2
13_REF_GTOL
 70
0
 62
7
  6
CONTINUOUS
370
-3
390
F
  0
LAYER
  5
209
100
AcDbSymbolTableRecord
100
AcDbLayerTableRecord
  2
16_MISC
 70
0
 62
7
  6
CONTINUOUS
370
-3
390
F
  0
LAYER
  5
20A
100
AcDbSymbolTableRecord
100
AcDbLayerTableRecord
  2
17_NO_PRINT
 70
0
 62
7
  6
CONTINUOUS
370
-3
390
F
  0
LAYER
  5
20B
100
AcDbSymbolTableRecord
100
AcDbLayerTableRecord
  2
18_DATUM_CAMS_JOINTS
 70
0
 62
7
  6
CONTINUOUS
370
-3
390
F
  0
LAYER
  5
20C
100
AcDbSymbolTableRecord
100
AcDbLayerTableRecord
  2
19_DATUM_FUNCTIONAL
 70
0
 62
7
  6
CONTINUOUS
370
-3
390
F
  0
LAYER
  5
20D
100
AcDbSymbolTableRecord
100
AcDbLayerTableRecord
  2
20_DATUM_KINEMATIC_SCHEME
 70
0
 62
7
  6
CONTINUOUS
370
-3
390
F
  0
ENDTAB
  0
TABLE
  2
STYLE
  5
3
100
AcDbSymbolTable
 70
1
  0
STYLE
  5
11
100
AcDbSymbolTableRecord
100
AcDbTextStyleTableRecord
  2
STANDARD
 70
0
 40
0.0
 41
1.0
 50
0.0
 71
0
 42
0.2
  3
ARIAL.TTF
  4

  0
STYLE
  5
20E
100
AcDbSymbolTableRecord
100
AcDbTextStyleTableRecord
  2
TEXTSTYLE_1
 70
0
 40
0.0
 41
0.8
 50
0.0
 71
0
 42
0.2
  3
gdt
  4

  0
ENDTAB
  0
TABLE
  2
VIEW
  5
6
100
AcDbSymbolTable
 70
0
  0
ENDTAB
  0
TABLE
  2
UCS
  5
7
100
AcDbSymbolTable
 70
0
  0
ENDTAB
  0
TABLE
  2
APPID
  5
9
100
AcDbSymbolTable
 70
1
  0
APPID
  5
20F
100
AcDbSymbolTableRecord
100
AcDbRegAppTableRecord
  2
ACAD
 70
0
  0
ENDTAB
  0
TABLE
  2
BLOCK_RECORD
  5
1
100
AcDbSymbolTable
 70
0
  0
BLOCK_RECORD
  5
210
100
AcDbSymbolTableRecord
100
AcDbBlockTableRecord
  2
*Model_Space
  0
BLOCK_RECORD
  5
211
100
AcDbSymbolTableRecord
100
AcDbBlockTableRecord
  2
*Paper_Space
  0
BLOCK_RECORD
  5
212
100
AcDbSymbolTableRecord
100
AcDbBlockTableRecord
  2
_FILLED
  0
ENDTAB
  0
TABLE
  2
DIMSTYLE
  5
A
100
AcDbSymbolTable
 70
1
100
AcDbDimStyleTable
 71
0
  0
DIMSTYLE
105
213
100
AcDbSymbolTableRecord
100
AcDbDimStyleTableRecord
  2
STANDARD
 70
0
  3

  4

 40
1.0
 41
1.0535747815
 42
1.0
 43
0.38
 44
1.0
 45
0.0
 46
0.0
 47
0.01
 48
0.01
140
1.4750046942
141
0.09
142
0.0
143
25.4
144
1.0
145
0.0
146
1.0
147
0.625
 71
1
 72
0
 73
0
 74
0
 75
0
 76
0
 77
1
 78
8
 79
2
170
0
171
1
172
0
173
0
174
0
175
0
176
0
177
0
178
0
270
2
179
2
271
2
272
2
273
2
274
2
275
0
280
0
281
0
282
0
283
1
284
8
285
0
286
0
287
3
288
0
340
11
278
46
341
212
342
212
343
212
344
212
  0
ENDTAB
  0
ENDSEC
  0
SECTION
  2
BLOCKS
  0
BLOCK
  5
20
100
AcDbEntity
  8
0
100
AcDbBlockBegin
  2
*Model_Space
 70
0
 10
0.0
 20
0.0
 30
0.0
  3
*Model_Space
  1

  0
ENDBLK
  5
21
100
AcDbEntity
  8
0
100
AcDbBlockEnd
  0
BLOCK
  5
1C
100
AcDbEntity
  8
0
100
AcDbBlockBegin
  2
*Paper_Space
 70
0
 10
0.0
 20
0.0
 30
0.0
  3
*Paper_Space
  1

  0
ENDBLK
  5
1D
100
AcDbEntity
  8
0
100
AcDbBlockEnd
  0
BLOCK
  5
214
100
AcDbEntity
  8
0
100
AcDbBlockBegin
  2
_FILLED
 70
64
 10
0.0
 20
0.0
  3
_FILLED
  1

  0
SOLID
  5
215
100
AcDbEntity
  8
0
  6
BYBLOCK
 62
0
100
AcDbTrace
 10
0.0
 20
0.0
 11
-1.0
 21
0.25
 12
-1.0
 22
-0.25
 13
-1.0
 23
-0.25
  0
ENDBLK
  5
216
100
AcDbEntity
  8
0
  6
BYBLOCK
 62
0
100
AcDbBlockEnd
  0
ENDSEC
  0
SECTION
  2
ENTITIES
  0
LINE
  5
217
100
AcDbEntity
  8
0
100
AcDbLine
 62
7
  6
BYLAYER
 10
45.8081093831
 20
105.8257158304
 11
22.6858139062
 21
92.4761319988
  0
LINE
  5
218
100
AcDbEntity
  8
0
100
AcDbLine
 62
7
  6
BYLAYER
 10
40.0719600018
 20
21.7612153917
 11
33.5753919925
 21
25.3600569341
  0
LINE
  5
219
100
AcDbEntity
  8
0
100
AcDbLine
 62
7
  6
BYLAYER
 10
42.2727544703
 20
20.5833872494
 11
40.0894769036
 21
21.792836607
  0
LINE
  5
21A
100
AcDbEntity
  8
0
100
AcDbLine
 62
7
  6
BYLAYER
 10
12.079256348
 20
37.7705758716
 11
33.5753919925
 21
25.3600569341
  0
LINE
  5
21B
100
AcDbEntity
  8
0
100
AcDbLine
 62
7
  6
BYLAYER
 10
42.4141752378
 20
20.6650360801
 11
44.1819495507
 21
19.6444341938
  0
LINE
  5
21C
100
AcDbEntity
  8
0
100
AcDbLine
 62
7
  6
BYLAYER
 10
12.079256348
 20
74.5131846424
 11
12.079256348
 21
50.9002471535
  0
LINE
  5
21D
100
AcDbEntity
  8
0
100
AcDbLine
 62
7
  6
BYLAYER
 10
12.079256348
 20
45.6586098169
 11
12.079256348
 21
37.7705758716
  0
LINE
  5
21E
100
AcDbEntity
  8
0
100
AcDbLine
 62
7
  6
BYLAYER
 10
18.5758243574
 20
85.6135719847
 11
12.079256348
 21
74.5131846424
  0
LINE
  5
21F
100
AcDbEntity
  8
0
100
AcDbLine
 62
7
  6
BYLAYER
 10
13.2252557548
 20
75.5014331915
 11
17.5239594273
 21
82.8464306986
  0
LINE
  5
220
100
AcDbEntity
  8
0
100
AcDbLine
 62
7
  6
BYLAYER
 10
23.9526532428
 20
91.7144354695
 11
19.9259069611
 21
84.8341190636
  0
LINE
  5
221
100
AcDbEntity
  8
0
100
AcDbLine
 62
7
  6
BYLAYER
 10
24.4535882191
 20
91.4555301125
 11
24.3121674516
 21
91.3738812818
  0
LINE
  5
222
100
AcDbEntity
  8
0
100
AcDbLine
 62
7
  6
BYLAYER
 10
26.0799417645
 20
90.3532793955
 11
26.2213625319
 21
90.4349282262
  0
LINE
  5
223
100
AcDbEntity
  8
0
100
AcDbLine
 62
7
  6
BYLAYER
 10
49.9800302658
 20
103.4170165895
 11
50.687134103
 21
103.8252607433
  0
LINE
  5
224
100
AcDbEntity
  8
0
100
AcDbLine
 62
7
  6
BYLAYER
 10
45.4487888873
 20
21.8689420554
 11
41.4080618797
 21
24.1073448853
  0
LINE
  5
225
100
AcDbEntity
  8
0
100
AcDbLine
 62
7
  6
BYLAYER
 10
13.0685813048
 20
43.2399252958
 11
25.7965563575
 21
35.8915917145
  0
LINE
  5
226
100
AcDbEntity
  8
0
100
AcDbLine
 62
7
  6
BYLAYER
 10
12.6614381526
 20
43.5520295243
 11
25.3894132053
 21
36.203695943
  0
LINE
  5
227
100
AcDbEntity
  8
0
100
AcDbLine
 62
7
  6
BYLAYER
 10
13.1399209357
 20
51.3209343805
 11
13.1399209357
 21
69.0018090078
  0
LINE
  5
228
100
AcDbEntity
  8
0
100
AcDbLine
 62
7
  6
BYLAYER
 10
24.3121674516
 20
91.3738812818
 11
20.3435986702
 21
84.5929700984
  0
LINE
  5
229
100
AcDbEntity
  8
0
100
AcDbLine
 62
7
  6
BYLAYER
 10
26.0799417645
 20
90.3532793955
 11
22.1113729831
 21
83.5723682121
  0
LINE
  5
22A
100
AcDbEntity
  8
0
100
AcDbLine
 62
7
  6
BYLAYER
 10
45.1717724538
 20
97.6200409714
 11
41.0705701979
 21
95.2522248789
  0
LINE
  5
22B
100
AcDbEntity
  8
0
100
AcDbLine
 62
7
  6
BYLAYER
 10
29.8983331027
 20
88.3120763027
 11
29.7569123352
 21
88.230427472
  0
LINE
  5
22C
100
AcDbEntity
  8
0
100
AcDbLine
 62
7
  6
BYLAYER
 10
10.8633513993
 20
46.3605969852
 11
13.2009629414
 21
45.011006864
  0
LINE
  5
22D
100
AcDbEntity
  8
0
100
AcDbLine
 62
7
  6
BYLAYER
 10
26.5965427839
 20
37.2772401972
 11
29.6017591157
 21
35.5422169905
  0
LINE
  5
22E
100
AcDbEntity
  8
0
100
AcDbLine
 62
7
  6
BYLAYER
 10
10.2670508913
 20
46.9977743787
 11
13.2722672232
 21
45.262751172
  0
LINE
  5
22F
100
AcDbEntity
  8
0
100
AcDbLine
 62
7
  6
BYLAYER
 10
26.0002422758
 20
37.9144175906
 11
29.0054586077
 21
36.1793943839
  0
LINE
  5
230
100
AcDbEntity
  8
0
100
AcDbLine
 62
7
  6
BYLAYER
 10
30.241640344
 20
36.6854537285
 11
30.6748865552
 21
36.4353245704
  0
LINE
  5
231
100
AcDbEntity
  8
0
100
AcDbLine
 62
7
  6
BYLAYER
 10
10.475108066
 20
48.4415679224
 11
29.2135157824
 21
37.6231879276
  0
LINE
  5
232
100
AcDbEntity
  8
0
100
AcDbLine
 62
7
  6
BYLAYER
 10
31.6610091333
 20
36.2633303948
 11
32.5147274047
 21
35.7704470715
  0
LINE
  5
233
100
AcDbEntity
  8
0
100
AcDbLine
 62
7
  6
BYLAYER
 10
18.2874615997
 20
44.0723729081
 11
21.2573224453
 21
42.3577617391
  0
LINE
  5
234
100
AcDbEntity
  8
0
100
AcDbLine
 62
7
  6
BYLAYER
 10
17.5239594273
 20
82.8464306986
 11
17.5239594273
 21
77.9832760993
  0
LINE
  5
235
100
AcDbEntity
  8
0
100
AcDbLine
 62
7
  6
BYLAYER
 10
27.4882018685
 20
89.6732316969
 11
23.4614555868
 21
82.792915291
  0
LINE
  5
236
100
AcDbEntity
  8
0
100
AcDbLine
 62
7
  6
BYLAYER
 10
29.7569123352
 20
88.230427472
 11
25.7883435539
 21
81.4495162886
  0
LINE
  5
237
100
AcDbEntity
  8
0
100
AcDbLine
 62
7
  6
BYLAYER
 10
31.5246866481
 20
87.2098255857
 11
31.6661074156
 21
87.2914744164
  0
LINE
  5
238
100
AcDbEntity
  8
0
100
AcDbLine
 62
7
  6
BYLAYER
 10
43.3686768046
 20
93.9254424268
 11
47.4698790605
 21
96.2932585192
  0
LINE
  5
239
100
AcDbEntity
  8
0
100
AcDbLine
 62
7
  6
BYLAYER
 10
13.2252557548
 20
75.5014331915
 11
17.5239594273
 21
77.9832760993
  0
LINE
  5
23A
100
AcDbEntity
  8
0
100
AcDbLine
 62
7
  6
BYLAYER
 10
56.5561772053
 20
99.6204563617
 11
33.4338817284
 21
86.2708725301
  0
LINE
  5
23B
100
AcDbEntity
  8
0
100
AcDbLine
 62
7
  6
BYLAYER
 10
18.5215759756
 20
45.1705395532
 11
10.6375426522
 21
49.7228398066
  0
LINE
  5
23C
100
AcDbEntity
  8
0
100
AcDbLine
 62
7
  6
BYLAYER
 10
29.3759503718
 20
38.9044598174
 11
21.4914368212
 21
43.4559283842
  0
LINE
  5
23D
100
AcDbEntity
  8
0
100
AcDbLine
 62
7
  6
BYLAYER
 10
32.1811261029
 20
37.7581303479
 11
31.6964274921
 21
38.037964836
  0
LINE
  5
23E
100
AcDbEntity
  8
0
100
AcDbLine
 62
7
  6
BYLAYER
 10
11.1122659538
 20
50.544994349
 11
18.9965393868
 21
45.9931099319
  0
LINE
  5
23F
100
AcDbEntity
  8
0
100
AcDbLine
 62
7
  6
BYLAYER
 10
21.9664002324
 20
44.2784987629
 11
29.8506736702
 21
39.7266143542
  0
LINE
  5
240
100
AcDbEntity
  8
0
100
AcDbLine
 62
7
  6
BYLAYER
 10
19.504038763
 20
46.1795580634
 11
22.4738996086
 21
44.4649468945
  0
LINE
  5
241
100
AcDbEntity
  8
0
100
AcDbLine
 62
7
  6
BYLAYER
 10
32.3912445767
 20
39.2991642373
 11
32.5147274047
 21
39.2278729614
  0
LINE
  5
242
100
AcDbEntity
  8
0
100
AcDbLine
 62
7
  6
BYLAYER
 10
12.2124687149
 20
50.9491858043
 11
30.9508764313
 21
40.1308058096
  0
LINE
  5
243
100
AcDbEntity
  8
0
100
AcDbLine
 62
7
  6
BYLAYER
 10
32.5147274047
 20
39.4446556784
 11
32.4694692354
 21
39.4707849036
  0
LINE
  5
244
100
AcDbEntity
  8
0
100
AcDbLine
 62
7
  6
BYLAYER
 10
21.7666595825
 20
45.6499151471
 11
21.7214014131
 21
45.6760443723
  0
LINE
  5
245
100
AcDbEntity
  8
0
100
AcDbLine
 62
7
  6
BYLAYER
 10
12.8970890995
 20
50.9003349676
 11
19.9681863509
 21
46.8179274224
  0
LINE
  5
246
100
AcDbEntity
  8
0
100
AcDbLine
 62
7
  6
BYLAYER
 10
23.6451569217
 20
44.6950754989
 11
30.7162541732
 21
40.6126679537
  0
LINE
  5
247
100
AcDbEntity
  8
0
100
AcDbLine
 62
7
  6
BYLAYER
 10
15.0844315916
 20
67.8791706547
 11
16.2511778194
 21
64.511014673
  0
LINE
  5
248
100
AcDbEntity
  8
0
100
AcDbLine
 62
7
  6
BYLAYER
 10
21.7666595825
 20
45.4331957999
 11
21.7666595825
 21
64.0212718027
  0
LINE
  5
249
100
AcDbEntity
  8
0
100
AcDbLine
 62
7
  6
BYLAYER
 10
22.8273241702
 20
68.3079251737
 11
22.8273241702
 21
44.8208346682
  0
LINE
  5
24A
100
AcDbEntity
  8
0
100
AcDbLine
 62
7
  6
BYLAYER
 10
22.8273241702
 20
37.6058399356
 11
22.8273241702
 21
31.5653164029
  0
LINE
  5
24B
100
AcDbEntity
  8
0
100
AcDbLine
 62
7
  6
BYLAYER
 10
11.1122591081
 20
50.5449983028
 11
10.6374348511
 21
49.7226372701
  0
LINE
  5
24C
100
AcDbEntity
  8
0
100
AcDbLine
 62
7
  6
BYLAYER
 10
13.8313950742
 20
53.825007388
 11
13.331397156
 21
52.9589807824
  0
LINE
  5
24D
100
AcDbEntity
  8
0
100
AcDbLine
 62
7
  6
BYLAYER
 10
15.283638879
 20
56.1094396475
 11
13.9313946579
 21
53.7672709507
  0
LINE
  5
24E
100
AcDbEntity
  8
0
100
AcDbLine
 62
7
  6
BYLAYER
 10
13.8970849361
 20
52.6323881788
 11
12.8970890995
 21
50.9003349676
  0
LINE
  5
24F
100
AcDbEntity
  8
0
100
AcDbLine
 62
7
  6
BYLAYER
 10
16.4970741112
 20
56.9047847695
 11
15.8493266591
 21
55.7828470439
  0
LINE
  5
250
100
AcDbEntity
  8
0
100
AcDbLine
 62
7
  6
BYLAYER
 10
31.5246866481
 20
87.2098255857
 11
27.5561178667
 21
80.4289144023
  0
LINE
  5
251
100
AcDbEntity
  8
0
100
AcDbLine
 62
7
  6
BYLAYER
 10
27.4234955793
 20
77.1310601353
 11
23.1247919069
 21
69.7860626282
  0
LINE
  5
252
100
AcDbEntity
  8
0
100
AcDbLine
 62
7
  6
BYLAYER
 10
32.9329467522
 20
86.5297778871
 11
28.9062004704
 21
79.6494614812
  0
LINE
  5
253
100
AcDbEntity
  8
0
100
AcDbLine
 62
7
  6
BYLAYER
 10
29.3238921796
 20
79.408312516
 11
22.8273241702
 21
68.3079251737
  0
LINE
  5
254
100
AcDbEntity
  8
0
100
AcDbLine
 62
7
  6
BYLAYER
 10
59.667368733
 20
99.4569304907
 11
58.9604278603
 21
99.0487804239
  0
LINE
  5
255
100
AcDbEntity
  8
0
100
AcDbLine
 62
7
  6
BYLAYER
 10
35.2016560413
 20
85.2502706438
 11
35.0602352738
 21
85.1686218131
  0
LINE
  5
256
100
AcDbEntity
  8
0
100
AcDbLine
 62
7
  6
BYLAYER
 10
58.7481908576
 20
98.3548312334
 11
59.4552946948
 21
98.7630753873
  0
LINE
  5
257
100
AcDbEntity
  8
0
100
AcDbLine
 62
7
  6
BYLAYER
 10
36.8280095867
 20
84.1480199268
 11
36.9694303542
 21
84.2296687575
  0
LINE
  5
258
100
AcDbEntity
  8
0
100
AcDbLine
 62
7
  6
BYLAYER
 10
60.728098088
 20
97.2117571207
 11
61.4352019252
 21
97.6200012746
  0
LINE
  5
259
100
AcDbEntity
  8
0
100
AcDbLine
 62
7
  6
BYLAYER
 10
24.6451527583
 20
46.4271287101
 11
24.0794649782
 21
46.7537213137
  0
LINE
  5
25A
100
AcDbEntity
  8
0
100
AcDbLine
 62
7
  6
BYLAYER
 10
13.8970849361
 20
52.6323881788
 11
13.331397156
 21
52.9589807824
  0
LINE
  5
25B
100
AcDbEntity
  8
0
100
AcDbLine
 62
7
  6
BYLAYER
 10
20.9681821875
 20
48.5499806336
 11
21.7666595825
 21
48.0889830404
  0
LINE
  5
25C
100
AcDbEntity
  8
0
100
AcDbLine
 62
7
  6
BYLAYER
 10
31.7162500098
 20
42.3447211649
 11
32.5147274047
 21
41.8837235717
  0
LINE
  5
25D
100
AcDbEntity
  8
0
100
AcDbLine
 62
7
  6
BYLAYER
 10
13.8313950742
 20
53.825007388
 11
21.7666595825
 21
49.2436839315
  0
LINE
  5
25E
100
AcDbEntity
  8
0
100
AcDbLine
 62
7
  6
BYLAYER
 10
24.5794628965
 20
47.6197479193
 11
32.5147274047
 21
43.0384244627
  0
LINE
  5
25F
100
AcDbEntity
  8
0
100
AcDbLine
 62
7
  6
BYLAYER
 10
23.8879887579
 20
45.1156749117
 11
23.8879887579
 21
62.7965495391
  0
LINE
  5
260
100
AcDbEntity
  8
0
100
AcDbLine
 62
7
  6
BYLAYER
 10
23.9733235771
 20
69.2961737227
 11
28.2720272495
 21
76.6411712299
  0
LINE
  5
261
100
AcDbEntity
  8
0
100
AcDbLine
 62
7
  6
BYLAYER
 10
34.700721065
 20
85.5091760008
 11
30.6739747833
 21
78.6288595949
  0
LINE
  5
262
100
AcDbEntity
  8
0
100
AcDbLine
 62
7
  6
BYLAYER
 10
35.0602352738
 20
85.1686218131
 11
31.0916664925
 21
78.3877106297
  0
LINE
  5
263
100
AcDbEntity
  8
0
100
AcDbLine
 62
7
  6
BYLAYER
 10
12.8970890995
 20
50.9003349676
 11
12.7220905709
 21
50.6549621368
  0
LINE
  5
264
100
AcDbEntity
  8
0
100
AcDbLine
 62
7
  6
BYLAYER
 10
64.617136809
 20
96.599245209
 11
63.9101959364
 21
96.1910951422
  0
LINE
  5
265
100
AcDbEntity
  8
0
100
AcDbLine
 62
7
  6
BYLAYER
 10
55.919840276
 20
91.4147815027
 11
51.8186380201
 21
89.0469654102
  0
LINE
  5
266
100
AcDbEntity
  8
0
100
AcDbLine
 62
7
  6
BYLAYER
 10
40.6464009249
 20
82.106816834
 11
40.5049801575
 21
82.0251680033
  0
LINE
  5
267
100
AcDbEntity
  8
0
100
AcDbLine
 62
7
  6
BYLAYER
 10
26.5973944813
 20
49.5775875752
 11
26.0317067012
 21
49.9041801788
  0
LINE
  5
268
100
AcDbEntity
  8
0
100
AcDbLine
 62
7
  6
BYLAYER
 10
15.8493266591
 20
55.7828470439
 11
15.283638879
 21
56.1094396475
  0
LINE
  5
269
100
AcDbEntity
  8
0
100
AcDbLine
 62
7
  6
BYLAYER
 10
32.5147274047
 20
47.657197537
 11
27.2451419334
 21
50.6995253007
  0
LINE
  5
26A
100
AcDbEntity
  8
0
100
AcDbLine
 62
7
  6
BYLAYER
 10
21.7666595825
 20
53.8624570057
 11
16.4970741112
 21
56.9047847695
  0
LINE
  5
26B
100
AcDbEntity
  8
0
100
AcDbLine
 62
7
  6
BYLAYER
 10
25.8324994139
 20
61.673911186
 11
26.9992456417
 21
58.3057552043
  0
LINE
  5
26C
100
AcDbEntity
  8
0
100
AcDbLine
 62
7
  6
BYLAYER
 10
28.2720272495
 20
76.6411712299
 11
28.2720272495
 21
71.7780166306
  0
LINE
  5
26D
100
AcDbEntity
  8
0
100
AcDbLine
 62
7
  6
BYLAYER
 10
36.8280095867
 20
84.1480199268
 11
32.8594408053
 21
77.3671087434
  0
LINE
  5
26E
100
AcDbEntity
  8
0
100
AcDbLine
 62
7
  6
BYLAYER
 10
38.2362696908
 20
83.4679722282
 11
34.209523409
 21
76.5876558223
  0
LINE
  5
26F
100
AcDbEntity
  8
0
100
AcDbLine
 62
7
  6
BYLAYER
 10
42.2727544703
 20
81.004566117
 11
42.4141752378
 21
81.0862149477
  0
LINE
  5
270
100
AcDbEntity
  8
0
100
AcDbLine
 62
7
  6
BYLAYER
 10
54.1167446269
 20
87.720182958
 11
58.2179468827
 21
90.0879990505
  0
LINE
  5
271
100
AcDbEntity
  8
0
100
AcDbLine
 62
7
  6
BYLAYER
 10
23.9733235771
 20
69.2961737227
 11
28.2720272495
 21
71.7780166306
  0
LINE
  5
272
100
AcDbEntity
  8
0
100
AcDbLine
 62
7
  6
BYLAYER
 10
67.3042450276
 20
93.415196893
 11
44.1819495507
 21
80.0656130614
  0
LINE
  5
273
100
AcDbEntity
  8
0
100
AcDbLine
 62
7
  6
BYLAYER
 10
32.5147274047
 20
35.7704470715
 11
32.5147274047
 21
57.816012334
  0
LINE
  5
274
100
AcDbEntity
  8
0
100
AcDbLine
 62
7
  6
BYLAYER
 10
33.5753919925
 20
62.102665705
 11
33.5753919925
 21
25.3600569341
  0
LINE
  5
275
100
AcDbEntity
  8
0
100
AcDbLine
 62
7
  6
BYLAYER
 10
21.7666595825
 20
45.7753383457
 11
21.6431996049
 21
45.5044738387
  0
LINE
  5
276
100
AcDbEntity
  8
0
100
AcDbLine
 62
7
  6
BYLAYER
 10
18.2874615997
 20
44.0723729081
 11
19.504038763
 21
46.1795580634
  0
LINE
  5
277
100
AcDbEntity
  8
0
100
AcDbLine
 62
7
  6
BYLAYER
 10
20.9681821875
 20
48.5499806336
 11
19.9681863509
 21
46.8179274224
  0
LINE
  5
278
100
AcDbEntity
  8
0
100
AcDbLine
 62
7
  6
BYLAYER
 10
21.7666595825
 20
48.6265937086
 11
21.5338699677
 21
48.22338803
  0
LINE
  5
279
100
AcDbEntity
  8
0
100
AcDbLine
 62
7
  6
BYLAYER
 10
21.9663933833
 20
44.2785027188
 11
21.490853617
 21
43.4549024441
  0
LINE
  5
27A
100
AcDbEntity
  8
0
100
AcDbLine
 62
7
  6
BYLAYER
 10
18.9965393868
 20
45.9931099319
 11
18.5215759756
 21
45.1705395532
  0
LINE
  5
27B
100
AcDbEntity
  8
0
100
AcDbLine
 62
7
  6
BYLAYER
 10
40.5049801575
 20
82.0251680033
 11
36.5364113761
 21
75.2442568199
  0
LINE
  5
27C
100
AcDbEntity
  8
0
100
AcDbLine
 62
7
  6
BYLAYER
 10
42.2727544703
 20
81.004566117
 11
38.304185689
 21
74.2236549336
  0
LINE
  5
27D
100
AcDbEntity
  8
0
100
AcDbLine
 62
7
  6
BYLAYER
 10
19.7931877664
 20
46.5725545132
 11
19.9681863509
 21
46.8179274224
  0
LINE
  5
27E
100
AcDbEntity
  8
0
100
AcDbLine
 62
7
  6
BYLAYER
 10
70.4154365552
 20
93.251671022
 11
69.7084956826
 21
92.8435209551
  0
LINE
  5
27F
100
AcDbEntity
  8
0
100
AcDbLine
 62
7
  6
BYLAYER
 10
69.4962586798
 20
92.1495717647
 11
70.203362517
 21
92.5578159186
  0
LINE
  5
280
100
AcDbEntity
  8
0
100
AcDbLine
 62
7
  6
BYLAYER
 10
32.5147274047
 20
55.121462362
 11
26.9992456417
 21
58.3057552043
  0
LINE
  5
281
100
AcDbEntity
  8
0
100
AcDbLine
 62
7
  6
BYLAYER
 10
21.7666595825
 20
61.3267218307
 11
16.2511778194
 21
64.511014673
  0
LINE
  5
282
100
AcDbEntity
  8
0
100
AcDbLine
 62
7
  6
BYLAYER
 10
24.5794628965
 20
47.6197479193
 11
24.0794649782
 21
46.7537213137
  0
LINE
  5
283
100
AcDbEntity
  8
0
100
AcDbLine
 62
7
  6
BYLAYER
 10
26.0317067012
 20
49.9041801788
 11
24.6794624801
 21
47.562011482
  0
LINE
  5
284
100
AcDbEntity
  8
0
100
AcDbLine
 62
7
  6
BYLAYER
 10
24.6451527583
 20
46.4271287101
 11
23.6451569217
 21
44.6950754989
  0
LINE
  5
285
100
AcDbEntity
  8
0
100
AcDbLine
 62
7
  6
BYLAYER
 10
27.2451419334
 20
50.6995253007
 11
26.5973944813
 21
49.5775875752
  0
LINE
  5
286
100
AcDbEntity
  8
0
100
AcDbLine
 62
7
  6
BYLAYER
 10
38.1715634016
 20
70.9258006666
 11
33.8728597291
 21
63.5808031595
  0
LINE
  5
287
100
AcDbEntity
  8
0
100
AcDbLine
 62
7
  6
BYLAYER
 10
43.6810145744
 20
80.3245184184
 11
39.6542682927
 21
73.4442020125
  0
LINE
  5
288
100
AcDbEntity
  8
0
100
AcDbLine
 62
7
  6
BYLAYER
 10
33.5753919925
 20
62.102665705
 11
40.0719600018
 21
73.2030530473
  0
LINE
  5
289
100
AcDbEntity
  8
0
100
AcDbLine
 62
7
  6
BYLAYER
 10
41.4080618797
 20
72.3997119022
 11
45.4487888873
 21
79.3039165321
  0
LINE
  5
28A
100
AcDbEntity
  8
0
100
AcDbLine
 62
7
  6
BYLAYER
 10
75.3652046313
 20
90.3939857403
 11
71.8506794946
 21
88.3648858187
  0
LINE
  5
28B
100
AcDbEntity
  8
0
100
AcDbLine
 62
7
  6
BYLAYER
 10
13.1399209357
 20
69.0018090078
 11
21.7666595825
 21
64.0212718027
  0
LINE
  5
28C
100
AcDbEntity
  8
0
100
AcDbLine
 62
7
  6
BYLAYER
 10
23.8879887579
 20
62.7965495391
 11
32.5147274047
 21
57.816012334
  0
LINE
  5
28D
100
AcDbEntity
  8
0
100
AcDbLine
 62
7
  6
BYLAYER
 10
23.6451569217
 20
44.6950754989
 11
23.470158338
 21
44.4497025908
  0
LINE
  5
28E
100
AcDbEntity
  8
0
100
AcDbLine
 62
7
  6
BYLAYER
 10
73.7598757525
 20
87.2626357815
 11
70.486212295
 21
85.3725965851
  0
LINE
  5
28F
100
AcDbEntity
  8
0
100
AcDbLine
 62
7
  6
BYLAYER
 10
75.3652046313
 20
85.2028846075
 11
76.1198486853
 21
85.6385759546
  0
LINE
  5
290
100
AcDbEntity
  8
0
100
AcDbLine
 62
7
  6
BYLAYER
 10
76.9902724119
 20
53.2547430835
 11
70.486212295
 21
54.5083005176
  0
LINE
  5
291
100
AcDbEntity
  8
0
100
AcDbLine
 62
7
  6
BYLAYER
 10
12.079256348
 20
74.5131846424
 11
33.5753919925
 21
62.102665705
  0
LINE
  5
292
100
AcDbEntity
  8
0
100
AcDbLine
 62
7
  6
BYLAYER
 10
13.2252557548
 20
75.5014331915
 11
23.1247919069
 21
69.7860626282
  0
LINE
  5
293
100
AcDbEntity
  8
0
100
AcDbLine
 62
7
  6
BYLAYER
 10
23.9733235771
 20
69.2961737227
 11
33.8728597291
 21
63.5808031595
  0
LINE
  5
294
100
AcDbEntity
  8
0
100
AcDbLine
 62
7
  6
BYLAYER
 10
45.1717724538
 20
97.6200409714
 11
45.1717724538
 21
94.9664539711
  0
LINE
  5
295
100
AcDbEntity
  8
0
100
AcDbLine
 62
7
  6
BYLAYER
 10
32.5147274047
 20
39.570078877
 11
32.2662477199
 21
39.0249279006
  0
LINE
  5
296
100
AcDbEntity
  8
0
100
AcDbLine
 62
7
  6
BYLAYER
 10
31.7162500098
 20
42.3447211649
 11
30.7162541732
 21
40.6126679537
  0
LINE
  5
297
100
AcDbEntity
  8
0
100
AcDbLine
 62
7
  6
BYLAYER
 10
30.2310601889
 20
38.8840405846
 11
30.9508764313
 21
40.1308058096
  0
LINE
  5
298
100
AcDbEntity
  8
0
100
AcDbLine
 62
7
  6
BYLAYER
 10
32.5147274047
 20
42.4213342399
 11
32.2819377899
 21
42.0181285613
  0
LINE
  5
299
100
AcDbEntity
  8
0
100
AcDbLine
 62
7
  6
BYLAYER
 10
29.8506736702
 20
39.7266143542
 11
29.3759503718
 21
38.9044598174
  0
LINE
  5
29A
100
AcDbEntity
  8
0
100
AcDbLine
 62
7
  6
BYLAYER
 10
79.4664068871
 20
82.7188221021
 11
78.1936199801
 21
81.9839826251
  0
LINE
  5
29B
100
AcDbEntity
  8
0
100
AcDbLine
 62
7
  6
BYLAYER
 10
12.2124687149
 20
50.9491858043
 11
11.1122591081
 21
50.5449983028
  0
LINE
  5
29C
100
AcDbEntity
  8
0
100
AcDbLine
 62
7
  6
BYLAYER
 10
70.486212295
 20
45.1889478902
 11
74.3702563261
 21
42.9465447533
  0
LINE
  5
29D
100
AcDbEntity
  8
0
100
AcDbLine
 62
7
  6
BYLAYER
 10
70.486212295
 20
45.8934375967
 11
74.2148712897
 21
43.7407440228
  0
LINE
  5
29E
100
AcDbEntity
  8
0
100
AcDbLine
 62
7
  6
BYLAYER
 10
17.5239594273
 20
77.9832760993
 11
25.296123242
 21
73.4961167418
  0
LINE
  5
29F
100
AcDbEntity
  8
0
100
AcDbLine
 62
7
  6
BYLAYER
 10
28.2720272495
 20
71.7780166306
 11
36.0441910642
 21
67.2908572731
  0
LINE
  5
2A0
100
AcDbEntity
  8
0
100
AcDbLine
 62
7
  6
BYLAYER
 10
31.5662506343
 20
37.8124906527
 11
32.2662477199
 21
39.0249279006
  0
LINE
  5
2A1
100
AcDbEntity
  8
0
100
AcDbLine
 62
7
  6
BYLAYER
 10
32.5147274047
 20
38.3359451782
 11
32.1811261029
 21
37.7581303479
  0
LINE
  5
2A2
100
AcDbEntity
  8
0
100
AcDbLine
 62
7
  6
BYLAYER
 10
68.0868383703
 20
94.0761575162
 11
67.9562144798
 21
93.8551780925
  0
LINE
  5
2A3
100
AcDbEntity
  8
0
100
AcDbLine
 62
7
  6
BYLAYER
 10
30.5412556454
 20
40.367295124
 11
30.7162541732
 21
40.6126679537
  0
LINE
  5
2A4
100
AcDbEntity
  8
0
100
AcDbLine
 62
7
  6
BYLAYER
 10
77.7693576778
 20
80.9225337157
 11
77.2744008892
 21
80.6367719863
  0
LINE
  5
2A5
100
AcDbEntity
  8
0
100
AcDbLine
 62
7
  6
BYLAYER
 10
70.486212295
 20
49.0848577362
 11
73.1024723522
 21
47.5743934592
  0
LINE
  5
2A6
100
AcDbEntity
  8
0
100
AcDbLine
 62
7
  6
BYLAYER
 10
17.5239594273
 20
82.8464306986
 11
27.4234955793
 21
77.1310601353
  0
LINE
  5
2A7
100
AcDbEntity
  8
0
100
AcDbLine
 62
7
  6
BYLAYER
 10
28.2720272495
 20
76.6411712299
 11
38.1715634016
 21
70.9258006666
  0
LINE
  5
2A8
100
AcDbEntity
  8
0
100
AcDbLine
 62
7
  6
BYLAYER
 10
18.9965325376
 20
45.9931138878
 11
19.504038763
 21
46.1795580634
  0
LINE
  5
2A9
100
AcDbEntity
  8
0
100
AcDbLine
 62
7
  6
BYLAYER
 10
18.5758243574
 20
85.6135719847
 11
20.3435986702
 21
84.5929700984
  0
LINE
  5
2AA
100
AcDbEntity
  8
0
100
AcDbLine
 62
7
  6
BYLAYER
 10
22.1113729831
 20
83.5723682121
 11
25.7883435539
 21
81.4495162886
  0
LINE
  5
2AB
100
AcDbEntity
  8
0
100
AcDbLine
 62
7
  6
BYLAYER
 10
27.5561178667
 20
80.4289144023
 11
31.0916664925
 21
78.3877106297
  0
LINE
  5
2AC
100
AcDbEntity
  8
0
100
AcDbLine
 62
7
  6
BYLAYER
 10
32.8594408053
 20
77.3671087434
 11
36.5364113761
 21
75.2442568199
  0
LINE
  5
2AD
100
AcDbEntity
  8
0
100
AcDbLine
 62
7
  6
BYLAYER
 10
38.304185689
 20
74.2236549336
 11
40.0719600018
 21
73.2030530473
  0
LINE
  5
2AE
100
AcDbEntity
  8
0
100
AcDbLine
 62
7
  6
BYLAYER
 10
40.0719600018
 20
73.2030530473
 11
41.4080618797
 21
72.3997119022
  0
LINE
  5
2AF
100
AcDbEntity
  8
0
100
AcDbLine
 62
7
  6
BYLAYER
 10
55.919840276
 20
91.4147815027
 11
55.919840276
 21
88.7611945024
  0
LINE
  5
2B0
100
AcDbEntity
  8
0
100
AcDbLine
 62
7
  6
BYLAYER
 10
22.4738996086
 20
44.4649468945
 11
21.9663933833
 21
44.2785027188
  0
LINE
  5
2B1
100
AcDbEntity
  8
0
100
AcDbLine
 62
7
  6
BYLAYER
 10
77.2744008892
 20
59.8600825694
 11
79.4608389994
 21
58.9424322453
  0
LINE
  5
2B2
100
AcDbEntity
  8
0
100
AcDbLine
 62
7
  6
BYLAYER
 10
59.4552946948
 20
98.7630753873
 11
59.4552946948
 21
97.9466879645
  0
LINE
  5
2B3
100
AcDbEntity
  8
0
100
AcDbLine
 62
7
  6
BYLAYER
 10
77.2744008892
 20
70.0214365046
 11
78.0902453574
 21
70.6316823983
  0
LINE
  5
2B4
100
AcDbEntity
  8
0
100
AcDbLine
 62
7
  6
BYLAYER
 10
79.4608389994
 20
58.9424322453
 11
79.4834996201
 21
58.931061182
  0
LINE
  5
2B5
100
AcDbEntity
  8
0
100
AcDbLine
 62
7
  6
BYLAYER
 10
79.4608389994
 20
58.9424322453
 11
77.2744008892
 21
60.2047443195
  0
LINE
  5
2B6
100
AcDbEntity
  8
0
100
AcDbLine
 62
7
  6
BYLAYER
 10
77.2744008892
 20
60.2065960516
 11
79.4835602621
 21
58.931166147
  0
LINE
  5
2B7
100
AcDbEntity
  8
0
100
AcDbLine
 62
7
  6
BYLAYER
 10
24.3121674516
 20
91.3738812818
 11
26.0799417645
 21
90.3532793955
  0
LINE
  5
2B8
100
AcDbEntity
  8
0
100
AcDbLine
 62
7
  6
BYLAYER
 10
29.7569123352
 20
88.230427472
 11
31.5246866481
 21
87.2098255857
  0
LINE
  5
2B9
100
AcDbEntity
  8
0
100
AcDbLine
 62
7
  6
BYLAYER
 10
35.0602352739
 20
85.1686218131
 11
36.8280095867
 21
84.1480199268
  0
LINE
  5
2BA
100
AcDbEntity
  8
0
100
AcDbLine
 62
7
  6
BYLAYER
 10
40.5049801575
 20
82.0251680033
 11
42.2727544703
 21
81.004566117
  0
LINE
  5
2BB
100
AcDbEntity
  8
0
100
AcDbLine
 62
7
  6
BYLAYER
 10
23.9526532428
 20
91.7144354695
 11
24.4273446382
 21
91.4403784645
  0
LINE
  5
2BC
100
AcDbEntity
  8
0
100
AcDbLine
 62
7
  6
BYLAYER
 10
27.4882018685
 20
89.6732316969
 11
29.8720895219
 21
88.2969246547
  0
LINE
  5
2BD
100
AcDbEntity
  8
0
100
AcDbLine
 62
7
  6
BYLAYER
 10
32.9329467522
 20
86.5297778871
 11
35.1754124605
 21
85.2351189958
  0
LINE
  5
2BE
100
AcDbEntity
  8
0
100
AcDbLine
 62
7
  6
BYLAYER
 10
38.2362696908
 20
83.4679722282
 11
40.6201573441
 21
82.091665186
  0
LINE
  5
2BF
100
AcDbEntity
  8
0
100
AcDbLine
 62
7
  6
BYLAYER
 10
43.6810145744
 20
80.3245184184
 11
45.4487888873
 21
79.3039165321
  0
LINE
  5
2C0
100
AcDbEntity
  8
0
100
AcDbLine
 62
7
  6
BYLAYER
 10
22.6858139062
 20
92.4761319988
 11
24.4535882191
 21
91.4555301125
  0
LINE
  5
2C1
100
AcDbEntity
  8
0
100
AcDbLine
 62
7
  6
BYLAYER
 10
26.2213625319
 20
90.4349282262
 11
29.8983331027
 21
88.3120763027
  0
LINE
  5
2C2
100
AcDbEntity
  8
0
100
AcDbLine
 62
7
  6
BYLAYER
 10
31.6661074156
 20
87.2914744164
 11
35.2016560413
 21
85.2502706438
  0
LINE
  5
2C3
100
AcDbEntity
  8
0
100
AcDbLine
 62
7
  6
BYLAYER
 10
36.9694303542
 20
84.2296687575
 11
40.6464009249
 21
82.106816834
  0
LINE
  5
2C4
100
AcDbEntity
  8
0
100
AcDbLine
 62
7
  6
BYLAYER
 10
42.4141752378
 20
81.0862149477
 11
44.1819495507
 21
80.0656130614
  0
LINE
  5
2C5
100
AcDbEntity
  8
0
100
AcDbLine
 62
7
  6
BYLAYER
 10
22.6858139062
 20
92.4761319988
 11
23.9526532428
 21
91.7144354695
  0
LINE
  5
2C6
100
AcDbEntity
  8
0
100
AcDbLine
 62
7
  6
BYLAYER
 10
26.2213625319
 20
90.4349282262
 11
27.4882018685
 21
89.6732316969
  0
LINE
  5
2C7
100
AcDbEntity
  8
0
100
AcDbLine
 62
7
  6
BYLAYER
 10
31.6661074156
 20
87.2914744164
 11
32.9329467522
 21
86.5297778871
  0
LINE
  5
2C8
100
AcDbEntity
  8
0
100
AcDbLine
 62
7
  6
BYLAYER
 10
34.700721065
 20
85.5091760008
 11
33.4338817284
 21
86.2708725301
  0
LINE
  5
2C9
100
AcDbEntity
  8
0
100
AcDbLine
 62
7
  6
BYLAYER
 10
36.9694303542
 20
84.2296687575
 11
38.2362696908
 21
83.4679722282
  0
LINE
  5
2CA
100
AcDbEntity
  8
0
100
AcDbLine
 62
7
  6
BYLAYER
 10
42.4141752378
 20
81.0862149477
 11
43.6810145744
 21
80.3245184184
  0
LINE
  5
2CB
100
AcDbEntity
  8
0
100
AcDbLine
 62
7
  6
BYLAYER
 10
45.4487888873
 20
79.3039165321
 11
44.1819495507
 21
80.0656130614
  0
LINE
  5
2CC
100
AcDbEntity
  8
0
100
AcDbLine
 62
7
  6
BYLAYER
 10
41.4080618797
 20
24.1073448853
 11
40.0719600018
 21
21.7612153917
  0
LINE
  5
2CD
100
AcDbEntity
  8
0
100
AcDbLine
 62
7
  6
BYLAYER
 10
43.6631243279
 20
22.8581295446
 11
42.4141752378
 21
20.6650360801
  0
LINE
  5
2CE
100
AcDbEntity
  8
0
100
AcDbLine
 62
7
  6
BYLAYER
 10
78.8349061925
 20
87.8708980475
 11
76.8501542804
 21
84.5132478351
  0
LINE
  5
2CF
100
AcDbEntity
  8
0
100
AcDbLine
 62
7
  6
BYLAYER
 10
79.4664068871
 20
80.2405820481
 11
77.2744008892
 21
77.5066202079
  0
LINE
  5
2D0
100
AcDbEntity
  8
0
100
AcDbLine
 62
7
  6
BYLAYER
 10
78.6192943109
 20
68.3714114511
 11
77.2744008892
 21
67.1808170472
  0
LINE
  5
2D1
100
AcDbEntity
  8
0
100
AcDbLine
 62
7
  6
BYLAYER
 10
29.8506668245
 20
39.726618308
 11
30.9508764313
 21
40.1308058096
  0
LINE
  5
2D2
100
AcDbEntity
  8
0
100
AcDbLine
 62
7
  6
BYLAYER
 10
44.1819495507
 20
19.6444341938
 11
45.4487888873
 21
21.8689420554
  0
LINE
  5
2D3
100
AcDbEntity
  8
0
100
AcDbLine
 62
7
  6
BYLAYER
 10
70.203362517
 20
92.5578159186
 11
70.203362517
 21
91.741342773
  0
LINE
  5
2D4
100
AcDbEntity
  8
0
100
AcDbLine
 62
7
  6
BYLAYER
 10
70.486212295
 20
38.5053775949
 11
70.486212295
 21
91.5780347084
  0
LINE
  5
2D5
100
AcDbEntity
  8
0
100
AcDbLine
 62
7
  6
BYLAYER
 10
77.7693576778
 20
80.9225337157
 11
78.1936199801
 21
81.9839826251
  0
LINE
  5
2D6
100
AcDbEntity
  8
0
100
AcDbLine
 62
7
  6
BYLAYER
 10
78.0902453574
 20
70.6316823983
 11
77.2744008892
 21
71.1026997658
  0
LINE
  5
2D7
100
AcDbEntity
  8
0
100
AcDbLine
 62
7
  6
BYLAYER
 10
77.2744008892
 20
71.5690289823
 11
78.6936114966
 21
70.7496658925
  0
LINE
  5
2D8
100
AcDbEntity
  8
0
100
AcDbLine
 62
7
  6
BYLAYER
 10
41.0705701979
 20
95.2522248789
 11
43.3686768046
 21
93.9254424268
  0
LINE
  5
2D9
100
AcDbEntity
  8
0
100
AcDbLine
 62
7
  6
BYLAYER
 10
51.8186380201
 20
89.0469654102
 11
54.1167446269
 21
87.720182958
  0
LINE
  5
2DA
100
AcDbEntity
  8
0
100
AcDbLine
 62
7
  6
BYLAYER
 10
73.1024723522
 20
47.5743934592
 11
73.2293979354
 21
53.9795937267
  0
LINE
  5
2DB
100
AcDbEntity
  8
0
100
AcDbLine
 62
7
  6
BYLAYER
 10
79.3609379296
 20
58.0689203822
 11
77.2744008892
 21
55.7554249507
  0
LINE
  5
2DC
100
AcDbEntity
  8
0
100
AcDbLine
 62
7
  6
BYLAYER
 10
75.3652046313
 20
84.7889840113
 11
75.3652046313
 21
85.2028846075
  0
LINE
  5
2DD
100
AcDbEntity
  8
0
100
AcDbLine
 62
7
  6
BYLAYER
 10
77.2744008892
 20
49.8791640283
 11
77.2744008892
 21
81.5349627404
  0
LINE
  5
2DE
100
AcDbEntity
  8
0
100
AcDbLine
 62
7
  6
BYLAYER
 10
78.8878509408
 20
70.1293579017
 11
78.6192943109
 21
68.3714114511
  0
LINE
  5
2DF
100
AcDbEntity
  8
0
100
AcDbLine
 62
7
  6
BYLAYER
 10
74.8782754821
 20
53.6617979699
 11
73.1024723522
 21
47.5743934592
  0
LINE
  5
2E0
100
AcDbEntity
  8
0
100
AcDbLine
 62
7
  6
BYLAYER
 10
74.2148712897
 20
43.7407440228
 11
76.9902724119
 21
53.2547430835
  0
LINE
  5
2E1
100
AcDbEntity
  8
0
100
AcDbLine
 62
7
  6
BYLAYER
 10
58.2179468827
 20
90.0879990505
 11
55.919840276
 21
91.4147815027
  0
LINE
  5
2E2
100
AcDbEntity
  8
0
100
AcDbLine
 62
7
  6
BYLAYER
 10
47.4698790605
 20
96.2932585192
 11
45.1717724538
 21
97.6200409714
  0
LINE
  5
2E3
100
AcDbEntity
  8
0
100
AcDbLine
 62
7
  6
BYLAYER
 10
77.2744008892
 20
81.2082906861
 11
77.7693576778
 21
80.9225337157
  0
LINE
  5
2E4
100
AcDbEntity
  8
0
100
AcDbLine
 62
7
  6
BYLAYER
 10
76.5815774464
 20
82.9146747608
 11
78.1936199801
 21
81.9839826251
  0
LINE
  5
2E5
100
AcDbEntity
  8
0
100
AcDbLine
 62
7
  6
BYLAYER
 10
79.4664068871
 20
80.2405820481
 11
79.4664068871
 21
82.7188221021
  0
LINE
  5
2E6
100
AcDbEntity
  8
0
100
AcDbLine
 62
7
  6
BYLAYER
 10
77.2744008892
 20
49.8791640283
 11
75.5256243956
 21
43.8844060871
  0
LINE
  5
2E7
100
AcDbEntity
  8
0
100
AcDbLine
 62
7
  6
BYLAYER
 10
70.486212295
 20
38.5053775949
 11
67.3042450276
 21
32.9940180254
  0
LINE
  5
2E8
100
AcDbEntity
  8
0
100
AcDbLine
 62
7
  6
BYLAYER
 10
42.4141752378
 20
20.6650360801
 11
42.2727544703
 21
20.5833872494
  0
LINE
  5
2E9
100
AcDbEntity
  8
0
100
AcDbLine
 62
7
  6
BYLAYER
 10
44.1819495507
 20
19.6444341938
 11
67.3042450276
 21
32.9940180254
  0
LINE
  5
2EA
100
AcDbEntity
  8
0
100
AcDbLine
 62
7
  6
BYLAYER
 10
75.3652046313
 20
85.0865987622
 11
79.4664068871
 21
82.7188221021
  0
LINE
  5
2EB
100
AcDbEntity
  8
0
100
AcDbLine
 62
7
  6
BYLAYER
 10
75.5104217709
 20
85.2867252617
 11
76.8501542804
 21
84.5132478351
  0
LINE
  5
2EC
100
AcDbEntity
  8
0
100
AcDbLine
 62
7
  6
BYLAYER
 10
73.7598757525
 20
87.2626357815
 11
71.8506794946
 21
88.3648858187
  0
LINE
  5
2ED
100
AcDbEntity
  8
0
100
AcDbLine
 62
7
  6
BYLAYER
 10
45.8081093831
 20
105.8257158304
 11
70.486212295
 21
91.5780347084
  0
LINE
  5
2EE
100
AcDbEntity
  8
0
100
AcDbLine
 62
7
  6
BYLAYER
 10
50.687134103
 20
103.8252607433
 11
59.4552946948
 21
98.7630753873
  0
LINE
  5
2EF
100
AcDbEntity
  8
0
100
AcDbLine
 62
7
  6
BYLAYER
 10
61.4352019252
 20
97.6200012746
 11
70.203362517
 21
92.5578159186
  0
LINE
  5
2F0
100
AcDbEntity
  8
0
100
AcDbLine
 62
7
  6
BYLAYER
 10
59.667368733
 20
99.4569304907
 11
64.617136809
 21
96.599245209
  0
LINE
  5
2F1
100
AcDbEntity
  8
0
100
AcDbLine
 62
7
  6
BYLAYER
 10
70.4154365552
 20
93.251671022
 11
75.3652046313
 21
90.3939857403
  0
LINE
  5
2F2
100
AcDbEntity
  8
0
100
AcDbLine
 62
7
  6
BYLAYER
 10
64.617136809
 20
96.599245209
 11
68.0868383703
 21
94.0761575162
  0
LINE
  5
2F3
100
AcDbEntity
  8
0
100
AcDbLine
 62
7
  6
BYLAYER
 10
75.3652046313
 20
90.3939857403
 11
78.8349061925
 21
87.8708980475
  0
LINE
  5
2F4
100
AcDbEntity
  8
0
100
AcDbLine
 62
7
  6
BYLAYER
 10
73.7598757525
 20
87.2626357815
 11
77.1450183467
 21
82.0464685016
  0
LINE
  5
2F5
100
AcDbEntity
  8
0
100
AcDbLine
 62
7
  6
BYLAYER
 10
76.8501542804
 20
84.5132478351
 11
76.1198486853
 21
85.6385759546
  0
ARC
  5
2F6
100
AcDbEntity
  8
0
100
AcDbCircle
 62
7
  6
BYLAYER
 10
18.2776861392
 20
58.0365371482
 40
2.3457452638
100
AcDbArc
 50
212.6909192851
 51
215.3039562123
  0
ARC
  5
2F7
100
AcDbEntity
  8
0
100
AcDbCircle
 62
7
  6
BYLAYER
 10
29.0257539614
 20
51.8312776795
 40
2.3457452637
100
AcDbArc
 50
212.690919285
 51
215.3039562123
  0
ARC
  5
2F8
100
AcDbEntity
  8
0
100
AcDbCircle
 62
7
  6
BYLAYER
 10
28.0630589501
 20
52.0648462164
 40
1.8292527138
100
AcDbArc
 50
238.5837558603
 51
239.1947469293
  0
ARC
  5
2F9
100
AcDbEntity
  8
0
100
AcDbCircle
 62
7
  6
BYLAYER
 10
17.3149911278
 20
58.2701056849
 40
1.8292527135
100
AcDbArc
 50
238.5837558603
 51
239.1947469294
  0
SPLINE
  5
2FA
100
AcDbEntity
  8
0
100
AcDbSpline
 62
7
  6
BYLAYER
 70
0
 71
3
 72
13
 73
9
 74
0
 42
0.0000001
 43
0.0000001
 44
0.0000000001
 40
0.0
 40
0.0
 40
0.0
 40
0.0
 40
0.2895232346
 40
0.4285638983
 40
0.5609596936
 40
0.685058412
 40
0.7997805036
 40
1.0
 40
1.0
 40
1.0
 40
1.0
 10
10.6374348511
 20
49.7226372701
 30
0.0
 10
10.5726857805
 20
49.6104375568
 30
0.0
 10
10.4911760385
 20
49.4352600282
 30
0.0
 10
10.4191739757
 20
49.1944832513
 30
0.0
 10
10.3862940445
 20
49.0202473862
 30
0.0
 10
10.3747728322
 20
48.8539782854
 30
0.0
 10
10.3874112155
 20
48.657895203
 30
0.0
 10
10.4293871218
 20
48.5186071633
 30
0.0
 10
10.475108066
 20
48.4415679224
 30
0.0
  0
SPLINE
  5
2FB
100
AcDbEntity
  8
0
100
AcDbSpline
 62
7
  6
BYLAYER
 70
0
 71
3
 72
9
 73
5
 74
0
 42
0.0000001
 43
0.0000001
 44
0.0000000001
 40
0.0
 40
0.0
 40
0.0
 40
0.0
 40
0.4860761026
 40
1.0
 40
1.0
 40
1.0
 40
1.0
 10
10.475108066
 20
48.4415679224
 30
0.0
 10
10.4671669504
 20
48.2050381793
 30
0.0
 10
10.4216791678
 20
47.7191542732
 30
0.0
 10
10.3267997556
 20
47.2407578353
 30
0.0
 10
10.2670508913
 20
46.9977743787
 30
0.0
  0
SPLINE
  5
2FC
100
AcDbEntity
  8
0
100
AcDbSpline
 62
7
  6
BYLAYER
 70
0
 71
3
 72
11
 73
7
 74
0
 42
0.0000001
 43
0.0000001
 44
0.0000000001
 40
0.0
 40
0.0
 40
0.0
 40
0.0
 40
0.2616453808
 40
0.5135643185
 40
0.7585833994
 40
1.0
 40
1.0
 40
1.0
 40
1.0
 10
10.2670508913
 20
46.9977743787
 30
0.0
 10
10.3031328255
 20
46.9296786454
 30
0.0
 10
10.382056019
 20
46.8000767735
 30
0.0
 10
10.5229835499
 20
46.6258024501
 30
0.0
 10
10.6829114788
 20
46.4773379996
 30
0.0
 10
10.8017447354
 20
46.3961666258
 30
0.0
 10
10.8633241941
 20
46.3606126923
 30
0.0
  0
SPLINE
  5
2FD
100
AcDbEntity
  8
0
100
AcDbSpline
 62
7
  6
BYLAYER
 70
0
 71
3
 72
12
 73
8
 74
0
 42
0.0000001
 43
0.0000001
 44
0.0000000001
 40
0.0
 40
0.0
 40
0.0
 40
0.0
 40
0.2769237963
 40
0.5419759328
 40
0.6669306573
 40
0.7853739106
 40
1.0
 40
1.0
 40
1.0
 40
1.0
 10
21.490853617
 20
43.4549024441
 30
0.0
 10
21.4380223089
 20
43.3633542945
 30
0.0
 10
21.347683462
 20
43.1763041397
 30
0.0
 10
21.2722402242
 20
42.9319679694
 30
0.0
 10
21.2398980151
 20
42.7402954694
 30
0.0
 10
21.2274961663
 20
42.5658328903
 30
0.0
 10
21.2383161085
 20
42.4374467618
 30
0.0
 10
21.2573224453
 20
42.3577617391
 30
0.0
  0
SPLINE
  5
2FE
100
AcDbEntity
  8
0
100
AcDbSpline
 62
7
  6
BYLAYER
 70
0
 71
3
 72
9
 73
5
 74
0
 42
0.0000001
 43
0.0000001
 44
0.0000000001
 40
0.0
 40
0.0
 40
0.0
 40
0.0
 40
0.5028025922
 40
1.0
 40
1.0
 40
1.0
 40
1.0
 10
26.2703246241
 20
35.6950832842
 30
0.0
 10
26.1872029227
 20
35.7176988588
 30
0.0
 10
26.0245022089
 20
35.7730208752
 30
0.0
 10
25.87032747
 20
35.8490009074
 30
0.0
 10
25.7965563575
 20
35.8915917145
 30
0.0
  0
SPLINE
  5
2FF
100
AcDbEntity
  8
0
100
AcDbSpline
 62
7
  6
BYLAYER
 70
0
 71
3
 72
9
 73
5
 74
0
 42
0.0000001
 43
0.0000001
 44
0.0000000001
 40
0.0
 40
0.0
 40
0.0
 40
0.0
 40
0.4936035917
 40
1.0
 40
1.0
 40
1.0
 40
1.0
 10
27.2620123175
 20
36.896898374
 30
0.0
 10
27.0824349734
 20
36.713623696
 30
0.0
 10
26.7350820119
 20
36.3259228503
 30
0.0
 10
26.4208749251
 20
35.9110210356
 30
0.0
 10
26.2703246241
 20
35.6950832842
 30
0.0
  0
SPLINE
  5
300
100
AcDbEntity
  8
0
100
AcDbSpline
 62
7
  6
BYLAYER
 70
0
 71
3
 72
9
 73
5
 74
0
 42
0.0000001
 43
0.0000001
 44
0.0000000001
 40
0.0
 40
0.0
 40
0.0
 40
0.0
 40
0.5028036542
 40
1.0
 40
1.0
 40
1.0
 40
1.0
 10
12.6614381526
 20
43.5520295243
 30
0.0
 10
12.7225898905
 20
43.4913431239
 30
0.0
 10
12.8518624281
 20
43.3780854286
 30
0.0
 10
12.9947655889
 20
43.2825440373
 30
0.0
 10
13.0685438567
 20
43.2399469166
 30
0.0
  0
SPLINE
  5
301
100
AcDbEntity
  8
0
100
AcDbSpline
 62
7
  6
BYLAYER
 70
0
 71
3
 72
9
 73
5
 74
0
 42
0.0000001
 43
0.0000001
 44
0.0000000001
 40
0.0
 40
0.0
 40
0.0
 40
0.0
 40
0.491867574
 40
1.0
 40
1.0
 40
1.0
 40
1.0
 10
13.2722672232
 20
45.262751172
 30
0.0
 10
13.2010654657
 20
44.9731917078
 30
0.0
 10
13.0243973898
 20
44.3920267687
 30
0.0
 10
12.7921883168
 20
43.8309494991
 30
0.0
 10
12.6614381526
 20
43.5520295243
 30
0.0
  0
SPLINE
  5
302
100
AcDbEntity
  8
0
100
AcDbSpline
 62
7
  6
BYLAYER
 70
0
 71
3
 72
11
 73
7
 74
0
 42
0.0000001
 43
0.0000001
 44
0.0000000001
 40
0.0
 40
0.0
 40
0.0
 40
0.0
 40
0.2351300424
 40
0.4811477199
 40
0.7366660709
 40
1.0
 40
1.0
 40
1.0
 40
1.0
 10
30.2310601889
 20
38.8840405846
 30
0.0
 10
30.2258446229
 20
38.7264473357
 30
0.0
 10
30.200319666
 20
38.4043273303
 30
0.0
 10
30.1213974881
 20
37.9161839347
 30
0.0
 10
30.0017453368
 20
37.4169592715
 30
0.0
 10
29.8971369309
 20
37.0847829831
 30
0.0
 10
29.8385920991
 20
36.9181766615
 30
0.0
  0
SPLINE
  5
303
100
AcDbEntity
  8
0
100
AcDbSpline
 62
7
  6
BYLAYER
 70
0
 71
3
 72
9
 73
5
 74
0
 42
0.0000001
 43
0.0000001
 44
0.0000000001
 40
0.0
 40
0.0
 40
0.0
 40
0.0
 40
0.5090265603
 40
1.0
 40
1.0
 40
1.0
 40
1.0
 10
29.8385920991
 20
36.9181766615
 30
0.0
 10
29.8857516489
 20
36.8476430635
 30
0.0
 10
29.9929222463
 20
36.7179947718
 30
0.0
 10
30.1275451948
 20
36.616649375
 30
0.0
 10
30.1984183093
 20
36.5757295934
 30
0.0
  0
SPLINE
  5
304
100
AcDbEntity
  8
0
100
AcDbSpline
 62
7
  6
BYLAYER
 70
0
 71
3
 72
13
 73
9
 74
0
 42
0.0000001
 43
0.0000001
 44
0.0000000001
 40
0.0
 40
0.0
 40
0.0
 40
0.0
 40
0.2906959129
 40
0.4286859587
 40
0.5597465451
 40
0.6827913732
 40
0.7971973591
 40
1.0
 40
1.0
 40
1.0
 40
1.0
 10
32.5253152497
 20
36.8691932002
 30
0.0
 10
32.4611083158
 20
36.7775035552
 30
0.0
 10
32.3554842356
 20
36.6492773962
 30
0.0
 10
32.1970271831
 20
36.5028037513
 30
0.0
 10
32.0764590538
 20
36.4115041325
 30
0.0
 10
31.9542398308
 20
36.3385889408
 30
0.0
 10
31.7988643783
 20
36.2705639539
 30
0.0
 10
31.6760527716
 20
36.2455352912
 30
0.0
 10
31.5979672565
 20
36.2464749255
 30
0.0
  0
SPLINE
  5
305
100
AcDbEntity
  8
0
100
AcDbSpline
 62
7
  6
BYLAYER
 70
0
 71
3
 72
9
 73
5
 74
0
 42
0.0000001
 43
0.0000001
 44
0.0000000001
 40
0.0
 40
0.0
 40
0.0
 40
0.0
 40
0.486075475
 40
1.0
 40
1.0
 40
1.0
 40
1.0
 10
31.5979672565
 20
36.2464749255
 30
0.0
 10
31.3970990371
 20
36.1213354098
 30
0.0
 10
30.9990588279
 20
35.8390043153
 30
0.0
 10
30.6321990791
 20
35.5176420489
 30
0.0
 10
30.4516455514
 20
35.3444080608
 30
0.0
  0
SPLINE
  5
306
100
AcDbEntity
  8
0
100
AcDbSpline
 62
7
  6
BYLAYER
 70
0
 71
3
 72
11
 73
7
 74
0
 42
0.0000001
 43
0.0000001
 44
0.0000000001
 40
0.0
 40
0.0
 40
0.0
 40
0.0
 40
0.2616438007
 40
0.5135623005
 40
0.7585819644
 40
1.0
 40
1.0
 40
1.0
 40
1.0
 10
30.4516455514
 20
35.3444080608
 30
0.0
 10
30.3746365425
 20
35.3416098904
 30
0.0
 10
30.2229453707
 20
35.3451613692
 30
0.0
 10
30.0015687188
 20
35.3800728941
 30
0.0
 10
29.7930425194
 20
35.4443415514
 30
0.0
 10
29.6633363819
 20
35.506666148
 30
0.0
 10
29.6017591157
 20
35.5422169905
 30
0.0
  0
SPLINE
  5
307
100
AcDbEntity
  8
0
100
AcDbSpline
 62
7
  6
BYLAYER
 70
0
 71
3
 72
9
 73
5
 74
0
 42
0.0000001
 43
0.0000001
 44
0.0000000001
 40
0.0
 40
0.0
 40
0.0
 40
0.0
 40
0.508132426
 40
1.0
 40
1.0
 40
1.0
 40
1.0
 10
25.3894132053
 20
36.203695943
 30
0.0
 10
25.5201633695
 20
36.4826159178
 30
0.0
 10
25.7523724424
 20
37.0436931874
 30
0.0
 10
25.9290405184
 20
37.6248581264
 30
0.0
 10
26.0002422758
 20
37.9144175906
 30
0.0
  0
SPLINE
  5
308
100
AcDbEntity
  8
0
100
AcDbSpline
 62
7
  6
BYLAYER
 70
0
 71
3
 72
12
 73
8
 74
0
 42
0.0000001
 43
0.0000001
 44
0.0000000001
 40
0.0
 40
0.0
 40
0.0
 40
0.0
 40
0.2146174494
 40
0.3330636235
 40
0.4580233771
 40
0.7230862364
 40
1.0
 40
1.0
 40
1.0
 40
1.0
 10
18.2874615997
 20
44.0723729081
 30
0.0
 10
18.2684386547
 20
44.1521275611
 30
0.0
 10
18.2576253057
 20
44.2806324096
 30
0.0
 10
18.2700739372
 20
44.4552521178
 30
0.0
 10
18.3025054546
 20
44.6470960023
 30
0.0
 10
18.3780633462
 20
44.8916511624
 30
0.0
 10
18.4686396904
 20
45.0787936755
 30
0.0
 10
18.5215173764
 20
45.1704221907
 30
0.0
  0
SPLINE
  5
309
100
AcDbEntity
  8
0
100
AcDbSpline
 62
7
  6
BYLAYER
 70
0
 71
3
 72
9
 73
5
 74
0
 42
0.0000001
 43
0.0000001
 44
0.0000000001
 40
0.0
 40
0.0
 40
0.0
 40
0.0
 40
0.4971963458
 40
1.0
 40
1.0
 40
1.0
 40
1.0
 10
25.7965189093
 20
35.8916133352
 30
0.0
 10
25.7227406416
 20
35.9342104559
 30
0.0
 10
25.5798374807
 20
36.0297518473
 30
0.0
 10
25.4505649431
 20
36.1430095425
 30
0.0
 10
25.3894132053
 20
36.203695943
 30
0.0
  0
SPLINE
  5
30A
100
AcDbEntity
  8
0
100
AcDbSpline
 62
7
  6
BYLAYER
 70
0
 71
3
 72
11
 73
7
 74
0
 42
0.0000001
 43
0.0000001
 44
0.0000000001
 40
0.0
 40
0.0
 40
0.0
 40
0.0
 40
0.2616453808
 40
0.5135643185
 40
0.7585833994
 40
1.0
 40
1.0
 40
1.0
 40
1.0
 10
26.0002422758
 20
37.9144175906
 30
0.0
 10
26.03632421
 20
37.8463218573
 30
0.0
 10
26.1152474035
 20
37.7167199854
 30
0.0
 10
26.2561749344
 20
37.542445662
 30
0.0
 10
26.4161028633
 20
37.3939812115
 30
0.0
 10
26.5349361199
 20
37.3128098378
 30
0.0
 10
26.5965155786
 20
37.2772559042
 30
0.0
  0
SPLINE
  5
30B
100
AcDbEntity
  8
0
100
AcDbSpline
 62
7
  6
BYLAYER
 70
0
 71
3
 72
9
 73
5
 74
0
 42
0.0000001
 43
0.0000001
 44
0.0000000001
 40
0.0
 40
0.0
 40
0.0
 40
0.0
 40
0.4909752249
 40
1.0
 40
1.0
 40
1.0
 40
1.0
 10
30.1984183093
 20
36.5757295934
 30
0.0
 10
30.2692902525
 20
36.5348104879
 30
0.0
 10
30.4243645457
 20
36.4688936645
 30
0.0
 10
30.5902244299
 20
36.4409011151
 30
0.0
 10
30.6748859524
 20
36.4353246102
 30
0.0
  0
SPLINE
  5
30C
100
AcDbEntity
  8
0
100
AcDbSpline
 62
7
  6
BYLAYER
 70
0
 71
3
 72
11
 73
7
 74
0
 42
0.0000001
 43
0.0000001
 44
0.0000000001
 40
0.0
 40
0.0
 40
0.0
 40
0.0
 40
0.2633347254
 40
0.5188533065
 40
0.7648706895
 40
1.0
 40
1.0
 40
1.0
 40
1.0
 10
30.6748859524
 20
36.4353246102
 30
0.0
 10
30.7898978891
 20
36.5693283971
 30
0.0
 10
31.0252646295
 20
36.8260085207
 30
0.0
 10
31.3977765822
 20
37.1792397091
 30
0.0
 10
31.7810565638
 20
37.4916560869
 30
0.0
 10
32.0472557757
 20
37.6748182811
 30
0.0
 10
32.1811264707
 20
37.7581300129
 30
0.0
  0
SPLINE
  5
30D
100
AcDbEntity
  8
0
100
AcDbSpline
 62
7
  6
BYLAYER
 70
0
 71
3
 72
11
 73
7
 74
0
 42
0.0000001
 43
0.0000001
 44
0.0000000001
 40
0.0
 40
0.0
 40
0.0
 40
0.0
 40
0.2414166006
 40
0.4864356815
 40
0.7383546192
 40
1.0
 40
1.0
 40
1.0
 40
1.0
 10
29.6017319105
 20
35.5422326975
 30
0.0
 10
29.5401524518
 20
35.577786631
 30
0.0
 10
29.4213191952
 20
35.6589580048
 30
0.0
 10
29.2613912663
 20
35.8074224553
 30
0.0
 10
29.1204637354
 20
35.9816967787
 30
0.0
 10
29.0415405419
 20
36.1112986506
 30
0.0
 10
29.0054586077
 20
36.1793943839
 30
0.0
  0
SPLINE
  5
30E
100
AcDbEntity
  8
0
100
AcDbSpline
 62
7
  6
BYLAYER
 70
0
 71
3
 72
9
 73
5
 74
0
 42
0.0000001
 43
0.0000001
 44
0.0000000001
 40
0.0
 40
0.0
 40
0.0
 40
0.0
 40
0.5139238974
 40
1.0
 40
1.0
 40
1.0
 40
1.0
 10
29.0054586077
 20
36.1793943839
 30
0.0
 10
29.065207472
 20
36.4223778405
 30
0.0
 10
29.1600868842
 20
36.9007742784
 30
0.0
 10
29.2055746667
 20
37.3866581845
 30
0.0
 10
29.2135157824
 20
37.6231879276
 30
0.0
  0
SPLINE
  5
30F
100
AcDbEntity
  8
0
100
AcDbSpline
 62
7
  6
BYLAYER
 70
0
 71
3
 72
13
 73
9
 74
0
 42
0.0000001
 43
0.0000001
 44
0.0000000001
 40
0.0
 40
0.0
 40
0.0
 40
0.0
 40
0.2002194589
 40
0.3149415398
 40
0.4390402519
 40
0.5714360468
 40
0.7104767175
 40
1.0
 40
1.0
 40
1.0
 40
1.0
 10
29.2135157824
 20
37.6231879276
 30
0.0
 10
29.1677948459
 20
37.7002271556
 30
0.0
 10
29.1258189394
 20
37.8395151736
 30
0.0
 10
29.1131805491
 20
38.0355982352
 30
0.0
 10
29.124701753
 20
38.2018673319
 30
0.0
 10
29.1575816778
 20
38.3761032019
 30
0.0
 10
29.229583743
 20
38.6168800088
 30
0.0
 10
29.3110934975
 20
38.7920575634
 30
0.0
 10
29.3758425802
 20
38.9042572973
 30
0.0
  0
SPLINE
  5
310
100
AcDbEntity
  8
0
100
AcDbSpline
 62
7
  6
BYLAYER
 70
0
 71
3
 72
10
 73
6
 74
0
 42
0.0000001
 43
0.0000001
 44
0.0000000001
 40
0.0
 40
0.0
 40
0.0
 40
0.0
 40
0.2360973157
 40
0.4823137743
 40
1.0
 40
1.0
 40
1.0
 40
1.0
 10
31.5662506343
 20
37.8124906527
 30
0.0
 10
31.4425749862
 20
37.7353899377
 30
0.0
 10
31.196436817
 20
37.5672053869
 30
0.0
 10
30.7139453384
 20
37.1815726654
 30
0.0
 10
30.3773103489
 20
36.8487815358
 30
0.0
 10
30.1638036393
 20
36.6110115551
 30
0.0
  0
SPLINE
  5
311
100
AcDbEntity
  8
0
100
AcDbSpline
 62
7
  6
BYLAYER
 70
0
 71
3
 72
11
 73
7
 74
0
 42
0.0000001
 43
0.0000001
 44
0.0000000001
 40
0.0
 40
0.0
 40
0.0
 40
0.0
 40
0.2764774245
 40
0.53491247
 40
0.7754293586
 40
1.0
 40
1.0
 40
1.0
 40
1.0
 10
15.8170093289
 20
58.7081465472
 30
0.0
 10
15.8170093289
 20
58.5216317429
 30
0.0
 10
15.8357421243
 20
58.1603626894
 30
0.0
 10
15.9261010668
 20
57.6436260687
 30
0.0
 10
16.0770917446
 20
57.1776524793
 30
0.0
 10
16.2216705211
 20
56.8970712215
 30
0.0
 10
16.3035153859
 20
56.7695838423
 30
0.0
  0
SPLINE
  5
312
100
AcDbEntity
  8
0
100
AcDbSpline
 62
7
  6
BYLAYER
 70
0
 71
3
 72
11
 73
7
 74
0
 42
0.0000001
 43
0.0000001
 44
0.0000000001
 40
0.0
 40
0.0
 40
0.0
 40
0.0
 40
0.2625479037
 40
0.5234419178
 40
0.7722107459
 40
1.0
 40
1.0
 40
1.0
 40
1.0
 10
17.6653913818
 20
63.6945156552
 30
0.0
 10
17.3804929924
 20
63.3175667797
 30
0.0
 10
16.867598845
 20
62.5228432604
 30
0.0
 10
16.2846688911
 20
61.2560876525
 30
0.0
 10
15.9134285995
 20
59.9766924882
 30
0.0
 10
15.8170093289
 20
59.1180935843
 30
0.0
 10
15.8170093289
 20
58.7081465472
 30
0.0
  0
SPLINE
  5
313
100
AcDbEntity
  8
0
100
AcDbSpline
 62
7
  6
BYLAYER
 70
0
 71
3
 72
17
 73
13
 74
0
 42
0.0000001
 43
0.0000001
 44
0.0000000001
 40
0.0
 40
0.0
 40
0.0
 40
0.0
 40
0.1454857892
 40
0.2943694473
 40
0.4407512481
 40
0.5790768614
 40
0.704846083
 40
0.8155668155
 40
0.8654979667
 40
0.9123009956
 40
0.9567734516
 40
1.0
 40
1.0
 40
1.0
 40
1.0
 10
26.7777913124
 20
75.9487340033
 30
0.0
 10
26.7157278742
 20
76.1540497629
 30
0.0
 10
26.5570994572
 20
76.5600223251
 30
0.0
 10
26.2371888821
 20
77.1278784604
 30
0.0
 10
25.8475242817
 20
77.6374211117
 30
0.0
 10
25.410171165
 20
78.0595492857
 30
0.0
 10
24.9496244534
 20
78.370456429
 30
0.0
 10
24.551930128
 20
78.5273198446
 30
0.0
 10
24.2483477273
 20
78.573347457
 30
0.0
 10
24.0390488969
 20
78.5696385062
 30
0.0
 10
23.8438319359
 20
78.5282760728
 30
0.0
 10
23.7245217287
 20
78.4755647487
 30
0.0
 10
23.66933479
 20
78.4436926991
 30
0.0
  0
SPLINE
  5
314
100
AcDbEntity
  8
0
100
AcDbSpline
 62
7
  6
BYLAYER
 70
0
 71
3
 72
15
 73
11
 74
0
 42
0.0000001
 43
0.0000001
 44
0.0000000001
 40
0.0
 40
0.0
 40
0.0
 40
0.0
 40
0.1177601005
 40
0.2458099937
 40
0.3803969178
 40
0.5171517952
 40
0.651413203
 40
0.7788099316
 40
0.8957369606
 40
1.0
 40
1.0
 40
1.0
 40
1.0
 10
23.110126256
 20
77.20768139
 30
0.0
 10
23.110126256
 20
77.0323603617
 30
0.0
 10
23.14750216
 20
76.6660183345
 30
0.0
 10
23.2933612206
 20
76.1168925486
 30
0.0
 10
23.5246928931
 20
75.5671518148
 30
0.0
 10
23.8298555468
 20
75.0441351655
 30
0.0
 10
24.1938911793
 20
74.5736049982
 30
0.0
 10
24.599025752
 20
74.1786689843
 30
0.0
 10
25.0253850409
 20
73.8786937827
 30
0.0
 10
25.3295147614
 20
73.7438926888
 30
0.0
 10
25.478548464
 20
73.7004846088
 30
0.0
  0
SPLINE
  5
315
100
AcDbEntity
  8
0
100
AcDbSpline
 62
7
  6
BYLAYER
 70
0
 71
3
 72
12
 73
8
 74
0
 42
0.0000001
 43
0.0000001
 44
0.0000000001
 40
0.0
 40
0.0
 40
0.0
 40
0.0
 40
0.1109326275
 40
0.2279279459
 40
0.4762498845
 40
0.7369008506
 40
1.0
 40
1.0
 40
1.0
 40
1.0
 10
15.2513262591
 20
58.3815512241
 30
0.0
 10
15.2513262591
 20
58.6029538505
 30
0.0
 10
15.275894442
 20
59.0581056013
 30
0.0
 10
15.4153405684
 20
59.9993808567
 30
0.0
 10
15.7572763944
 20
61.2071056628
 30
0.0
 10
16.3898918176
 20
62.6171605719
 30
0.0
 10
16.9473631287
 20
63.5062731645
 30
0.0
 10
17.2573936173
 20
63.9300800094
 30
0.0
  0
SPLINE
  5
316
100
AcDbEntity
  8
0
100
AcDbSpline
 62
7
  6
BYLAYER
 70
0
 71
3
 72
11
 73
7
 74
0
 42
0.0000001
 43
0.0000001
 44
0.0000000001
 40
0.0
 40
0.0
 40
0.0
 40
0.0
 40
0.2220244654
 40
0.4610308027
 40
0.7201234874
 40
1.0
 40
1.0
 40
1.0
 40
1.0
 10
15.9527113696
 20
55.9653036269
 30
0.0
 10
15.8354452198
 20
56.1140586021
 30
0.0
 10
15.6266744554
 20
56.451364826
 30
0.0
 10
15.4085816853
 20
57.0289568987
 30
0.0
 10
15.2780550195
 20
57.6822625277
 30
0.0
 10
15.2513262591
 20
58.1427766046
 30
0.0
 10
15.2513262591
 20
58.3815512241
 30
0.0
  0
SPLINE
  5
317
100
AcDbEntity
  8
0
100
AcDbSpline
 62
7
  6
BYLAYER
 70
0
 71
3
 72
11
 73
7
 74
0
 42
0.0000001
 43
0.0000001
 44
0.0000000001
 40
0.0
 40
0.0
 40
0.0
 40
0.0
 40
0.2177839466
 40
0.4509170841
 40
0.710307871
 40
1.0
 40
1.0
 40
1.0
 40
1.0
 10
23.66933479
 20
78.4436926991
 30
0.0
 10
23.5802776409
 20
78.3922596257
 30
0.0
 10
23.4136290001
 20
78.2521873065
 30
0.0
 10
23.2362273775
 20
77.9621130107
 30
0.0
 10
23.1308669566
 20
77.604649874
 30
0.0
 10
23.110126256
 20
77.3444802805
 30
0.0
 10
23.110126256
 20
77.20768139
 30
0.0
  0
SPLINE
  5
318
100
AcDbEntity
  8
0
100
AcDbSpline
 62
7
  6
BYLAYER
 70
0
 71
3
 72
11
 73
7
 74
0
 42
0.0000001
 43
0.0000001
 44
0.0000000001
 40
0.0
 40
0.0
 40
0.0
 40
0.0
 40
0.2825091495
 40
0.5419834677
 40
0.7797135879
 40
1.0
 40
1.0
 40
1.0
 40
1.0
 10
14.544216534
 20
58.7897919787
 30
0.0
 10
14.544216534
 20
58.5297734691
 30
0.0
 10
14.5757349141
 20
58.0300056995
 30
0.0
 10
14.7311389075
 20
57.3259464123
 30
0.0
 10
14.9909604121
 20
56.7142884174
 30
0.0
 10
15.2392532782
 20
56.3678368468
 30
0.0
 10
15.3776037709
 20
56.2196260597
 30
0.0
  0
SPLINE
  5
319
100
AcDbEntity
  8
0
100
AcDbSpline
 62
7
  6
BYLAYER
 70
0
 71
3
 72
9
 73
5
 74
0
 42
0.0000001
 43
0.0000001
 44
0.0000000001
 40
0.0
 40
0.0
 40
0.0
 40
0.0
 40
0.5036341694
 40
1.0
 40
1.0
 40
1.0
 40
1.0
 10
15.3776037709
 20
56.2196260597
 30
0.0
 10
15.4514279701
 20
56.1405403806
 30
0.0
 10
15.6090265078
 20
55.9933802047
 30
0.0
 10
15.7863572547
 20
55.8705928056
 30
0.0
 10
15.8782763113
 20
55.81655535
 30
0.0
  0
SPLINE
  5
31A
100
AcDbEntity
  8
0
100
AcDbSpline
 62
7
  6
BYLAYER
 70
0
 71
3
 72
12
 73
8
 74
0
 42
0.0000001
 43
0.0000001
 44
0.0000000001
 40
0.0
 40
0.0
 40
0.0
 40
0.0
 40
0.2630991494
 40
0.5237501155
 40
0.7720720541
 40
0.8890673725
 40
1.0
 40
1.0
 40
1.0
 40
1.0
 10
16.5502838921
 20
64.3383207639
 30
0.0
 10
16.2402534035
 20
63.914513919
 30
0.0
 10
15.6827820925
 20
63.0254013264
 30
0.0
 10
15.0501666692
 20
61.6153464173
 30
0.0
 10
14.7082308432
 20
60.4076216112
 30
0.0
 10
14.5687847168
 20
59.4663463558
 30
0.0
 10
14.544216534
 20
59.011194605
 30
0.0
 10
14.544216534
 20
58.7897919787
 30
0.0
  0
SPLINE
  5
31B
100
AcDbEntity
  8
0
100
AcDbSpline
 62
7
  6
BYLAYER
 70
0
 71
3
 72
11
 73
7
 74
0
 42
0.0000001
 43
0.0000001
 44
0.0000000001
 40
0.0
 40
0.0
 40
0.0
 40
0.0
 40
0.2177679319
 40
0.4508925601
 40
0.7103615767
 40
1.0
 40
1.0
 40
1.0
 40
1.0
 10
78.6936018053
 20
70.7496492401
 30
0.0
 10
78.7265786951
 20
70.7305934125
 30
0.0
 10
78.7883239576
 20
70.6787548294
 30
0.0
 10
78.8540216476
 20
70.5712949258
 30
0.0
 10
78.8930233955
 20
70.4388975593
 30
0.0
 10
78.9007238173
 20
70.3425363472
 30
0.0
 10
78.9007238173
 20
70.2918797447
 30
0.0
  0
SPLINE
  5
31C
100
AcDbEntity
  8
0
100
AcDbSpline
 62
7
  6
BYLAYER
 70
0
 71
3
 72
11
 73
7
 74
0
 42
0.0000001
 43
0.0000001
 44
0.0000000001
 40
0.0
 40
0.0
 40
0.0
 40
0.0
 40
0.2178813341
 40
0.4510214492
 40
0.7104138926
 40
1.0
 40
1.0
 40
1.0
 40
1.0
 10
79.4835530728
 20
58.9311537103
 30
0.0
 10
79.503344871
 20
58.9197062357
 30
0.0
 10
79.5404051767
 20
58.888601453
 30
0.0
 10
79.5798293765
 20
58.8241180417
 30
0.0
 10
79.6032001167
 20
58.7446842206
 30
0.0
 10
79.6078276545
 20
58.6868829295
 30
0.0
 10
79.6078276545
 20
58.6564944583
 30
0.0
  0
SPLINE
  5
31D
100
AcDbEntity
  8
0
100
AcDbSpline
 62
7
  6
BYLAYER
 70
0
 71
3
 72
11
 73
7
 74
0
 42
0.0000001
 43
0.0000001
 44
0.0000000001
 40
0.0
 40
0.0
 40
0.0
 40
0.0
 40
0.2764774245
 40
0.53491247
 40
0.7754293586
 40
1.0
 40
1.0
 40
1.0
 40
1.0
 10
26.5650771511
 20
52.5028870785
 30
0.0
 10
26.5650771511
 20
52.3163722742
 30
0.0
 10
26.5838099465
 20
51.9551032207
 30
0.0
 10
26.6741688891
 20
51.4383666
 30
0.0
 10
26.8251595668
 20
50.9723930106
 30
0.0
 10
26.9697383434
 20
50.6918117528
 30
0.0
 10
27.0515832081
 20
50.5643243736
 30
0.0
  0
SPLINE
  5
31E
100
AcDbEntity
  8
0
100
AcDbSpline
 62
7
  6
BYLAYER
 70
0
 71
3
 72
11
 73
7
 74
0
 42
0.0000001
 43
0.0000001
 44
0.0000000001
 40
0.0
 40
0.0
 40
0.0
 40
0.0
 40
0.2625479037
 40
0.5234419178
 40
0.7722107459
 40
1.0
 40
1.0
 40
1.0
 40
1.0
 10
28.413459204
 20
57.4892561865
 30
0.0
 10
28.1285608147
 20
57.112307311
 30
0.0
 10
27.6156666672
 20
56.3175837917
 30
0.0
 10
27.0327367133
 20
55.0508281838
 30
0.0
 10
26.6614964217
 20
53.7714330195
 30
0.0
 10
26.5650771511
 20
52.9128341155
 30
0.0
 10
26.5650771511
 20
52.5028870785
 30
0.0
  0
SPLINE
  5
31F
100
AcDbEntity
  8
0
100
AcDbSpline
 62
7
  6
BYLAYER
 70
0
 71
3
 72
9
 73
5
 74
0
 42
0.0000001
 43
0.0000001
 44
0.0000000001
 40
0.0
 40
0.0
 40
0.0
 40
0.0
 40
0.2254380513
 40
1.0
 40
1.0
 40
1.0
 40
1.0
 10
77.1450183467
 20
82.0464685016
 30
0.0
 10
77.1667792898
 20
82.0129370577
 30
0.0
 10
77.2489557822
 20
81.8547698021
 30
0.0
 10
77.2744008892
 20
81.6723047007
 30
0.0
 10
77.2744008892
 20
81.5349627404
 30
0.0
  0
SPLINE
  5
320
100
AcDbEntity
  8
0
100
AcDbSpline
 62
7
  6
BYLAYER
 70
0
 71
3
 72
16
 73
12
 74
0
 42
0.0000001
 43
0.0000001
 44
0.0000000001
 40
0.0
 40
0.0
 40
0.0
 40
0.0
 40
0.1449916984
 40
0.293806818
 40
0.4402788247
 40
0.5788765249
 40
0.7049394556
 40
0.8158740773
 40
0.9123368145
 40
0.9568020387
 40
1.0
 40
1.0
 40
1.0
 40
1.0
 10
75.5256243956
 20
43.8844060871
 30
0.0
 10
75.5032666548
 20
43.8077643638
 30
0.0
 10
75.445383055
 20
43.6559308161
 30
0.0
 10
75.3275346494
 20
43.4432229139
 30
0.0
 10
75.1830140787
 20
43.2519237972
 30
0.0
 10
75.0203741594
 20
43.093075216
 30
0.0
 10
74.8484507351
 20
42.9757944173
 30
0.0
 10
74.6764253249
 20
42.9067121729
 30
0.0
 10
74.5352887175
 20
42.8941372308
 30
0.0
 10
74.4354166223
 20
42.9149821248
 30
0.0
 10
74.3908730193
 20
42.934681981
 30
0.0
 10
74.3702757633
 20
42.9465783414
 30
0.0
  0
SPLINE
  5
321
100
AcDbEntity
  8
0
100
AcDbSpline
 62
7
  6
BYLAYER
 70
0
 71
3
 72
11
 73
7
 74
0
 42
0.0000001
 43
0.0000001
 44
0.0000000001
 40
0.0
 40
0.0
 40
0.0
 40
0.0
 40
0.2285513053
 40
0.4799032833
 40
0.7418011801
 40
1.0
 40
1.0
 40
1.0
 40
1.0
 10
79.6078276545
 20
58.6564944583
 30
0.0
 10
79.6078276545
 20
58.6070052898
 30
0.0
 10
79.5943667104
 20
58.5029888414
 30
0.0
 10
79.544226707
 20
58.3496168185
 30
0.0
 10
79.4662887767
 20
58.2010623407
 30
0.0
 10
79.3983825079
 20
58.1104379105
 30
0.0
 10
79.3609379296
 20
58.0689203822
 30
0.0
  0
SPLINE
  5
322
100
AcDbEntity
  8
0
100
AcDbSpline
 62
7
  6
BYLAYER
 70
0
 71
3
 72
17
 73
13
 74
0
 42
0.0000001
 43
0.0000001
 44
0.0000000001
 40
0.0
 40
0.0
 40
0.0
 40
0.0
 40
0.1454857892
 40
0.2943694473
 40
0.4407512481
 40
0.5790768614
 40
0.704846083
 40
0.8155668155
 40
0.8654979667
 40
0.9123009956
 40
0.9567734516
 40
1.0
 40
1.0
 40
1.0
 40
1.0
 10
37.5258591346
 20
69.7434745346
 30
0.0
 10
37.4637956964
 20
69.9487902942
 30
0.0
 10
37.3051672794
 20
70.3547628564
 30
0.0
 10
36.9852567043
 20
70.9226189917
 30
0.0
 10
36.595592104
 20
71.432161643
 30
0.0
 10
36.1582389872
 20
71.854289817
 30
0.0
 10
35.6976922756
 20
72.1651969603
 30
0.0
 10
35.2999979502
 20
72.3220603759
 30
0.0
 10
34.9964155496
 20
72.3680879883
 30
0.0
 10
34.7871167191
 20
72.3643790375
 30
0.0
 10
34.5918997581
 20
72.3230166041
 30
0.0
 10
34.4725895509
 20
72.27030528
 30
0.0
 10
34.4174026122
 20
72.2384332304
 30
0.0
  0
SPLINE
  5
323
100
AcDbEntity
  8
0
100
AcDbSpline
 62
7
  6
BYLAYER
 70
0
 71
3
 72
9
 73
5
 74
0
 42
0.0000001
 43
0.0000001
 44
0.0000000001
 40
0.0
 40
0.0
 40
0.0
 40
0.0
 40
0.2419568412
 40
1.0
 40
1.0
 40
1.0
 40
1.0
 10
78.9007238173
 20
70.2918797447
 30
0.0
 10
78.9007238173
 20
70.2787237286
 30
0.0
 10
78.8995852148
 20
70.2243527625
 30
0.0
 10
78.8940753931
 20
70.1701025814
 30
0.0
 10
78.8878509408
 20
70.1293579017
 30
0.0
  0
SPLINE
  5
324
100
AcDbEntity
  8
0
100
AcDbSpline
 62
7
  6
BYLAYER
 70
0
 71
3
 72
11
 73
7
 74
0
 42
0.0000001
 43
0.0000001
 44
0.0000000001
 40
0.0
 40
0.0
 40
0.0
 40
0.0
 40
0.2177456106
 40
0.4508806986
 40
0.710429715
 40
1.0
 40
1.0
 40
1.0
 40
1.0
 10
74.3702757633
 20
42.9465783414
 30
0.0
 10
74.3372983949
 20
42.9656250851
 30
0.0
 10
74.2755384213
 20
43.0174433524
 30
0.0
 10
74.2098346942
 20
43.124918823
 30
0.0
 10
74.1708651651
 20
43.2573270212
 30
0.0
 10
74.1631440054
 20
43.353686516
 30
0.0
 10
74.1631440054
 20
43.4043309011
 30
0.0
  0
SPLINE
  5
325
100
AcDbEntity
  8
0
100
AcDbSpline
 62
7
  6
BYLAYER
 70
0
 71
3
 72
15
 73
11
 74
0
 42
0.0000001
 43
0.0000001
 44
0.0000000001
 40
0.0
 40
0.0
 40
0.0
 40
0.0
 40
0.1177601005
 40
0.2458099937
 40
0.3803969178
 40
0.5171517952
 40
0.651413203
 40
0.7788099316
 40
0.8957369606
 40
1.0
 40
1.0
 40
1.0
 40
1.0
 10
33.8581940782
 20
71.0024219213
 30
0.0
 10
33.8581940782
 20
70.827100893
 30
0.0
 10
33.8955699822
 20
70.4607588658
 30
0.0
 10
34.0414290429
 20
69.9116330798
 30
0.0
 10
34.2727607153
 20
69.3618923461
 30
0.0
 10
34.5779233691
 20
68.8388756968
 30
0.0
 10
34.9419590015
 20
68.3683455295
 30
0.0
 10
35.3470935742
 20
67.9734095156
 30
0.0
 10
35.7734528631
 20
67.673434314
 30
0.0
 10
36.0775825837
 20
67.5386332201
 30
0.0
 10
36.2266162863
 20
67.4952251401
 30
0.0
  0
SPLINE
  5
326
100
AcDbEntity
  8
0
100
AcDbSpline
 62
7
  6
BYLAYER
 70
0
 71
3
 72
12
 73
8
 74
0
 42
0.0000001
 43
0.0000001
 44
0.0000000001
 40
0.0
 40
0.0
 40
0.0
 40
0.0
 40
0.1109326275
 40
0.2279279459
 40
0.4762498845
 40
0.7369008506
 40
1.0
 40
1.0
 40
1.0
 40
1.0
 10
25.9993940814
 20
52.1762917554
 30
0.0
 10
25.9993940814
 20
52.3976943818
 30
0.0
 10
26.0239622642
 20
52.8528461326
 30
0.0
 10
26.1634083906
 20
53.794121388
 30
0.0
 10
26.5053442166
 20
55.001846194
 30
0.0
 10
27.1379596399
 20
56.4119011032
 30
0.0
 10
27.6954309509
 20
57.3010136958
 30
0.0
 10
28.0054614395
 20
57.7248205407
 30
0.0
  0
SPLINE
  5
327
100
AcDbEntity
  8
0
100
AcDbSpline
 62
7
  6
BYLAYER
 70
0
 71
3
 72
11
 73
7
 74
0
 42
0.0000001
 43
0.0000001
 44
0.0000000001
 40
0.0
 40
0.0
 40
0.0
 40
0.0
 40
0.2972974507
 40
0.5599027546
 40
0.7900361709
 40
1.0
 40
1.0
 40
1.0
 40
1.0
 10
78.0902453574
 20
70.6316823983
 30
0.0
 10
78.1416616917
 20
70.6701414528
 30
0.0
 10
78.2448188798
 20
70.7348583945
 30
0.0
 10
78.4070024378
 20
70.7930642247
 30
0.0
 10
78.5610818749
 20
70.8024775715
 30
0.0
 10
78.6543389332
 20
70.7723374477
 30
0.0
 10
78.6936018053
 20
70.7496492401
 30
0.0
  0
SPLINE
  5
328
100
AcDbEntity
  8
0
100
AcDbSpline
 62
7
  6
BYLAYER
 70
0
 71
3
 72
11
 73
7
 74
0
 42
0.0000001
 43
0.0000001
 44
0.0000000001
 40
0.0
 40
0.0
 40
0.0
 40
0.0
 40
0.2220244654
 40
0.4610308027
 40
0.7201234874
 40
1.0
 40
1.0
 40
1.0
 40
1.0
 10
26.7007791919
 20
49.7600441581
 30
0.0
 10
26.583513042
 20
49.9087991334
 30
0.0
 10
26.3747422776
 20
50.2461053573
 30
0.0
 10
26.1566495075
 20
50.82369743
 30
0.0
 10
26.0261228417
 20
51.477003059
 30
0.0
 10
25.9993940814
 20
51.9375171359
 30
0.0
 10
25.9993940814
 20
52.1762917554
 30
0.0
  0
SPLINE
  5
329
100
AcDbEntity
  8
0
100
AcDbSpline
 62
7
  6
BYLAYER
 70
0
 71
3
 72
9
 73
5
 74
0
 42
0.0000001
 43
0.0000001
 44
0.0000000001
 40
0.0
 40
0.0
 40
0.0
 40
0.0
 40
0.2357341948
 40
1.0
 40
1.0
 40
1.0
 40
1.0
 10
74.1631440054
 20
43.4043309011
 30
0.0
 10
74.1631440054
 20
43.431127885
 30
0.0
 10
74.1679971379
 20
43.5447926166
 30
0.0
 10
74.1905416487
 20
43.6573426795
 30
0.0
 10
74.2148712897
 20
43.7407440228
 30
0.0
  0
SPLINE
  5
32A
100
AcDbEntity
  8
0
100
AcDbSpline
 62
7
  6
BYLAYER
 70
0
 71
3
 72
11
 73
7
 74
0
 42
0.0000001
 43
0.0000001
 44
0.0000000001
 40
0.0
 40
0.0
 40
0.0
 40
0.0
 40
0.2177839466
 40
0.4509170841
 40
0.710307871
 40
1.0
 40
1.0
 40
1.0
 40
1.0
 10
34.4174026122
 20
72.2384332304
 30
0.0
 10
34.3283454631
 20
72.187000157
 30
0.0
 10
34.1616968224
 20
72.0469278378
 30
0.0
 10
33.9842951997
 20
71.756853542
 30
0.0
 10
33.8789347789
 20
71.3993904053
 30
0.0
 10
33.8581940782
 20
71.1392208118
 30
0.0
 10
33.8581940782
 20
71.0024219213
 30
0.0
  0
SPLINE
  5
32B
100
AcDbEntity
  8
0
100
AcDbSpline
 62
7
  6
BYLAYER
 70
0
 71
3
 72
11
 73
7
 74
0
 42
0.0000001
 43
0.0000001
 44
0.0000000001
 40
0.0
 40
0.0
 40
0.0
 40
0.0
 40
0.2825091495
 40
0.5419834677
 40
0.7797135879
 40
1.0
 40
1.0
 40
1.0
 40
1.0
 10
25.2922843562
 20
52.58453251
 30
0.0
 10
25.2922843562
 20
52.3245140004
 30
0.0
 10
25.3238027363
 20
51.8247462308
 30
0.0
 10
25.4792067297
 20
51.1206869436
 30
0.0
 10
25.7390282343
 20
50.5090289487
 30
0.0
 10
25.9873211004
 20
50.1625773781
 30
0.0
 10
26.1256715931
 20
50.014366591
 30
0.0
  0
SPLINE
  5
32C
100
AcDbEntity
  8
0
100
AcDbSpline
 62
7
  6
BYLAYER
 70
0
 71
3
 72
9
 73
5
 74
0
 42
0.0000001
 43
0.0000001
 44
0.0000000001
 40
0.0
 40
0.0
 40
0.0
 40
0.0
 40
0.5036341694
 40
1.0
 40
1.0
 40
1.0
 40
1.0
 10
26.1256715931
 20
50.014366591
 30
0.0
 10
26.1994957923
 20
49.9352809119
 30
0.0
 10
26.35709433
 20
49.788120736
 30
0.0
 10
26.5344250769
 20
49.6653333369
 30
0.0
 10
26.6263441335
 20
49.6112958813
 30
0.0
  0
SPLINE
  5
32D
100
AcDbEntity
  8
0
100
AcDbSpline
 62
7
  6
BYLAYER
 70
0
 71
3
 72
12
 73
8
 74
0
 42
0.0000001
 43
0.0000001
 44
0.0000000001
 40
0.0
 40
0.0
 40
0.0
 40
0.0
 40
0.2630991494
 40
0.5237501155
 40
0.7720720541
 40
0.8890673725
 40
1.0
 40
1.0
 40
1.0
 40
1.0
 10
27.2983517144
 20
58.1330612952
 30
0.0
 10
26.9883212258
 20
57.7092544503
 30
0.0
 10
26.4308499147
 20
56.8201418577
 30
0.0
 10
25.7982344915
 20
55.4100869486
 30
0.0
 10
25.4562986655
 20
54.2023621425
 30
0.0
 10
25.3168525391
 20
53.2610868871
 30
0.0
 10
25.2922843562
 20
52.8059351363
 30
0.0
 10
25.2922843562
 20
52.58453251
 30
0.0
  0
ENDSEC
  0
SECTION
  2
OBJECTS
  0
DICTIONARY
  5
C
100
AcDbDictionary
280
0
281
1
  3
ACAD_GROUP
350
D
  3
ACAD_MLINESTYLE
350
17
  3
ACAD_LAYOUT
350
1A
  3
ACAD_PLOTSETTINGS
350
19
  3
ACAD_PLOTSTYLENAME
350
E
  0
DICTIONARY
  5
D
102
{ACAD_REACTORS
330
C
102
}
100
AcDbDictionary
280
0
281
1
  0
ACDBDICTIONARYWDFLT
  5
E
102
{ACAD_REACTORS
330
C
102
}
100
AcDbDictionary
281
1
  3
Normal
350
F
100
AcDbDictionaryWithDefault
340
F
  0
DICTIONARY
  5
17
102
{ACAD_REACTORS
330
C
102
}
100
AcDbDictionary
280
0
281
1
  3
Standard
350
18
  0
DICTIONARY
  5
19
102
{ACAD_REACTORS
330
C
102
}
100
AcDbDictionary
281
1
  0
DICTIONARY
  5
1A
102
{ACAD_REACTORS
330
C
102
}
100
AcDbDictionary
281
1
  3
Model
350
32E
  3
Layout1
350
32F
  0
ACDBPLACEHOLDER
  5
F
102
{ACAD_REACTORS
330
E
102
}
  0
MLINESTYLE
  5
18
102
{ACAD_REACTORS
330
17
102
}
100
AcDbMlineStyle
  2
STANDARD
 70
0
  3

 62
256
 51
90.0
 52
90.0
 71
2
 49
0.5
 62
256
  6
BYLAYER
 49
-0.5
 62
256
  6
BYLAYER
  0
LAYOUT
  5
32E
102
{ACAD_REACTORS
330
1A
102
}
100
AcDbPlotSettings
  1

  2
none_device
  4

  6

 40
0.0
 41
0.0
 42
0.0
 43
0.0
 44
210.0
 45
297.0
 46
0.0
 47
0.0
 48
0.0
 49
0.0
140
0.0
141
0.0
142
1.0
143
1.0
 70
1024
 72
1
 73
0
 74
0
  7

 75
0
147
1.0
148
0.0
149
0.0
100
AcDbLayout
  1
Model
 70
0
 71
0
 10
0.0
 20
0.0
 11
210.0
 21
297.0
 12
0.0
 22
0.0
 32
0.0
 14
0.0
 24
0.0
 34
0.0
 15
0.0
 25
0.0
 35
0.0
146
0.0
 13
0.0
 23
0.0
 33
0.0
 16
1.0
 26
0.0
 36
0.0
 17
0.0
 27
1.0
 37
0.0
 76
0
330
210
345
0
346
0
  0
LAYOUT
  5
32F
102
{ACAD_REACTORS
330
1A
102
}
100
AcDbPlotSettings
  1

  2
none_device
  4

  6

 40
0.0
 41
0.0
 42
0.0
 43
0.0
 44
210.0
 45
297.0
 46
0.0
 47
0.0
 48
0.0
 49
0.0
140
0.0
141
0.0
142
1.0
143
1.0
 70
0
 72
1
 73
0
 74
0
  7

 75
0
147
1.0
148
0.0
149
0.0
100
AcDbLayout
  1
Layout1
 70
0
 71
1
 10
0.0
 20
0.0
 11
210.0
 21
297.0
 12
0.0
 22
0.0
 32
0.0
 14
0.0
 24
0.0
 34
0.0
 15
0.0
 25
0.0
 35
0.0
146
0.0
 13
0.0
 23
0.0
 33
0.0
 16
1.0
 26
0.0
 36
0.0
 17
0.0
 27
1.0
 37
0.0
 76
0
330
211
345
0
346
0
  0
ENDSEC
  0
EOF
