999
DXF file: C:\Users\sesa63760\Dev\_Creo\CAD\MCADID0002381_3D-CAD\drw0001_5.dxf
999
Pro/ENGINEER 2019471 by Parametric Technology Corporation
  0
SECTION
  2
HEADER
  9
$ACADVER
  1
AC1024
  9
$DWGCODEPAGE
  3
ANSI_1252
  9
$EXTMAX
 10
58.3755629189
 20
82.5597246996
 30
0.0
  9
$EXTMIN
 10
0.0
 20
0.0
 30
0.0
  9
$LIMMIN
 10
0.0
 20
0.0
  9
$LIMMAX
 10
58.3755629189
 20
82.5597246996
  9
$VIEWCTR
 10
29.1877814595
 20
41.2798623498
  9
$VIEWSIZE
 40
82.5597246996
  9
$CLAYER
  8
0
  9
$LTSCALE
 40
5.3816709434
  9
$CELTYPE
  6
BYLAYER
  9
$DIMSCALE
 40
1.0
  9
$DIMASZ
 40
0.6949471776
  9
$DIMEXO
 40
1.0
  9
$DIMDLI
 40
3.7182453791
  9
$DIMEXE
 40
1.0
  9
$DIMCEN
 40
0.8806370635
  9
$DIMLFAC
 40
1.0
  9
$DIMBLK
  1
_FILLED
  9
$DIMALT
 70
0
  9
$DIMALTF
 40
0.0393700787
  9
$DIMTXT
 40
0.9729260486
  9
$DIMTOL
 70
1
  9
$DIMLIM
 70
0
  9
$DIMTFAC
 40
1.0
  9
$DIMTP
 40
0.01
  9
$DIMTM
 40
0.01
  9
$DIMGAP
 40
0.625
  9
$DIMDSEP
 70
46
  9
$AUNITS
 70
0
  9
$PDMODE
 70
3
  9
$PDSIZE
 40
0.3125
  9
$HANDSEED
  5
30F
  9
$TILEMODE
 70
1
  9
$MEASUREMENT
 70
1
  9
$INSUNITS
 70
4
  0
ENDSEC
  0
SECTION
  2
CLASSES
  0
CLASS
  1
ACDBDICTIONARYWDFLT
  2
AcDbDictionaryWithDefault
  3
AutoCAD 2000
 90
0
 91
1
280
0
281
0
  0
CLASS
  1
ACDBPLACEHOLDER
  2
AcDbPlaceHolder
  3
AutoCAD 2000
 90
0
 91
1
280
0
281
0
  0
CLASS
  1
LAYOUT
  2
AcDbLayout
  3
AutoCAD 2000
 90
0
 91
0
280
0
281
0
  0
ENDSEC
  0
SECTION
  2
TABLES
  0
TABLE
  2
VPORT
  5
8
100
AcDbSymbolTable
 70
2
  0
VPORT
  5
1F4
100
AcDbSymbolTableRecord
100
AcDbViewportTableRecord
  2
*ACTIVE
 70
0
 10
0.0
 20
0.0
 11
1.0
 21
1.0
 12
29.1877814595
 22
41.2798623498
 13
0.0
 23
0.0
 14
1.0
 24
1.0
 15
0.0
 25
0.0
 16
0.0
 26
0.0
 36
1.0
 17
0.0
 27
0.0
 37
0.0
 40
82.5597246996
 41
0.7070707071
 42
50.0
 43
0.0
 44
0.0
 50
0.0
 51
0.0
 71
0
 72
100
 73
1
 74
1
 75
0
 76
0
 77
0
 78
0
  0
ENDTAB
  0
TABLE
  2
LTYPE
  5
5
100
AcDbSymbolTable
 70
6
  0
LTYPE
  5
14
100
AcDbSymbolTableRecord
100
AcDbLinetypeTableRecord
  2
BYBLOCK
 70
0
  3

 72
65
 73
0
 40
0.0
  0
LTYPE
  5
15
100
AcDbSymbolTableRecord
100
AcDbLinetypeTableRecord
  2
BYLAYER
 70
0
  3

 72
65
 73
0
 40
0.0
  0
LTYPE
  5
16
100
AcDbSymbolTableRecord
100
AcDbLinetypeTableRecord
  2
CONTINUOUS
 70
64
  3
Solid line
 72
65
 73
0
 40
0.0
  0
LTYPE
  5
1F5
100
AcDbSymbolTableRecord
100
AcDbLinetypeTableRecord
  2
CENTER
 70
64
  3
____ _ ____ _ ____ _ ____ _ ____ _ ____ _ ____
 72
65
 73
4
 40
0.6
 49
0.375
 74
0
 49
-0.075
 74
0
 49
0.075
 74
0
 49
-0.075
 74
0
  0
LTYPE
  5
1F6
100
AcDbSymbolTableRecord
100
AcDbLinetypeTableRecord
  2
HIDDEN
 70
64
  3
- - - - - - - - - - - - - - - - - - - -
 72
65
 73
2
 40
0.2
 49
0.1
 74
0
 49
-0.1
 74
0
  0
LTYPE
  5
1F7
100
AcDbSymbolTableRecord
100
AcDbLinetypeTableRecord
  2
PHANTOM
 70
64
  3
_____ _ _ _____ _ _ _____ _ _ _____
 72
65
 73
6
 40
0.8
 49
0.45
 74
0
 49
-0.05
 74
0
 49
0.1
 74
0
 49
-0.05
 74
0
 49
0.1
 74
0
 49
-0.05
 74
0
  0
LTYPE
  5
1F8
100
AcDbSymbolTableRecord
100
AcDbLinetypeTableRecord
  2
DOT
 70
64
  3
. . . . . . . . . . . . . . . . . . . .
 72
65
 73
2
 40
0.2
 49
0.1
 74
0
 49
-0.1
 74
0
  0
LTYPE
  5
1F9
100
AcDbSymbolTableRecord
100
AcDbLinetypeTableRecord
  2
DASHED
 70
64
  3
- - - - - - - - - - - - - - - - - - - -
 72
65
 73
2
 40
0.2
 49
0.1
 74
0
 49
-0.1
 74
0
  0
ENDTAB
  0
TABLE
  2
LAYER
  5
2
100
AcDbSymbolTable
 70
36
  0
LAYER
  5
10
100
AcDbSymbolTableRecord
100
AcDbLayerTableRecord
  2
0
 70
0
 62
7
  6
CONTINUOUS
370
-3
390
F
  0
LAYER
  5
1FA
100
AcDbSymbolTableRecord
100
AcDbLayerTableRecord
  2
DEFAULT_1
 70
0
 62
7
  6
CENTER
370
-3
390
F
  0
LAYER
  5
1FB
100
AcDbSymbolTableRecord
100
AcDbLayerTableRecord
  2
DEFAULT_2
 70
0
 62
8
  6
HIDDEN
370
-3
390
F
  0
LAYER
  5
1FC
100
AcDbSymbolTableRecord
100
AcDbLayerTableRecord
  2
DEFAULT_3
 70
0
 62
7
  6
PHANTOM
370
-3
390
F
  0
LAYER
  5
1FD
100
AcDbSymbolTableRecord
100
AcDbLayerTableRecord
  2
00_COMPONENTS
 70
0
 62
7
  6
CONTINUOUS
370
-3
390
F
  0
LAYER
  5
1FE
100
AcDbSymbolTableRecord
100
AcDbLayerTableRecord
  2
01_1_DEFAULT_DATUMS
 70
0
 62
7
  6
CONTINUOUS
370
-3
390
F
  0
LAYER
  5
1FF
100
AcDbSymbolTableRecord
100
AcDbLayerTableRecord
  2
01_PLANES
 70
0
 62
7
  6
CONTINUOUS
370
-3
390
F
  0
LAYER
  5
200
100
AcDbSymbolTableRecord
100
AcDbLayerTableRecord
  2
02_COORD_SYS
 70
0
 62
7
  6
CONTINUOUS
370
-3
390
F
  0
LAYER
  5
201
100
AcDbSymbolTableRecord
100
AcDbLayerTableRecord
  2
03_AXES
 70
0
 62
7
  6
CONTINUOUS
370
-3
390
F
  0
LAYER
  5
202
100
AcDbSymbolTableRecord
100
AcDbLayerTableRecord
  2
04_POINTS
 70
0
 62
7
  6
CONTINUOUS
370
-3
390
F
  0
LAYER
  5
203
100
AcDbSymbolTableRecord
100
AcDbLayerTableRecord
  2
05_CURVES
 70
0
 62
7
  6
CONTINUOUS
370
-3
390
F
  0
LAYER
  5
204
100
AcDbSymbolTableRecord
100
AcDbLayerTableRecord
  2
06_SURFS
 70
0
 62
7
  6
CONTINUOUS
370
-3
390
F
  0
LAYER
  5
205
100
AcDbSymbolTableRecord
100
AcDbLayerTableRecord
  2
07_COSMETICS
 70
0
 62
7
  6
CONTINUOUS
370
-3
390
F
  0
LAYER
  5
206
100
AcDbSymbolTableRecord
100
AcDbLayerTableRecord
  2
10_NOTES
 70
0
 62
7
  6
CONTINUOUS
370
-3
390
F
  0
LAYER
  5
207
100
AcDbSymbolTableRecord
100
AcDbLayerTableRecord
  2
11_NOTES_PUB
 70
0
 62
7
  6
CONTINUOUS
370
-3
390
F
  0
LAYER
  5
208
100
AcDbSymbolTableRecord
100
AcDbLayerTableRecord
  2
13_REF_GTOL
 70
0
 62
7
  6
CONTINUOUS
370
-3
390
F
  0
LAYER
  5
209
100
AcDbSymbolTableRecord
100
AcDbLayerTableRecord
  2
16_MISC
 70
0
 62
7
  6
CONTINUOUS
370
-3
390
F
  0
LAYER
  5
20A
100
AcDbSymbolTableRecord
100
AcDbLayerTableRecord
  2
17_NO_PRINT
 70
0
 62
7
  6
CONTINUOUS
370
-3
390
F
  0
LAYER
  5
20B
100
AcDbSymbolTableRecord
100
AcDbLayerTableRecord
  2
18_DATUM_CAMS_JOINTS
 70
0
 62
7
  6
CONTINUOUS
370
-3
390
F
  0
LAYER
  5
20C
100
AcDbSymbolTableRecord
100
AcDbLayerTableRecord
  2
19_DATUM_FUNCTIONAL
 70
0
 62
7
  6
CONTINUOUS
370
-3
390
F
  0
LAYER
  5
20D
100
AcDbSymbolTableRecord
100
AcDbLayerTableRecord
  2
20_DATUM_KINEMATIC_SCHEME
 70
0
 62
7
  6
CONTINUOUS
370
-3
390
F
  0
ENDTAB
  0
TABLE
  2
STYLE
  5
3
100
AcDbSymbolTable
 70
1
  0
STYLE
  5
11
100
AcDbSymbolTableRecord
100
AcDbTextStyleTableRecord
  2
STANDARD
 70
0
 40
0.0
 41
0.8
 50
0.0
 71
0
 42
0.2
  3
txt
  4

  0
STYLE
  5
20E
100
AcDbSymbolTableRecord
100
AcDbTextStyleTableRecord
  2
TEXTSTYLE_1
 70
0
 40
0.0
 41
0.8
 50
0.0
 71
0
 42
0.2
  3
gdt
  4

  0
ENDTAB
  0
TABLE
  2
VIEW
  5
6
100
AcDbSymbolTable
 70
0
  0
ENDTAB
  0
TABLE
  2
UCS
  5
7
100
AcDbSymbolTable
 70
0
  0
ENDTAB
  0
TABLE
  2
APPID
  5
9
100
AcDbSymbolTable
 70
1
  0
APPID
  5
20F
100
AcDbSymbolTableRecord
100
AcDbRegAppTableRecord
  2
ACAD
 70
0
  0
ENDTAB
  0
TABLE
  2
BLOCK_RECORD
  5
1
100
AcDbSymbolTable
 70
0
  0
BLOCK_RECORD
  5
210
100
AcDbSymbolTableRecord
100
AcDbBlockTableRecord
  2
*Model_Space
  0
BLOCK_RECORD
  5
211
100
AcDbSymbolTableRecord
100
AcDbBlockTableRecord
  2
*Paper_Space
  0
BLOCK_RECORD
  5
212
100
AcDbSymbolTableRecord
100
AcDbBlockTableRecord
  2
_FILLED
  0
ENDTAB
  0
TABLE
  2
DIMSTYLE
  5
A
100
AcDbSymbolTable
 70
1
100
AcDbDimStyleTable
 71
0
  0
DIMSTYLE
105
213
100
AcDbSymbolTableRecord
100
AcDbDimStyleTableRecord
  2
STANDARD
 70
0
  3

  4

 40
1.0
 41
0.6949471776
 42
1.0
 43
0.38
 44
1.0
 45
0.0
 46
0.0
 47
0.01
 48
0.01
140
0.9729260486
141
0.09
142
0.0
143
25.4
144
1.0
145
0.0
146
1.0
147
0.625
 71
1
 72
0
 73
0
 74
0
 75
0
 76
0
 77
1
 78
8
 79
2
170
0
171
1
172
0
173
0
174
0
175
0
176
0
177
0
178
0
270
2
179
2
271
2
272
2
273
2
274
2
275
0
280
0
281
0
282
0
283
1
284
8
285
0
286
0
287
3
288
0
340
11
278
46
341
212
342
212
343
212
344
212
  0
ENDTAB
  0
ENDSEC
  0
SECTION
  2
BLOCKS
  0
BLOCK
  5
20
100
AcDbEntity
  8
0
100
AcDbBlockBegin
  2
*Model_Space
 70
0
 10
0.0
 20
0.0
 30
0.0
  3
*Model_Space
  1

  0
ENDBLK
  5
21
100
AcDbEntity
  8
0
100
AcDbBlockEnd
  0
BLOCK
  5
1C
100
AcDbEntity
  8
0
100
AcDbBlockBegin
  2
*Paper_Space
 70
0
 10
0.0
 20
0.0
 30
0.0
  3
*Paper_Space
  1

  0
ENDBLK
  5
1D
100
AcDbEntity
  8
0
100
AcDbBlockEnd
  0
BLOCK
  5
214
100
AcDbEntity
  8
0
100
AcDbBlockBegin
  2
_FILLED
 70
64
 10
0.0
 20
0.0
  3
_FILLED
  1

  0
SOLID
  5
215
100
AcDbEntity
  8
0
  6
BYBLOCK
 62
0
100
AcDbTrace
 10
0.0
 20
0.0
 11
-1.0
 21
0.25
 12
-1.0
 22
-0.25
 13
-1.0
 23
-0.25
  0
ENDBLK
  5
216
100
AcDbEntity
  8
0
  6
BYBLOCK
 62
0
100
AcDbBlockEnd
  0
ENDSEC
  0
SECTION
  2
ENTITIES
  0
LINE
  5
217
100
AcDbEntity
  8
0
100
AcDbLine
 62
7
  6
CONTINUOUS
 10
6.8046982025
 20
45.2018607223
 11
6.8046982025
 21
47.3599685665
  0
LINE
  5
218
100
AcDbEntity
  8
0
100
AcDbLine
 62
7
  6
CONTINUOUS
 10
8.0046982025
 20
34.5114168462
 11
8.0046982025
 21
39.8880943214
  0
LINE
  5
219
100
AcDbEntity
  8
0
100
AcDbLine
 62
7
  6
CONTINUOUS
 10
8.0046982025
 20
42.8737349675
 11
8.0046982025
 21
49.1732185399
  0
LINE
  5
21A
100
AcDbEntity
  8
0
100
AcDbLine
 62
7
  6
CONTINUOUS
 10
8.2046982025
 20
44.0492474573
 11
8.2046982025
 21
47.1955513485
  0
LINE
  5
21B
100
AcDbEntity
  8
0
100
AcDbLine
 62
7
  6
CONTINUOUS
 10
8.3046982025
 20
49.5141796715
 11
8.3046982025
 21
50.5809078899
  0
LINE
  5
21C
100
AcDbEntity
  8
0
100
AcDbLine
 62
7
  6
CONTINUOUS
 10
8.3046982025
 20
50.5809146444
 11
9.2046982024
 21
51.4809146444
  0
LINE
  5
21D
100
AcDbEntity
  8
0
100
AcDbLine
 62
7
  6
CONTINUOUS
 10
8.0046982025
 20
34.5114168462
 11
8.3046990021
 21
33.9925885177
  0
LINE
  5
21E
100
AcDbEntity
  8
0
100
AcDbLine
 62
7
  6
CONTINUOUS
 10
9.6046982024
 20
49.3289571869
 11
9.6046982024
 21
51.4809146444
  0
LINE
  5
21F
100
AcDbEntity
  8
0
100
AcDbLine
 62
7
  6
CONTINUOUS
 10
11.2056982025
 20
32.2810533835
 11
11.2056982025
 21
32.9809145303
  0
LINE
  5
220
100
AcDbEntity
  8
0
100
AcDbLine
 62
7
  6
CONTINUOUS
 10
11.3746982025
 20
40.5809146444
 11
11.3746982025
 21
42.1809146444
  0
LINE
  5
221
100
AcDbEntity
  8
0
100
AcDbLine
 62
7
  6
CONTINUOUS
 10
11.4046982025
 20
51.4809146444
 11
11.4046982025
 21
47.1955513485
  0
LINE
  5
222
100
AcDbEntity
  8
0
100
AcDbLine
 62
7
  6
CONTINUOUS
 10
11.4046982025
 20
38.1809146444
 11
11.4046982025
 21
34.6688299287
  0
LINE
  5
223
100
AcDbEntity
  8
0
100
AcDbLine
 62
7
  6
CONTINUOUS
 10
13.3046982025
 20
42.1809146444
 11
13.3046982025
 21
40.5809146444
  0
LINE
  5
224
100
AcDbEntity
  8
0
100
AcDbLine
 62
7
  6
CONTINUOUS
 10
14.0936982025
 20
31.2409146444
 11
14.0936982025
 21
34.5809146938
  0
LINE
  5
225
100
AcDbEntity
  8
0
100
AcDbLine
 62
7
  6
CONTINUOUS
 10
14.0936982025
 20
34.6687832067
 11
14.0936982025
 21
51.4809146444
  0
LINE
  5
226
100
AcDbEntity
  8
0
100
AcDbLine
 62
7
  6
CONTINUOUS
 10
50.8651473957
 20
27.4690126582
 11
37.9536977748
 21
27.130914637
  0
LINE
  5
227
100
AcDbEntity
  8
0
100
AcDbLine
 62
7
  6
CONTINUOUS
 10
17.1045904183
 20
51.4809146444
 11
17.1045904183
 21
51.8809129842
  0
LINE
  5
228
100
AcDbEntity
  8
0
100
AcDbLine
 62
7
  6
CONTINUOUS
 10
17.2802306369
 20
51.4809146444
 11
17.2802306369
 21
51.8773542427
  0
LINE
  5
229
100
AcDbEntity
  8
0
100
AcDbLine
 62
7
  6
CONTINUOUS
 10
26.9036984074
 20
27.1309146407
 11
36.7897740257
 21
27.1309146407
  0
LINE
  5
22A
100
AcDbEntity
  8
0
100
AcDbLine
 62
7
  6
CONTINUOUS
 10
37.1536982025
 20
27.2309144671
 11
37.9536977748
 21
27.2309144671
  0
LINE
  5
22B
100
AcDbEntity
  8
0
100
AcDbLine
 62
7
  6
CONTINUOUS
 10
25.6536982025
 20
27.8059148873
 11
26.9036984074
 21
27.8059148873
  0
LINE
  5
22C
100
AcDbEntity
  8
0
100
AcDbLine
 62
7
  6
CONTINUOUS
 10
8.0046982025
 20
35.1809146444
 11
10.9213487825
 21
38.0975652245
  0
LINE
  5
22D
100
AcDbEntity
  8
0
100
AcDbLine
 62
7
  6
CONTINUOUS
 10
24.041710112
 20
50.8523407838
 11
24.6699955123
 21
51.1241935873
  0
LINE
  5
22E
100
AcDbEntity
  8
0
100
AcDbLine
 62
7
  6
CONTINUOUS
 10
22.9546982025
 20
30.5059146444
 11
25.6536982025
 21
30.5059146444
  0
LINE
  5
22F
100
AcDbEntity
  8
0
100
AcDbLine
 62
7
  6
CONTINUOUS
 10
21.1036982025
 20
51.4809146444
 11
21.1036982025
 21
51.6886787085
  0
LINE
  5
230
100
AcDbEntity
  8
0
100
AcDbLine
 62
7
  6
CONTINUOUS
 10
9.2046982025
 20
40.5809146444
 11
8.0046982025
 21
39.8880943214
  0
LINE
  5
231
100
AcDbEntity
  8
0
100
AcDbLine
 62
7
  6
CONTINUOUS
 10
22.6936982025
 20
30.8809146444
 11
22.7046982025
 21
30.8809146444
  0
LINE
  5
232
100
AcDbEntity
  8
0
100
AcDbLine
 62
7
  6
CONTINUOUS
 10
14.0936982025
 20
31.2409146444
 11
22.6936982025
 21
31.2409146444
  0
LINE
  5
233
100
AcDbEntity
  8
0
100
AcDbLine
 62
7
  6
CONTINUOUS
 10
11.2056982025
 20
32.2809146444
 11
14.0936982025
 21
32.2809146444
  0
LINE
  5
234
100
AcDbEntity
  8
0
100
AcDbLine
 62
7
  6
CONTINUOUS
 10
8.0046982025
 20
42.8737349675
 11
9.2046982025
 21
42.1809146444
  0
LINE
  5
235
100
AcDbEntity
  8
0
100
AcDbLine
 62
7
  6
CONTINUOUS
 10
22.2936982025
 20
51.4809146444
 11
22.2936982025
 21
49.2071526366
  0
LINE
  5
236
100
AcDbEntity
  8
0
100
AcDbLine
 62
7
  6
CONTINUOUS
 10
22.2936982025
 20
38.180914842
 11
22.2936982025
 21
34.5809146938
  0
LINE
  5
237
100
AcDbEntity
  8
0
100
AcDbLine
 62
7
  6
CONTINUOUS
 10
22.2936982025
 20
38.8809146444
 11
22.2936982025
 21
43.8809146444
  0
LINE
  5
238
100
AcDbEntity
  8
0
100
AcDbLine
 62
7
  6
CONTINUOUS
 10
22.6936982025
 20
30.8809174981
 11
22.6936982025
 21
31.2409146444
  0
LINE
  5
239
100
AcDbEntity
  8
0
100
AcDbLine
 62
7
  6
CONTINUOUS
 10
22.7046982025
 20
30.7559146444
 11
22.7046982025
 21
52.0059146444
  0
LINE
  5
23A
100
AcDbEntity
  8
0
100
AcDbLine
 62
7
  6
CONTINUOUS
 10
22.9546982025
 20
30.5059146444
 11
22.9546982025
 21
52.2559146444
  0
LINE
  5
23B
100
AcDbEntity
  8
0
100
AcDbLine
 62
7
  6
CONTINUOUS
 10
24.8690477265
 20
34.1673691535
 11
25.6536982025
 21
34.1673286893
  0
LINE
  5
23C
100
AcDbEntity
  8
0
100
AcDbLine
 62
7
  6
CONTINUOUS
 10
23.0446982029
 20
50.0531523332
 11
23.0446982029
 21
49.8458560711
  0
LINE
  5
23D
100
AcDbEntity
  8
0
100
AcDbLine
 62
7
  6
CONTINUOUS
 10
23.0446982029
 20
36.0898630808
 11
23.0446982029
 21
35.7982680839
  0
LINE
  5
23E
100
AcDbEntity
  8
0
100
AcDbLine
 62
7
  6
CONTINUOUS
 10
23.4036982025
 20
52.2558147742
 11
23.4036982025
 21
52.0206103638
  0
LINE
  5
23F
100
AcDbEntity
  8
0
100
AcDbLine
 62
7
  6
CONTINUOUS
 10
24.6699955123
 20
51.1241935873
 11
24.6699955123
 21
48.4832742353
  0
LINE
  5
240
100
AcDbEntity
  8
0
100
AcDbLine
 62
7
  6
CONTINUOUS
 10
24.6699955123
 20
37.8807577093
 11
24.6699955123
 21
34.2141155739
  0
LINE
  5
241
100
AcDbEntity
  8
0
100
AcDbLine
 62
7
  6
CONTINUOUS
 10
8.0046982025
 20
34.5809146444
 11
22.2936982025
 21
34.5809146444
  0
LINE
  5
242
100
AcDbEntity
  8
0
100
AcDbLine
 62
7
  6
CONTINUOUS
 10
14.0936982025
 20
34.6687418349
 11
11.4046982025
 21
34.6687418349
  0
LINE
  5
243
100
AcDbEntity
  8
0
100
AcDbLine
 62
7
  6
CONTINUOUS
 10
11.4046982025
 20
34.7389071101
 11
8.0046982025
 21
34.7389071101
  0
LINE
  5
244
100
AcDbEntity
  8
0
100
AcDbLine
 62
7
  6
CONTINUOUS
 10
22.2936982025
 20
34.7394052105
 11
14.0936982025
 21
34.7394052105
  0
LINE
  5
245
100
AcDbEntity
  8
0
100
AcDbLine
 62
7
  6
CONTINUOUS
 10
24.8690477265
 20
34.16740962
 11
24.8690477265
 21
37.9397435055
  0
LINE
  5
246
100
AcDbEntity
  8
0
100
AcDbLine
 62
7
  6
CONTINUOUS
 10
24.8690477265
 20
48.4360292116
 11
24.8690477265
 21
51.1607199101
  0
LINE
  5
247
100
AcDbEntity
  8
0
100
AcDbLine
 62
7
  6
CONTINUOUS
 10
25.6536982025
 20
27.8059148873
 11
25.6536982025
 21
54.9559144015
  0
LINE
  5
248
100
AcDbEntity
  8
0
100
AcDbLine
 62
7
  6
CONTINUOUS
 10
26.9036982025
 20
36.3291210614
 11
25.6536982025
 21
36.3291210614
  0
LINE
  5
249
100
AcDbEntity
  8
0
100
AcDbLine
 62
7
  6
CONTINUOUS
 10
11.4046982025
 20
37.5046904877
 11
10.3284740457
 21
37.5046904877
  0
LINE
  5
24A
100
AcDbEntity
  8
0
100
AcDbLine
 62
7
  6
CONTINUOUS
 10
25.6536982025
 20
37.9398461023
 11
24.8690477265
 21
37.9397948086
  0
LINE
  5
24B
100
AcDbEntity
  8
0
100
AcDbLine
 62
7
  6
CONTINUOUS
 10
51.3333868997
 20
31.129726519
 11
51.3075779242
 21
31.1374524841
  0
LINE
  5
24C
100
AcDbEntity
  8
0
100
AcDbLine
 62
7
  6
CONTINUOUS
 10
26.9036984074
 20
27.130914637
 11
26.9036984074
 21
55.6309146519
  0
LINE
  5
24D
100
AcDbEntity
  8
0
100
AcDbLine
 62
7
  6
CONTINUOUS
 10
28.1036982025
 20
40.3309146444
 11
28.1036982025
 21
42.4309146444
  0
LINE
  5
24E
100
AcDbEntity
  8
0
100
AcDbLine
 62
7
  6
CONTINUOUS
 10
11.4046982025
 20
38.1809146444
 11
11.1064292637
 21
38.1809146444
  0
LINE
  5
24F
100
AcDbEntity
  8
0
100
AcDbLine
 62
7
  6
CONTINUOUS
 10
22.2936982025
 20
38.180914842
 11
14.0936982025
 21
38.180914842
  0
LINE
  5
250
100
AcDbEntity
  8
0
100
AcDbLine
 62
7
  6
CONTINUOUS
 10
22.2936982025
 20
38.8809146444
 11
14.0936982025
 21
38.8809146444
  0
LINE
  5
251
100
AcDbEntity
  8
0
100
AcDbLine
 62
7
  6
CONTINUOUS
 10
28.1036982025
 20
40.3309146444
 11
26.9036982025
 21
40.2259146444
  0
LINE
  5
252
100
AcDbEntity
  8
0
100
AcDbLine
 62
7
  6
CONTINUOUS
 10
39.5208063087
 20
40.5040613461
 11
39.0636982025
 21
40.495231549
  0
LINE
  5
253
100
AcDbEntity
  8
0
100
AcDbLine
 62
7
  6
CONTINUOUS
 10
13.3046982025
 20
40.5809146444
 11
9.2046982025
 21
40.5809146444
  0
LINE
  5
254
100
AcDbEntity
  8
0
100
AcDbLine
 62
7
  6
CONTINUOUS
 10
9.2046982025
 20
42.1809146444
 11
13.3046982025
 21
42.1809146444
  0
LINE
  5
255
100
AcDbEntity
  8
0
100
AcDbLine
 62
7
  6
CONTINUOUS
 10
39.0636982025
 20
42.2665977398
 11
39.5208063087
 21
42.2577679427
  0
LINE
  5
256
100
AcDbEntity
  8
0
100
AcDbLine
 62
7
  6
CONTINUOUS
 10
26.9036982025
 20
42.5359146444
 11
28.1036982025
 21
42.4309146444
  0
LINE
  5
257
100
AcDbEntity
  8
0
100
AcDbLine
 62
7
  6
CONTINUOUS
 10
14.0936982025
 20
43.8809146444
 11
17.157704623
 21
43.8809146444
  0
LINE
  5
258
100
AcDbEntity
  8
0
100
AcDbLine
 62
7
  6
CONTINUOUS
 10
19.6496917819
 20
43.8809146444
 11
22.2936982025
 21
43.8809146444
  0
LINE
  5
259
100
AcDbEntity
  8
0
100
AcDbLine
 62
7
  6
CONTINUOUS
 10
8.2046982025
 20
44.0492474573
 11
14.0936982025
 21
44.0492474573
  0
LINE
  5
25A
100
AcDbEntity
  8
0
100
AcDbLine
 62
7
  6
CONTINUOUS
 10
6.8046982025
 20
45.2018607223
 11
8.0046982025
 21
45.1809146444
  0
LINE
  5
25B
100
AcDbEntity
  8
0
100
AcDbLine
 62
7
  6
CONTINUOUS
 10
25.6536982025
 20
46.4327082275
 11
26.9036982025
 21
46.4327082275
  0
LINE
  5
25C
100
AcDbEntity
  8
0
100
AcDbLine
 62
7
  6
CONTINUOUS
 10
36.7897740257
 20
55.6309146482
 11
36.7897740257
 21
27.1309146407
  0
LINE
  5
25D
100
AcDbEntity
  8
0
100
AcDbLine
 62
7
  6
CONTINUOUS
 10
37.1536982025
 20
27.231098622
 11
37.1536982025
 21
55.5307306668
  0
LINE
  5
25E
100
AcDbEntity
  8
0
100
AcDbLine
 62
7
  6
CONTINUOUS
 10
38.4491886625
 20
51.0317264368
 11
38.4036982025
 21
51.019663951
  0
LINE
  5
25F
100
AcDbEntity
  8
0
100
AcDbLine
 62
7
  6
CONTINUOUS
 10
8.0046982025
 20
47.3809146444
 11
6.8046982025
 21
47.3599685665
  0
LINE
  5
260
100
AcDbEntity
  8
0
100
AcDbLine
 62
7
  6
CONTINUOUS
 10
11.4046982025
 20
47.1955513485
 11
8.2046982025
 21
47.1955513485
  0
LINE
  5
261
100
AcDbEntity
  8
0
100
AcDbLine
 62
7
  6
CONTINUOUS
 10
24.8690477265
 20
48.4359880525
 11
25.6536982025
 21
48.4359469032
  0
LINE
  5
262
100
AcDbEntity
  8
0
100
AcDbLine
 62
7
  6
CONTINUOUS
 10
37.9536977748
 20
27.1310997145
 11
37.9536977748
 21
55.6307295744
  0
LINE
  5
263
100
AcDbEntity
  8
0
100
AcDbLine
 62
7
  6
CONTINUOUS
 10
38.4036982025
 20
51.8853155632
 11
38.4036982025
 21
50.9925932609
  0
LINE
  5
264
100
AcDbEntity
  8
0
100
AcDbLine
 62
7
  6
CONTINUOUS
 10
38.4536981757
 20
50.977722599
 11
38.4536981757
 21
51.8632481834
  0
LINE
  5
265
100
AcDbEntity
  8
0
100
AcDbLine
 62
7
  6
CONTINUOUS
 10
39.0636982025
 20
27.1876433156
 11
39.0636982025
 21
27.3135556193
  0
LINE
  5
266
100
AcDbEntity
  8
0
100
AcDbLine
 62
7
  6
CONTINUOUS
 10
39.0636982025
 20
29.9598133045
 11
39.0636982025
 21
30.7182327239
  0
LINE
  5
267
100
AcDbEntity
  8
0
100
AcDbLine
 62
7
  6
CONTINUOUS
 10
39.0636982025
 20
31.9710287633
 11
39.0636982025
 21
32.9076213351
  0
LINE
  5
268
100
AcDbEntity
  8
0
100
AcDbLine
 62
7
  6
CONTINUOUS
 10
39.0636982025
 20
39.2962963988
 11
39.0636982025
 21
40.4953387582
  0
LINE
  5
269
100
AcDbEntity
  8
0
100
AcDbLine
 62
7
  6
CONTINUOUS
 10
39.0636982025
 20
42.2664905306
 11
39.0636982025
 21
43.4655328899
  0
LINE
  5
26A
100
AcDbEntity
  8
0
100
AcDbLine
 62
7
  6
CONTINUOUS
 10
39.0636982025
 20
55.4482736696
 11
39.0636982025
 21
55.5741859733
  0
LINE
  5
26B
100
AcDbEntity
  8
0
100
AcDbLine
 62
7
  6
CONTINUOUS
 10
9.4705078122
 20
49.0261751936
 11
11.4046982025
 21
49.0261751936
  0
LINE
  5
26C
100
AcDbEntity
  8
0
100
AcDbLine
 62
7
  6
CONTINUOUS
 10
22.2936982025
 20
49.2071526366
 11
14.0936982025
 21
49.2071526366
  0
LINE
  5
26D
100
AcDbEntity
  8
0
100
AcDbLine
 62
7
  6
CONTINUOUS
 10
11.4046982025
 20
49.3289571869
 11
9.6046982025
 21
49.3289571869
  0
LINE
  5
26E
100
AcDbEntity
  8
0
100
AcDbLine
 62
7
  6
CONTINUOUS
 10
14.0936982025
 20
49.6754910695
 11
22.2936982025
 21
49.6754910695
  0
LINE
  5
26F
100
AcDbEntity
  8
0
100
AcDbLine
 62
7
  6
CONTINUOUS
 10
22.2936982025
 20
49.9884940741
 11
14.0936982025
 21
49.9884940741
  0
LINE
  5
270
100
AcDbEntity
  8
0
100
AcDbLine
 62
7
  6
CONTINUOUS
 10
11.4046982025
 20
50.4809146444
 11
14.0936982025
 21
50.4809146444
  0
LINE
  5
271
100
AcDbEntity
  8
0
100
AcDbLine
 62
7
  6
CONTINUOUS
 10
40.0536973204
 20
52.2631929408
 11
40.0536973204
 21
52.2309000917
  0
LINE
  5
272
100
AcDbEntity
  8
0
100
AcDbLine
 62
7
  6
CONTINUOUS
 10
40.0536973204
 20
50.5338438496
 11
40.0536973204
 21
50.4954260094
  0
LINE
  5
273
100
AcDbEntity
  8
0
100
AcDbLine
 62
7
  6
CONTINUOUS
 10
36.7897740257
 20
27.1309146444
 11
37.1536982025
 21
28.3530095642
  0
LINE
  5
274
100
AcDbEntity
  8
0
100
AcDbLine
 62
7
  6
CONTINUOUS
 10
24.85852543
 20
51.1608298921
 11
24.6699955123
 21
51.1241935873
  0
LINE
  5
275
100
AcDbEntity
  8
0
100
AcDbLine
 62
7
  6
CONTINUOUS
 10
24.8690477265
 20
51.1607199101
 11
25.6536982025
 21
51.1608478257
  0
LINE
  5
276
100
AcDbEntity
  8
0
100
AcDbLine
 62
7
  6
CONTINUOUS
 10
22.2936982025
 20
51.4809146444
 11
14.0936982025
 21
51.4809146444
  0
LINE
  5
277
100
AcDbEntity
  8
0
100
AcDbLine
 62
7
  6
CONTINUOUS
 10
11.4046982025
 20
51.4809146444
 11
9.2046982024
 21
51.4809146444
  0
LINE
  5
278
100
AcDbEntity
  8
0
100
AcDbLine
 62
7
  6
CONTINUOUS
 10
17.2802704986
 20
51.8809146444
 11
22.7046982025
 21
51.8809146444
  0
LINE
  5
279
100
AcDbEntity
  8
0
100
AcDbLine
 62
7
  6
CONTINUOUS
 10
25.6536982025
 20
52.0206103638
 11
23.4036982025
 21
52.0206103638
  0
LINE
  5
27A
100
AcDbEntity
  8
0
100
AcDbLine
 62
7
  6
CONTINUOUS
 10
22.9546982025
 20
52.2559146444
 11
23.4036982025
 21
52.2559146444
  0
LINE
  5
27B
100
AcDbEntity
  8
0
100
AcDbLine
 62
7
  6
CONTINUOUS
 10
24.8690477265
 20
51.1607199101
 11
24.85852543
 21
51.1608298921
  0
LINE
  5
27C
100
AcDbEntity
  8
0
100
AcDbLine
 62
7
  6
CONTINUOUS
 10
37.1536982025
 20
54.4088197246
 11
36.7897740257
 21
55.6309146444
  0
LINE
  5
27D
100
AcDbEntity
  8
0
100
AcDbLine
 62
7
  6
CONTINUOUS
 10
26.9036984074
 20
54.9559144015
 11
25.6536982025
 21
54.9559144015
  0
LINE
  5
27E
100
AcDbEntity
  8
0
100
AcDbLine
 62
7
  6
CONTINUOUS
 10
37.1536982025
 20
55.5309148218
 11
37.9536977748
 21
55.5309148218
  0
LINE
  5
27F
100
AcDbEntity
  8
0
100
AcDbLine
 62
7
  6
CONTINUOUS
 10
36.7897740257
 20
55.6309146482
 11
26.9036984074
 21
55.6309146482
  0
LINE
  5
280
100
AcDbEntity
  8
0
100
AcDbLine
 62
7
  6
CONTINUOUS
 10
50.8651473957
 20
55.2928166306
 11
37.9536977748
 21
55.6309146519
  0
LINE
  5
281
100
AcDbEntity
  8
0
100
AcDbLine
 62
7
  6
CONTINUOUS
 10
51.3673864515
 20
54.7230163478
 11
51.3687543382
 21
54.7275907942
  0
LINE
  5
282
100
AcDbEntity
  8
0
100
AcDbLine
 62
7
  6
CONTINUOUS
 10
51.3687543382
 20
28.0342384946
 11
51.3673860749
 21
28.0388129338
  0
LINE
  5
283
100
AcDbEntity
  8
0
100
AcDbLine
 62
7
  6
CONTINUOUS
 10
50.8651478926
 20
55.2928166176
 11
50.8651478926
 21
55.2746065772
  0
LINE
  5
284
100
AcDbEntity
  8
0
100
AcDbLine
 62
7
  6
CONTINUOUS
 10
50.8651478926
 20
55.1189411287
 11
50.8651478926
 21
52.0622089159
  0
LINE
  5
285
100
AcDbEntity
  8
0
100
AcDbLine
 62
7
  6
CONTINUOUS
 10
50.8651478926
 20
52.0299788658
 11
50.8651478926
 21
50.332922626
  0
LINE
  5
286
100
AcDbEntity
  8
0
100
AcDbLine
 62
7
  6
CONTINUOUS
 10
50.8651478926
 20
50.2944419595
 11
50.8651478926
 21
43.5735488661
  0
LINE
  5
287
100
AcDbEntity
  8
0
100
AcDbLine
 62
7
  6
CONTINUOUS
 10
50.8651478926
 20
42.0924910561
 11
50.8651478926
 21
40.6693381746
  0
LINE
  5
288
100
AcDbEntity
  8
0
100
AcDbLine
 62
7
  6
CONTINUOUS
 10
50.8651478926
 20
39.1882804804
 11
50.8651478926
 21
33.2170894841
  0
LINE
  5
289
100
AcDbEntity
  8
0
100
AcDbLine
 62
7
  6
CONTINUOUS
 10
50.8651478926
 20
32.0597513691
 11
50.8651478926
 21
31.0534303571
  0
LINE
  5
28A
100
AcDbEntity
  8
0
100
AcDbLine
 62
7
  6
CONTINUOUS
 10
50.8651478926
 20
30.1162364305
 11
50.8651478926
 21
27.6428881602
  0
LINE
  5
28B
100
AcDbEntity
  8
0
100
AcDbLine
 62
7
  6
CONTINUOUS
 10
50.8651478926
 20
27.4872227117
 11
50.8651478926
 21
27.4690126712
  0
LINE
  5
28C
100
AcDbEntity
  8
0
100
AcDbLine
 62
7
  6
CONTINUOUS
 10
51.3333558856
 20
27.8333660207
 11
51.3333558856
 21
27.8692752426
  0
LINE
  5
28D
100
AcDbEntity
  8
0
100
AcDbLine
 62
7
  6
CONTINUOUS
 10
51.3333558856
 20
27.959590943
 11
51.3333558856
 21
30.585970274
  0
LINE
  5
28E
100
AcDbEntity
  8
0
100
AcDbLine
 62
7
  6
CONTINUOUS
 10
51.3333558856
 20
31.1297221275
 11
51.3333558856
 21
32.5237629149
  0
LINE
  5
28F
100
AcDbEntity
  8
0
100
AcDbLine
 62
7
  6
CONTINUOUS
 10
51.3333558856
 20
33.1952405414
 11
51.3333558856
 21
39.5358252227
  0
LINE
  5
290
100
AcDbEntity
  8
0
100
AcDbLine
 62
7
  6
CONTINUOUS
 10
51.3333558856
 20
40.3952359672
 11
51.3333558856
 21
42.3666499567
  0
LINE
  5
291
100
AcDbEntity
  8
0
100
AcDbLine
 62
7
  6
CONTINUOUS
 10
51.3333558856
 20
43.2259469873
 11
51.3333558856
 21
50.035729973
  0
LINE
  5
292
100
AcDbEntity
  8
0
100
AcDbLine
 62
7
  6
CONTINUOUS
 10
51.3333558856
 20
50.0742954044
 11
51.3333558856
 21
51.7713521519
  0
LINE
  5
293
100
AcDbEntity
  8
0
100
AcDbLine
 62
7
  6
CONTINUOUS
 10
51.3333558856
 20
51.8034980737
 11
51.3333558856
 21
54.8022382325
  0
LINE
  5
294
100
AcDbEntity
  8
0
100
AcDbLine
 62
7
  6
CONTINUOUS
 10
53.0468139522
 20
43.0655484624
 11
53.0481008373
 21
43.0537983973
  0
LINE
  5
295
100
AcDbEntity
  8
0
100
AcDbLine
 62
7
  6
CONTINUOUS
 10
53.0440889578
 20
43.046225787
 11
53.0421928566
 21
43.0648924763
  0
LINE
  5
296
100
AcDbEntity
  8
0
100
AcDbLine
 62
7
  6
CONTINUOUS
 10
53.0469215225
 20
43.0655538708
 11
53.0481008373
 21
43.0537983973
  0
LINE
  5
297
100
AcDbEntity
  8
0
100
AcDbLine
 62
7
  6
CONTINUOUS
 10
53.1602806487
 20
43.0779755083
 11
53.1571923761
 21
43.1486578
  0
LINE
  5
298
100
AcDbEntity
  8
0
100
AcDbLine
 62
7
  6
CONTINUOUS
 10
53.1602806487
 20
43.0779755083
 11
53.1577001228
 21
43.1486677604
  0
LINE
  5
299
100
AcDbEntity
  8
0
100
AcDbLine
 62
7
  6
CONTINUOUS
 10
53.1578563426
 20
43.1486861565
 11
53.1601196886
 21
43.0779559094
  0
LINE
  5
29A
100
AcDbEntity
  8
0
100
AcDbLine
 62
7
  6
CONTINUOUS
 10
53.1578563426
 20
43.1486861565
 11
53.1595642137
 21
43.0779477265
  0
LINE
  5
29B
100
AcDbEntity
  8
0
100
AcDbLine
 62
7
  6
CONTINUOUS
 10
53.1877014303
 20
41.3989316846
 11
53.1877014303
 21
41.3628976042
  0
LINE
  5
29C
100
AcDbEntity
  8
0
100
AcDbLine
 62
7
  6
CONTINUOUS
 10
53.1738075052
 20
40.532386507
 11
53.171678408
 21
40.1301271148
  0
LINE
  5
29D
100
AcDbEntity
  8
0
100
AcDbLine
 62
7
  6
CONTINUOUS
 10
53.171678408
 20
40.1301271148
 11
53.1713086721
 21
40.0790325326
  0
LINE
  5
29E
100
AcDbEntity
  8
0
100
AcDbLine
 62
7
  6
CONTINUOUS
 10
51.3330586677
 20
50.0746997947
 11
51.3464068095
 21
50.0407167772
  0
LINE
  5
29F
100
AcDbEntity
  8
0
100
AcDbLine
 62
7
  6
CONTINUOUS
 10
51.3330473248
 20
51.8039189481
 11
51.3440022454
 21
51.7760291422
  0
LINE
  5
2A0
100
AcDbEntity
  8
0
100
AcDbLine
 62
7
  6
CONTINUOUS
 10
51.3330473248
 20
51.8039189481
 11
51.3431574541
 21
51.7758634838
  0
LINE
  5
2A1
100
AcDbEntity
  8
0
100
AcDbLine
 62
7
  6
CONTINUOUS
 10
51.3330586677
 20
50.0746997947
 11
51.3452392625
 21
50.0404879108
  0
LINE
  5
2A2
100
AcDbEntity
  8
0
100
AcDbLine
 62
7
  6
CONTINUOUS
 10
53.0440889578
 20
43.046225787
 11
53.0420234178
 21
43.0648838391
  0
ARC
  5
2A3
100
AcDbEntity
  8
0
100
AcDbCircle
 62
7
  6
CONTINUOUS
 10
2.9039711948
 20
41.3989316846
 40
50.2837302355
100
AcDbArc
 50
0.0
 51
1.9135104994
  0
ARC
  5
2A4
100
AcDbEntity
  8
0
100
AcDbCircle
 62
7
  6
CONTINUOUS
 10
2.9039711948
 20
41.3628976042
 40
50.2837302355
100
AcDbArc
 50
358.9528056536
 51
360.0
  0
ARC
  5
2A5
100
AcDbEntity
  8
0
100
AcDbCircle
 62
7
  6
CONTINUOUS
 10
2.9039711948
 20
41.3989316846
 40
50.2837302355
100
AcDbArc
 50
4.1827234261
 51
15.6085651565
  0
ARC
  5
2A6
100
AcDbEntity
  8
0
100
AcDbCircle
 62
7
  6
CONTINUOUS
 10
2.9039711948
 20
41.3628976042
 40
50.2837302355
100
AcDbArc
 50
344.3914348435
 51
358.5369405962
  0
ARC
  5
2A7
100
AcDbEntity
  8
0
100
AcDbCircle
 62
7
  6
CONTINUOUS
 10
27.2490245263
 20
40.5018220037
 40
25.9253417767
100
AcDbArc
 50
0.0675479643
 51
5.6491697636
  0
ARC
  5
2A8
100
AcDbEntity
  8
0
100
AcDbCircle
 62
7
  6
CONTINUOUS
 10
27.2885747708
 20
40.4686388424
 40
25.8845261045
100
AcDbArc
 50
359.9454578798
 51
5.7150765043
  0
ARC
  5
2A9
100
AcDbEntity
  8
0
100
AcDbCircle
 62
7
  6
CONTINUOUS
 10
16.079712634
 20
51.7270474494
 40
19.3693963793
100
AcDbArc
 50
250.1705729974
 51
255.4257269093
  0
ARC
  5
2AA
100
AcDbEntity
  8
0
100
AcDbCircle
 62
7
  6
CONTINUOUS
 10
15.0101184976
 20
48.9217877956
 40
16.3655189245
100
AcDbArc
 50
245.8160635977
 51
246.3384222882
  0
ARC
  5
2AB
100
AcDbEntity
  8
0
100
AcDbCircle
 62
7
  6
CONTINUOUS
 10
18.3295568657
 20
41.0716719159
 40
10.5536116593
100
AcDbArc
 50
163.6121475337
 51
168.0488949659
  0
CIRCLE
  5
2AC
100
AcDbEntity
  8
0
100
AcDbCircle
 62
7
  6
CONTINUOUS
 10
18.4036982025
 20
43.7809146444
 40
1.25
  0
ARC
  5
2AD
100
AcDbEntity
  8
0
100
AcDbCircle
 62
7
  6
CONTINUOUS
 10
50.8521450964
 20
49.6362307404
 40
0.6968132143
100
AcDbArc
 50
88.1646446672
 51
88.934955486
  0
ARC
  5
2AE
100
AcDbEntity
  8
0
100
AcDbCircle
 62
7
  6
CONTINUOUS
 10
50.8521503101
 20
51.3659718837
 40
0.6963583395
100
AcDbArc
 50
88.2918404732
 51
88.9346896035
  0
ARC
  5
2AF
100
AcDbEntity
  8
0
100
AcDbCircle
 62
7
  6
CONTINUOUS
 10
39.0633202265
 20
42.8713446117
 40
0.6045701847
100
AcDbArc
 50
205.3008209558
 51
270.0363593898
  0
ARC
  5
2B0
100
AcDbEntity
  8
0
100
AcDbCircle
 62
7
  6
CONTINUOUS
 10
39.0631925605
 20
39.8905796667
 40
0.6044154424
100
AcDbArc
 50
89.9515310958
 51
154.6490911933
  0
ARC
  5
2B1
100
AcDbEntity
  8
0
100
AcDbCircle
 62
7
  6
CONTINUOUS
 10
50.9148115188
 20
51.5452744507
 40
0.5052227283
100
AcDbArc
 50
58.9662020326
 51
60.8932417448
  0
ARC
  5
2B2
100
AcDbEntity
  8
0
100
AcDbCircle
 62
7
  6
CONTINUOUS
 10
50.8520589169
 20
54.7929875169
 40
0.5000004512
100
AcDbArc
 50
15.7208800756
 51
88.4999438615
  0
ARC
  5
2B3
100
AcDbEntity
  8
0
100
AcDbCircle
 62
7
  6
CONTINUOUS
 10
50.8520589169
 20
27.9688417719
 40
0.5000004512
100
AcDbArc
 50
271.5000561385
 51
344.2791199244
  0
ARC
  5
2B4
100
AcDbEntity
  8
0
100
AcDbCircle
 62
7
  6
CONTINUOUS
 10
50.8510693672
 20
54.7807928442
 40
0.494174024
100
AcDbArc
 50
83.1082916162
 51
88.5197448532
  0
ARC
  5
2B5
100
AcDbEntity
  8
0
100
AcDbCircle
 62
7
  6
CONTINUOUS
 10
50.8510994538
 20
27.9805950123
 40
0.4937319291
100
AcDbArc
 50
271.4809724006
 51
276.9377278424
  0
ARC
  5
2B6
100
AcDbEntity
  8
0
100
AcDbCircle
 62
7
  6
CONTINUOUS
 10
22.9546982025
 20
52.0059146444
 40
0.25
100
AcDbArc
 50
90.0
 51
180.0
  0
ARC
  5
2B7
100
AcDbEntity
  8
0
100
AcDbCircle
 62
7
  6
CONTINUOUS
 10
22.9546982025
 20
30.7559146444
 40
0.25
100
AcDbArc
 50
180.0
 51
270.0
  0
ARC
  5
2B8
100
AcDbEntity
  8
0
100
AcDbCircle
 62
7
  6
CONTINUOUS
 10
11.1073404214
 20
37.9317276353
 40
0.2491886749
100
AcDbArc
 50
90.2095023294
 51
138.2785263788
  0
ARC
  5
2B9
100
AcDbEntity
  8
0
100
AcDbCircle
 62
7
  6
CONTINUOUS
 10
14.4370034203
 20
2329.7364360206
 40
2299.9085739766
100
AcDbArc
 50
270.6135168659
 51
270.9075110093
  0
ARC
  5
2BA
100
AcDbEntity
  8
0
100
AcDbCircle
 62
7
  6
CONTINUOUS
 10
31.1230786039
 20
1865.0692774308
 40
1833.1155864518
100
AcDbArc
 50
270.2481924492
 51
270.617028881
  0
ARC
  5
2BB
100
AcDbEntity
  8
0
100
AcDbCircle
 62
7
  6
CONTINUOUS
 10
104.7134432971
 20
-2076.6617653405
 40
2108.4025714157
100
AcDbArc
 50
91.4635206982
 51
91.7843183461
  0
ARC
  5
2BC
100
AcDbEntity
  8
0
100
AcDbCircle
 62
7
  6
CONTINUOUS
 10
90.2696104855
 20
-1698.4659762346
 40
1732.1309346827
100
AcDbArc
 50
91.3035847133
 51
91.6940463946
  0
ARC
  5
2BD
100
AcDbEntity
  8
0
100
AcDbCircle
 62
7
  6
CONTINUOUS
 10
65.6333141252
 20
-1365.5479183729
 40
1406.2944335073
100
AcDbArc
 50
90.6017528046
 51
91.0639469632
  0
ARC
  5
2BE
100
AcDbEntity
  8
0
100
AcDbCircle
 62
7
  6
CONTINUOUS
 10
57.0155452528
 20
-1278.1395161608
 40
1321.726825702
100
AcDbArc
 50
90.2666725291
 51
90.7782217681
  0
ARC
  5
2BF
100
AcDbEntity
  8
0
100
AcDbCircle
 62
7
  6
CONTINUOUS
 10
65.6333303115
 20
1448.3107445531
 40
1406.2954305273
100
AcDbArc
 50
268.9360531316
 51
269.3982460228
  0
ARC
  5
2C0
100
AcDbEntity
  8
0
100
AcDbCircle
 62
7
  6
CONTINUOUS
 10
57.6851878885
 20
1435.6453224102
 40
1396.4733985914
100
AcDbArc
 50
269.235957841
 51
269.7201292088
  0
SPLINE
  5
2C1
100
AcDbEntity
  8
0
100
AcDbSpline
 62
7
  6
CONTINUOUS
 70
0
 71
3
 72
19
 73
15
 74
0
 42
0.0000001
 43
0.0000001
 44
0.0000000001
 40
0.0
 40
0.0
 40
0.0
 40
0.0
 40
0.0115131144
 40
0.0196045876
 40
0.0296152881
 40
0.0557829876
 40
0.0903535033
 40
0.1332083727
 40
0.1840402683
 40
0.3078106417
 40
0.4571986918
 40
0.6266538147
 40
0.8098522142
 40
1.0
 40
1.0
 40
1.0
 40
1.0
 10
38.4591507382
 20
55.5394308933
 30
0.0
 10
38.4592434168
 20
55.5370591886
 30
0.0
 10
38.4616483753
 20
55.5332867787
 30
0.0
 10
38.4662684509
 20
55.5293972729
 30
0.0
 10
38.4739948343
 20
55.5244391843
 30
0.0
 10
38.4873312553
 20
55.5184494385
 30
0.0
 10
38.5075340243
 20
55.511475133
 30
0.0
 10
38.5330247606
 20
55.504403331
 30
0.0
 10
38.5767054025
 20
55.4942747271
 30
0.0
 10
38.6424921715
 20
55.4825060196
 30
0.0
 10
38.7329333733
 20
55.4702689118
 30
0.0
 10
38.8359419448
 20
55.4599977968
 30
0.0
 10
38.9475943091
 20
55.4522866104
 30
0.0
 10
39.0245163752
 20
55.4492822105
 30
0.0
 10
39.0637037905
 20
55.4482736696
 30
0.0
  0
SPLINE
  5
2C2
100
AcDbEntity
  8
0
100
AcDbSpline
 62
7
  6
CONTINUOUS
 70
0
 71
3
 72
11
 73
7
 74
0
 42
0.0000001
 43
0.0000001
 44
0.0000000001
 40
0.0
 40
0.0
 40
0.0
 40
0.0
 40
0.1980954816
 40
0.4397997495
 40
0.7123294211
 40
1.0
 40
1.0
 40
1.0
 40
1.0
 10
51.2217598011
 20
33.2438085631
 30
0.0
 10
51.1980562202
 20
33.2433610947
 30
0.0
 10
51.145552837
 20
33.2387598592
 30
0.0
 10
51.0608502056
 20
33.2293765988
 30
0.0
 10
50.9652499693
 20
33.220679077
 30
0.0
 10
50.8982541586
 20
33.2174564453
 30
0.0
 10
50.8638352917
 20
33.2166620586
 30
0.0
  0
SPLINE
  5
2C3
100
AcDbEntity
  8
0
100
AcDbSpline
 62
7
  6
CONTINUOUS
 70
0
 71
3
 72
14
 73
10
 74
0
 42
0.0000001
 43
0.0000001
 44
0.0000000001
 40
0.0
 40
0.0
 40
0.0
 40
0.0
 40
0.0586186901
 40
0.1394383648
 40
0.2433863781
 40
0.3686218005
 40
0.5113401186
 40
0.667232403
 40
1.0
 40
1.0
 40
1.0
 40
1.0
 10
51.3074793003
 20
31.1374341119
 30
0.0
 10
51.2986301184
 20
31.1372807741
 30
0.0
 10
51.2777321163
 20
31.1336020529
 30
0.0
 10
51.2423623836
 20
31.1237899472
 30
0.0
 10
51.1975524013
 20
31.1102039584
 30
0.0
 10
51.1436063326
 20
31.0946265379
 30
0.0
 10
51.0814480776
 20
31.0792855894
 30
0.0
 10
50.9878099244
 20
31.0612563911
 30
0.0
 10
50.9140612804
 20
31.0543184797
 30
0.0
 10
50.8638352917
 20
31.0530215483
 30
0.0
  0
SPLINE
  5
2C4
100
AcDbEntity
  8
0
100
AcDbSpline
 62
7
  6
CONTINUOUS
 70
0
 71
3
 72
14
 73
10
 74
0
 42
0.0000001
 43
0.0000001
 44
0.0000000001
 40
0.0
 40
0.0
 40
0.0
 40
0.0
 40
0.0254272697
 40
0.0781442353
 40
0.1600522787
 40
0.2712230607
 40
0.4114279962
 40
0.5801735176
 40
1.0
 40
1.0
 40
1.0
 40
1.0
 10
51.3673937664
 20
28.0388059952
 30
0.0
 10
51.366660148
 20
28.0387926607
 30
0.0
 10
51.3649465893
 20
28.0368082388
 30
0.0
 10
51.3626432704
 20
28.0331041032
 30
0.0
 10
51.359412511
 20
28.0266322931
 30
0.0
 10
51.3555320768
 20
28.0178935896
 30
0.0
 10
51.3509138813
 20
28.0066598737
 30
0.0
 10
51.3432944051
 20
27.9870690044
 30
0.0
 10
51.337468609
 20
27.9711085462
 30
0.0
 10
51.3333869811
 20
27.9597021501
 30
0.0
  0
LINE
  5
2C5
100
AcDbEntity
  8
0
100
AcDbLine
 62
7
  6
CONTINUOUS
 10
8.3046982025
 20
49.5141796715
 11
8.0046982025
 21
49.1732185399
  0
SPLINE
  5
2C6
100
AcDbEntity
  8
0
100
AcDbSpline
 62
7
  6
CONTINUOUS
 70
0
 71
3
 72
20
 73
16
 74
0
 42
0.0000001
 43
0.0000001
 44
0.0000000001
 40
0.0
 40
0.0
 40
0.0
 40
0.0
 40
0.0154299788
 40
0.0308608367
 40
0.0462930293
 40
0.0617277507
 40
0.0926046297
 40
0.1234928792
 40
0.1853100891
 40
0.2471947929
 40
0.3712165273
 40
0.4956777442
 40
0.7462978316
 40
0.8727201067
 40
1.0
 40
1.0
 40
1.0
 40
1.0
 10
53.1577001228
 20
43.1486677604
 30
0.0
 10
53.1559144443
 20
43.1941815429
 30
0.0
 10
53.1519196303
 20
43.2851946165
 30
0.0
 10
53.1458416474
 20
43.421714737
 30
0.0
 10
53.139214554
 20
43.5582244232
 30
0.0
 10
53.1291187923
 20
43.7402112655
 30
0.0
 10
53.1147128153
 20
43.9676517515
 30
0.0
 10
53.0877115792
 20
44.3314677291
 30
0.0
 10
53.0465426328
 20
44.7859934039
 30
0.0
 10
52.9648479597
 20
45.5127311812
 30
0.0
 10
52.8330226063
 20
46.4197246395
 30
0.0
 10
52.5587586737
 20
47.8676470668
 30
0.0
 10
52.1901488146
 20
49.3036244672
 30
0.0
 10
51.7309270015
 20
50.7200780641
 30
0.0
 10
51.4704914916
 20
51.4225404809
 30
0.0
 10
51.3329024241
 20
51.7721679584
 30
0.0
  0
SPLINE
  5
2C7
100
AcDbEntity
  8
0
100
AcDbSpline
 62
7
  6
CONTINUOUS
 70
0
 71
3
 72
11
 73
7
 74
0
 42
0.0000001
 43
0.0000001
 44
0.0000000001
 40
0.0
 40
0.0
 40
0.0
 40
0.0
 40
0.2709079178
 40
0.5275635559
 40
0.7700091855
 40
1.0
 40
1.0
 40
1.0
 40
1.0
 10
51.1536982025
 20
51.9582412978
 30
0.0
 10
51.1746653417
 20
51.9470302892
 30
0.0
 10
51.2140178176
 20
51.9222603765
 30
0.0
 10
51.265263293
 20
51.8777627673
 30
0.0
 10
51.3058781764
 20
51.8278749143
 30
0.0
 10
51.325462365
 20
51.7909318699
 30
0.0
 10
51.3329024241
 20
51.7721679584
 30
0.0
  0
LINE
  5
2C8
100
AcDbEntity
  8
0
100
AcDbLine
 62
7
  6
CONTINUOUS
 10
50.8650679078
 20
52.0299803508
 11
40.05369701
 21
52.2309000917
  0
SPLINE
  5
2C9
100
AcDbEntity
  8
0
100
AcDbSpline
 62
7
  6
CONTINUOUS
 70
0
 71
3
 72
9
 73
5
 74
0
 42
0.0000001
 43
0.0000001
 44
0.0000000001
 40
0.0
 40
0.0
 40
0.0
 40
0.0
 40
0.2590090063
 40
1.0
 40
1.0
 40
1.0
 40
1.0
 10
50.8650679078
 20
52.0299803508
 30
0.0
 10
50.8908664289
 20
52.0295008541
 30
0.0
 10
50.9902182798
 20
52.0222679804
 30
0.0
 10
51.0886006552
 20
51.993217772
 30
0.0
 10
51.1536982025
 20
51.9584104884
 30
0.0
  0
SPLINE
  5
2CA
100
AcDbEntity
  8
0
100
AcDbSpline
 62
7
  6
CONTINUOUS
 70
0
 71
3
 72
12
 73
8
 74
0
 42
0.0000001
 43
0.0000001
 44
0.0000000001
 40
0.0
 40
0.0
 40
0.0
 40
0.0
 40
0.24722946
 40
0.4959274362
 40
0.7466604735
 40
0.8729760845
 40
1.0
 40
1.0
 40
1.0
 40
1.0
 10
53.0421928566
 20
43.0648924763
 30
0.0
 10
52.9820203759
 20
43.6551036396
 30
0.0
 10
52.8196344792
 20
44.8352017526
 30
0.0
 10
52.4524044388
 20
46.5902582194
 30
0.0
 10
52.0445229814
 20
48.0367127437
 30
0.0
 10
51.6581275961
 20
49.1831297289
 30
0.0
 10
51.4446395431
 20
49.7524921729
 30
0.0
 10
51.3330498575
 20
50.0361480678
 30
0.0
  0
SPLINE
  5
2CB
100
AcDbEntity
  8
0
100
AcDbSpline
 62
7
  6
CONTINUOUS
 70
0
 71
3
 72
9
 73
5
 74
0
 42
0.0000001
 43
0.0000001
 44
0.0000000001
 40
0.0
 40
0.0
 40
0.0
 40
0.0
 40
0.5008048075
 40
1.0
 40
1.0
 40
1.0
 40
1.0
 10
8.4420850998
 20
33.9320864325
 30
0.0
 10
8.6177624107
 20
33.8550353855
 30
0.0
 10
8.9714626994
 20
33.7077886502
 30
0.0
 10
9.3294036562
 20
33.5712029687
 30
0.0
 10
9.5092044921
 20
33.5061270869
 30
0.0
  0
SPLINE
  5
2CC
100
AcDbEntity
  8
0
100
AcDbSpline
 62
7
  6
CONTINUOUS
 70
0
 71
3
 72
10
 73
6
 74
0
 42
0.0000001
 43
0.0000001
 44
0.0000000001
 40
0.0
 40
0.0
 40
0.0
 40
0.0
 40
0.2499916647
 40
0.624991444
 40
1.0
 40
1.0
 40
1.0
 40
1.0
 10
39.0636982025
 20
55.4481728112
 30
0.0
 10
40.0469940531
 20
55.4201140227
 30
0.0
 10
42.5052887717
 20
55.3502002782
 30
0.0
 10
46.4386864305
 20
55.2409054489
 30
0.0
 10
49.3887849125
 20
55.1595691567
 30
0.0
 10
50.863859939
 20
55.1192111071
 30
0.0
  0
SPLINE
  5
2CD
100
AcDbEntity
  8
0
100
AcDbSpline
 62
7
  6
CONTINUOUS
 70
0
 71
3
 72
11
 73
7
 74
0
 42
0.0000001
 43
0.0000001
 44
0.0000000001
 40
0.0
 40
0.0
 40
0.0
 40
0.0
 40
0.3032756628
 40
0.5883328177
 40
0.8277424466
 40
1.0
 40
1.0
 40
1.0
 40
1.0
 10
50.863859939
 20
55.1192111071
 30
0.0
 10
50.9242992346
 20
55.1175574496
 30
0.0
 10
51.0419944544
 20
55.0946841964
 30
0.0
 10
51.187542008
 20
55.0112606177
 30
0.0
 10
51.2835171644
 20
54.9081281608
 30
0.0
 10
51.3217392487
 20
54.834433752
 30
0.0
 10
51.333386855
 20
54.8021275598
 30
0.0
  0
SPLINE
  5
2CE
100
AcDbEntity
  8
0
100
AcDbSpline
 62
7
  6
CONTINUOUS
 70
0
 71
3
 72
14
 73
10
 74
0
 42
0.0000001
 43
0.0000001
 44
0.0000000001
 40
0.0
 40
0.0
 40
0.0
 40
0.0
 40
0.4198287744
 40
0.5885753191
 40
0.7287800062
 40
0.8399494024
 40
0.9218557809
 40
0.9745719081
 40
1.0
 40
1.0
 40
1.0
 40
1.0
 10
51.333386855
 20
54.8021275598
 30
0.0
 10
51.3374685169
 20
54.790721061
 30
0.0
 10
51.3432946268
 20
54.7747605509
 30
0.0
 10
51.3509144704
 20
54.7551696512
 30
0.0
 10
51.3555326043
 20
54.7439358902
 30
0.0
 10
51.3594127108
 20
54.7351971011
 30
0.0
 10
51.3626431277
 20
54.7287252457
 30
0.0
 10
51.3649462335
 20
54.7250209682
 30
0.0
 10
51.3666598675
 20
54.7230366164
 30
0.0
 10
51.3673935123
 20
54.7230232837
 30
0.0
  0
SPLINE
  5
2CF
100
AcDbEntity
  8
0
100
AcDbSpline
 62
7
  6
CONTINUOUS
 70
0
 71
3
 72
12
 73
8
 74
0
 42
0.0000001
 43
0.0000001
 44
0.0000000001
 40
0.0
 40
0.0
 40
0.0
 40
0.0
 40
0.2788439906
 40
0.5431551296
 40
0.6670092304
 40
0.7844496616
 40
1.0
 40
1.0
 40
1.0
 40
1.0
 10
50.8650965934
 20
50.294442915
 30
0.0
 10
50.9173817099
 20
50.293470823
 30
0.0
 10
51.0193868468
 20
50.2803479061
 30
0.0
 10
51.1376646822
 20
50.2354132033
 30
0.0
 10
51.2176742741
 20
50.1838579169
 30
0.0
 10
51.2820233618
 20
50.1270489359
 30
0.0
 10
51.3181542085
 20
50.0737277021
 30
0.0
 10
51.3330498575
 20
50.0361480678
 30
0.0
  0
SPLINE
  5
2D0
100
AcDbEntity
  8
0
100
AcDbSpline
 62
7
  6
CONTINUOUS
 70
0
 71
3
 72
14
 73
10
 74
0
 42
0.0000001
 43
0.0000001
 44
0.0000000001
 40
0.0
 40
0.0
 40
0.0
 40
0.0
 40
0.1380542096
 40
0.2746894895
 40
0.5364789667
 40
0.6602225766
 40
0.7782649316
 40
0.891075653
 40
1.0
 40
1.0
 40
1.0
 40
1.0
 10
39.0637037905
 20
32.9076213351
 30
0.0
 10
39.0254988358
 20
32.9070601583
 30
0.0
 10
38.9493633598
 20
32.9005462358
 30
0.0
 10
38.8049621986
 20
32.8644277301
 30
0.0
 10
38.6735183273
 20
32.7970313
 30
0.0
 10
38.5704983484
 20
32.7021333931
 30
0.0
 10
38.5120364729
 20
32.6224308111
 30
0.0
 10
38.4733954251
 20
32.5358915934
 30
0.0
 10
38.4618217903
 20
32.4749159525
 30
0.0
 10
38.4598950395
 20
32.4448307434
 30
0.0
  0
SPLINE
  5
2D1
100
AcDbEntity
  8
0
100
AcDbSpline
 62
7
  6
CONTINUOUS
 70
0
 71
3
 72
14
 73
10
 74
0
 42
0.0000001
 43
0.0000001
 44
0.0000000001
 40
0.0
 40
0.0
 40
0.0
 40
0.0
 40
0.1486179711
 40
0.2945522876
 40
0.5665863127
 40
0.6892352035
 40
0.8014811986
 40
0.9041666614
 40
1.0
 40
1.0
 40
1.0
 40
1.0
 10
39.0637037905
 20
30.7182327239
 30
0.0
 10
39.0251124286
 20
30.7175040813
 30
0.0
 10
38.9485593585
 20
30.7115613587
 30
0.0
 10
38.8044911636
 20
30.6806453395
 30
0.0
 10
38.6730076967
 20
30.6247022741
 30
0.0
 10
38.568155479
 20
30.5440394732
 30
0.0
 10
38.5098713488
 20
30.4776351498
 30
0.0
 10
38.4716649788
 20
30.4056061511
 30
0.0
 10
38.4607785917
 20
30.3543052042
 30
0.0
 10
38.4594755212
 20
30.3294500322
 30
0.0
  0
SPLINE
  5
2D2
100
AcDbEntity
  8
0
100
AcDbSpline
 62
7
  6
CONTINUOUS
 70
0
 71
3
 72
19
 73
15
 74
0
 42
0.0000001
 43
0.0000001
 44
0.0000000001
 40
0.0
 40
0.0
 40
0.0
 40
0.0
 40
0.190215315
 40
0.373452744
 40
0.5429367451
 40
0.6923082536
 40
0.8160285935
 40
0.8668308674
 40
0.9096627631
 40
0.9442144602
 40
0.9703781224
 40
0.9803879336
 40
0.9884816517
 40
1.0
 40
1.0
 40
1.0
 40
1.0
 10
39.0637037905
 20
27.3135556193
 30
0.0
 10
39.0245034884
 20
27.3125467467
 30
0.0
 10
38.94756083
 20
27.30955472
 30
0.0
 10
38.8358849928
 20
27.3018199419
 30
0.0
 10
38.7328680339
 20
27.2915549322
 30
0.0
 10
38.6424375482
 20
27.2793137848
 30
0.0
 10
38.5766722657
 20
27.2675477513
 30
0.0
 10
38.5330137473
 20
27.2574227174
 30
0.0
 10
38.5075377555
 20
27.2503554455
 30
0.0
 10
38.4873445601
 20
27.2433841476
 30
0.0
 10
38.4740120384
 20
27.2373990842
 30
0.0
 10
38.4662848001
 20
27.2324437046
 30
0.0
 10
38.4616622643
 20
27.2285557449
 30
0.0
 10
38.4592492084
 20
27.2247879362
 30
0.0
 10
38.4591513201
 20
27.2224154233
 30
0.0
  0
SPLINE
  5
2D3
100
AcDbEntity
  8
0
100
AcDbSpline
 62
7
  6
CONTINUOUS
 70
0
 71
3
 72
11
 73
7
 74
0
 42
0.0000001
 43
0.0000001
 44
0.0000000001
 40
0.0
 40
0.0
 40
0.0
 40
0.0
 40
0.1722700726
 40
0.4116798864
 40
0.6967633691
 40
1.0
 40
1.0
 40
1.0
 40
1.0
 10
51.3333869811
 20
27.9597021501
 30
0.0
 10
51.3217378902
 20
27.9273918596
 30
0.0
 10
51.283520028
 20
27.8536884897
 30
0.0
 10
51.1875410672
 20
27.7505337457
 30
0.0
 10
51.0419655718
 20
27.6671414153
 30
0.0
 10
50.9242698893
 20
27.644271003
 30
0.0
 10
50.8638350941
 20
27.6426174684
 30
0.0
  0
SPLINE
  5
2D4
100
AcDbEntity
  8
0
100
AcDbSpline
 62
7
  6
CONTINUOUS
 70
0
 71
3
 72
10
 73
6
 74
0
 42
0.0000001
 43
0.0000001
 44
0.0000000001
 40
0.0
 40
0.0
 40
0.0
 40
0.0
 40
0.2500064459
 40
0.6250096825
 40
1.0
 40
1.0
 40
1.0
 40
1.0
 10
50.8638350941
 20
27.6426174684
 30
0.0
 10
49.8804508958
 20
27.6157120766
 30
0.0
 10
47.4220274957
 20
27.548019588
 30
0.0
 10
43.4886218484
 20
27.4393144798
 30
0.0
 10
40.5386499659
 20
27.3557448883
 30
0.0
 10
39.0636982025
 20
27.3136564777
 30
0.0
  0
LINE
  5
2D5
100
AcDbEntity
  8
0
100
AcDbLine
 62
7
  6
CONTINUOUS
 10
50.8650965934
 20
50.294442915
 11
40.0536973204
 21
50.4954259879
  0
SPLINE
  5
2D6
100
AcDbEntity
  8
0
100
AcDbSpline
 62
7
  6
CONTINUOUS
 70
0
 71
3
 72
9
 73
5
 74
0
 42
0.0000001
 43
0.0000001
 44
0.0000000001
 40
0.0
 40
0.0
 40
0.0
 40
0.0
 40
0.4743575061
 40
1.0
 40
1.0
 40
1.0
 40
1.0
 10
51.3330473248
 20
51.8039189481
 30
0.0
 10
51.3191683762
 20
51.8389335897
 30
0.0
 10
51.2745176562
 20
51.9069994918
 30
0.0
 10
51.2110369586
 20
51.9566608063
 30
0.0
 10
51.1752758711
 20
51.9781812841
 30
0.0
  0
SPLINE
  5
2D7
100
AcDbEntity
  8
0
100
AcDbSpline
 62
7
  6
CONTINUOUS
 70
0
 71
3
 72
9
 73
5
 74
0
 42
0.0000001
 43
0.0000001
 44
0.0000000001
 40
0.0
 40
0.0
 40
0.0
 40
0.0
 40
0.2394046085
 40
1.0
 40
1.0
 40
1.0
 40
1.0
 10
51.1605712756
 20
51.986695052
 30
0.0
 10
51.1397267873
 20
51.998302527
 30
0.0
 10
51.0493418885
 20
52.0407438263
 30
0.0
 10
50.9486731192
 20
52.0597615511
 30
0.0
 10
50.8729077715
 20
52.0620207791
 30
0.0
  0
SPLINE
  5
2D8
100
AcDbEntity
  8
0
100
AcDbSpline
 62
7
  6
CONTINUOUS
 70
0
 71
3
 72
18
 73
14
 74
0
 42
0.0000001
 43
0.0000001
 44
0.0000000001
 40
0.0
 40
0.0
 40
0.0
 40
0.0
 40
0.0628337249
 40
0.1256231131
 40
0.1883559553
 40
0.2510109022
 40
0.3758661073
 40
0.5005054087
 40
0.5629166687
 40
0.6253328003
 40
0.7500049737
 40
0.8748825294
 40
1.0
 40
1.0
 40
1.0
 40
1.0
 10
39.0637037905
 20
43.4652273535
 30
0.0
 10
39.0384322367
 20
43.4653527901
 30
0.0
 10
38.9878249653
 20
43.4627574611
 30
0.0
 10
38.9130954208
 20
43.4491250375
 30
0.0
 10
38.8407737783
 20
43.4261268734
 30
0.0
 10
38.749123541
 20
43.3840122544
 30
0.0
 10
38.6457520331
 20
43.3102729931
 30
0.0
 10
38.5642154681
 20
43.2130604499
 30
0.0
 10
38.5153372075
 20
43.1251617672
 30
0.0
 10
38.4779418789
 20
43.0317915788
 30
0.0
 10
38.4539310559
 20
42.907124154
 30
0.0
 10
38.4635707229
 20
42.7552277413
 30
0.0
 10
38.4952153825
 20
42.6584545301
 30
0.0
 10
38.5167193087
 20
42.6129579596
 30
0.0
  0
SPLINE
  5
2D9
100
AcDbEntity
  8
0
100
AcDbSpline
 62
7
  6
CONTINUOUS
 70
0
 71
3
 72
9
 73
5
 74
0
 42
0.0000001
 43
0.0000001
 44
0.0000000001
 40
0.0
 40
0.0
 40
0.0
 40
0.0
 40
0.5113669292
 40
1.0
 40
1.0
 40
1.0
 40
1.0
 10
51.3687543382
 20
42.7837068345
 30
0.0
 10
51.3687543382
 20
42.8593652291
 30
0.0
 10
51.3628665144
 20
43.0073667265
 30
0.0
 10
51.3453599357
 20
43.1544877392
 30
0.0
 10
51.3333869018
 20
43.225784242
 30
0.0
  0
SPLINE
  5
2DA
100
AcDbEntity
  8
0
100
AcDbSpline
 62
7
  6
CONTINUOUS
 70
0
 71
3
 72
15
 73
11
 74
0
 42
0.0000001
 43
0.0000001
 44
0.0000000001
 40
0.0
 40
0.0
 40
0.0
 40
0.0
 40
0.1248485279
 40
0.243889164
 40
0.3589948558
 40
0.4745793055
 40
0.5954086257
 40
0.723981396
 40
0.8599050555
 40
1.0
 40
1.0
 40
1.0
 40
1.0
 10
51.3333869018
 20
43.225784242
 30
0.0
 10
51.3288758987
 20
43.2524433757
 30
0.0
 10
51.3175248632
 20
43.3041827288
 30
0.0
 10
51.2893311946
 20
43.3770874717
 30
0.0
 10
51.2473759809
 20
43.4410014582
 30
0.0
 10
51.190488048
 20
43.4927841032
 30
0.0
 10
51.1206307769
 20
43.5310803376
 30
0.0
 10
51.0407263858
 20
43.5564755725
 30
0.0
 10
50.9540241445
 20
43.5706290726
 30
0.0
 10
50.8941747601
 20
43.5733752549
 30
0.0
 10
50.8638352147
 20
43.5732150809
 30
0.0
  0
LINE
  5
2DB
100
AcDbEntity
  8
0
100
AcDbLine
 62
7
  6
CONTINUOUS
 10
24.85852543
 20
48.4358876025
 11
24.8690477265
 21
48.4359880525
  0
SPLINE
  5
2DC
100
AcDbEntity
  8
0
100
AcDbSpline
 62
7
  6
CONTINUOUS
 70
0
 71
3
 72
15
 73
11
 74
0
 42
0.0000001
 43
0.0000001
 44
0.0000000001
 40
0.0
 40
0.0
 40
0.0
 40
0.0
 40
0.1507116277
 40
0.2958316944
 40
0.4305533343
 40
0.5529463862
 40
0.6648938863
 40
0.7723707108
 40
0.8825973179
 40
1.0
 40
1.0
 40
1.0
 40
1.0
 10
50.8638600595
 20
42.0928735706
 30
0.0
 10
50.8941729354
 20
42.0925445973
 30
0.0
 10
50.9537211384
 20
42.0938457807
 30
0.0
 10
51.039998163
 20
42.1025335212
 30
0.0
 10
51.1193817934
 20
42.1193082438
 30
0.0
 10
51.1890163825
 20
42.146328453
 30
0.0
 10
51.2464547113
 20
42.1855305291
 30
0.0
 10
51.2892493192
 20
42.2373038291
 30
0.0
 10
51.3177385893
 20
42.2990052872
 30
0.0
 10
51.328930469
 20
42.3435956206
 30
0.0
 10
51.333386776
 20
42.3667861217
 30
0.0
  0
SPLINE
  5
2DD
100
AcDbEntity
  8
0
100
AcDbSpline
 62
7
  6
CONTINUOUS
 70
0
 71
3
 72
9
 73
5
 74
0
 42
0.0000001
 43
0.0000001
 44
0.0000000001
 40
0.0
 40
0.0
 40
0.0
 40
0.0
 40
0.4734828897
 40
1.0
 40
1.0
 40
1.0
 40
1.0
 10
51.333386776
 20
42.3667861217
 30
0.0
 10
51.3457708941
 20
42.4317233903
 30
0.0
 10
51.3633625848
 20
42.5705208864
 30
0.0
 10
51.3687543382
 20
42.7101946019
 30
0.0
 10
51.3687543382
 20
42.7837068345
 30
0.0
  0
SPLINE
  5
2DE
100
AcDbEntity
  8
0
100
AcDbSpline
 62
7
  6
CONTINUOUS
 70
0
 71
3
 72
9
 73
5
 74
0
 42
0.0000001
 43
0.0000001
 44
0.0000000001
 40
0.0
 40
0.0
 40
0.0
 40
0.0
 40
0.5265412296
 40
1.0
 40
1.0
 40
1.0
 40
1.0
 10
51.3687543381
 20
39.9781224544
 30
0.0
 10
51.3687543381
 20
40.0516723033
 30
0.0
 10
51.3633526158
 20
40.1914106142
 30
0.0
 10
51.3457531009
 20
40.3302732741
 30
0.0
 10
51.3333558856
 20
40.3952359672
 30
0.0
  0
SPLINE
  5
2DF
100
AcDbEntity
  8
0
100
AcDbSpline
 62
7
  6
CONTINUOUS
 70
0
 71
3
 72
15
 73
11
 74
0
 42
0.0000001
 43
0.0000001
 44
0.0000000001
 40
0.0
 40
0.0
 40
0.0
 40
0.0
 40
0.1173892864
 40
0.2276158684
 40
0.3350818098
 40
0.4470385271
 40
0.5694681986
 40
0.7042052458
 40
0.8493045137
 40
1.0
 40
1.0
 40
1.0
 40
1.0
 10
51.3333558856
 20
40.3952359672
 30
0.0
 10
51.328898719
 20
40.4184153614
 30
0.0
 10
51.3176839155
 20
40.4629817137
 30
0.0
 10
51.2891823512
 20
40.5246452776
 30
0.0
 10
51.2463842546
 20
40.5763858212
 30
0.0
 10
51.1889425392
 20
40.6155541976
 30
0.0
 10
51.1193102204
 20
40.6425413453
 30
0.0
 10
51.039946803
 20
40.6593049995
 30
0.0
 10
50.9537026513
 20
40.6679808121
 30
0.0
 10
50.8941824182
 20
40.6692847723
 30
0.0
 10
50.8638831229
 20
40.6689559468
 30
0.0
  0
SPLINE
  5
2E0
100
AcDbEntity
  8
0
100
AcDbSpline
 62
7
  6
CONTINUOUS
 70
0
 71
3
 72
15
 73
11
 74
0
 42
0.0000001
 43
0.0000001
 44
0.0000000001
 40
0.0
 40
0.0
 40
0.0
 40
0.0
 40
0.1401107272
 40
0.2760576768
 40
0.404629275
 40
0.525446997
 40
0.6410371002
 40
0.7561495006
 40
0.8751745373
 40
1.0
 40
1.0
 40
1.0
 40
1.0
 10
50.8639079328
 20
39.1886138999
 30
0.0
 10
50.8942366942
 20
39.1884537842
 30
0.0
 10
50.9540667334
 20
39.1912021878
 30
0.0
 10
51.0407344916
 20
39.2053605939
 30
0.0
 10
51.1206039495
 20
39.2307440058
 30
0.0
 10
51.1904244318
 20
39.2690253864
 30
0.0
 10
51.2472949944
 20
39.3207712885
 30
0.0
 10
51.2892584184
 20
39.3846339937
 30
0.0
 10
51.3174889705
 20
39.4574782145
 30
0.0
 10
51.3288452361
 20
39.509183928
 30
0.0
 10
51.3333558856
 20
39.5358252227
 30
0.0
  0
SPLINE
  5
2E1
100
AcDbEntity
  8
0
100
AcDbSpline
 62
7
  6
CONTINUOUS
 70
0
 71
3
 72
9
 73
5
 74
0
 42
0.0000001
 43
0.0000001
 44
0.0000000001
 40
0.0
 40
0.0
 40
0.0
 40
0.0
 40
0.4886181941
 40
1.0
 40
1.0
 40
1.0
 40
1.0
 10
51.3333558856
 20
39.5358252227
 30
0.0
 10
51.3453413532
 20
39.6071540578
 30
0.0
 10
51.3628567322
 20
39.7543488878
 30
0.0
 10
51.3687543381
 20
39.9024240282
 30
0.0
 10
51.3687543381
 20
39.9781224544
 30
0.0
  0
SPLINE
  5
2E2
100
AcDbEntity
  8
0
100
AcDbSpline
 62
7
  6
CONTINUOUS
 70
0
 71
3
 72
11
 73
7
 74
0
 42
0.0000001
 43
0.0000001
 44
0.0000000001
 40
0.0
 40
0.0
 40
0.0
 40
0.0
 40
0.3161160722
 40
0.5901686491
 40
0.8184925872
 40
1.0
 40
1.0
 40
1.0
 40
1.0
 10
51.3687543376
 20
32.9353133028
 30
0.0
 10
51.3687543376
 20
32.9631050601
 30
0.0
 10
51.367519405
 20
33.0150039336
 30
0.0
 10
51.3611880256
 20
33.0867613572
 30
0.0
 10
51.3506834871
 20
33.1460281558
 30
0.0
 10
51.3399051006
 20
33.1806384069
 30
0.0
 10
51.3333868996
 20
33.1952039012
 30
0.0
  0
SPLINE
  5
2E3
100
AcDbEntity
  8
0
100
AcDbSpline
 62
7
  6
CONTINUOUS
 70
0
 71
3
 72
11
 73
7
 74
0
 42
0.0000001
 43
0.0000001
 44
0.0000000001
 40
0.0
 40
0.0
 40
0.0
 40
0.0
 40
0.2111600288
 40
0.4229069104
 40
0.6764846886
 40
1.0
 40
1.0
 40
1.0
 40
1.0
 10
51.3333868996
 20
33.1952039012
 30
0.0
 10
51.3296302442
 20
33.2035346825
 30
0.0
 10
51.3196742581
 20
33.2194707838
 30
0.0
 10
51.2945898159
 20
33.2361117892
 30
0.0
 10
51.2607758484
 20
33.2434719593
 30
0.0
 10
51.2357584584
 20
33.2440728251
 30
0.0
 10
51.2217598011
 20
33.2438085631
 30
0.0
  0
SPLINE
  5
2E4
100
AcDbEntity
  8
0
100
AcDbSpline
 62
7
  6
CONTINUOUS
 70
0
 71
3
 72
14
 73
10
 74
0
 42
0.0000001
 43
0.0000001
 44
0.0000000001
 40
0.0
 40
0.0
 40
0.0
 40
0.0
 40
0.2577512489
 40
0.3856619266
 40
0.5126244107
 40
0.6382396912
 40
0.7618964458
 40
0.8827535858
 40
1.0
 40
1.0
 40
1.0
 40
1.0
 10
24.6698581191
 20
37.8806650222
 30
0.0
 10
24.4962847701
 20
37.7584831834
 30
0.0
 10
24.2401104265
 20
37.5703688415
 30
0.0
 10
23.9134357045
 20
37.3028102308
 30
0.0
 10
23.6805454313
 20
37.0929379005
 30
0.0
 10
23.4643961071
 20
36.870529736
 30
0.0
 10
23.273385356
 20
36.6320863718
 30
0.0
 10
23.121437471
 20
36.3743063808
 30
0.0
 10
23.0600830914
 20
36.1851846964
 30
0.0
 10
23.0446982029
 20
36.0898630808
 30
0.0
  0
SPLINE
  5
2E5
100
AcDbEntity
  8
0
100
AcDbSpline
 62
7
  6
CONTINUOUS
 70
0
 71
3
 72
13
 73
9
 74
0
 42
0.0000001
 43
0.0000001
 44
0.0000000001
 40
0.0
 40
0.0
 40
0.0
 40
0.0
 40
0.2502849332
 40
0.374386594
 40
0.4981309798
 40
0.6224885311
 40
0.748088049
 40
1.0
 40
1.0
 40
1.0
 40
1.0
 10
50.863860035
 20
32.0598841734
 30
0.0
 10
50.9243300698
 20
32.0605175379
 30
0.0
 10
51.0160257113
 20
32.0777831036
 30
0.0
 10
51.1229155666
 20
32.1346105643
 30
0.0
 10
51.1920698126
 20
32.1932352419
 30
0.0
 10
51.2476453304
 20
32.2651808124
 30
0.0
 10
51.3024994754
 20
32.373974614
 30
0.0
 10
51.3240854544
 20
32.4638078722
 30
0.0
 10
51.333386774
 20
32.5239594511
 30
0.0
  0
SPLINE
  5
2E6
100
AcDbEntity
  8
0
100
AcDbSpline
 62
7
  6
CONTINUOUS
 70
0
 71
3
 72
9
 73
5
 74
0
 42
0.0000001
 43
0.0000001
 44
0.0000000001
 40
0.0
 40
0.0
 40
0.0
 40
0.0
 40
0.5296746902
 40
1.0
 40
1.0
 40
1.0
 40
1.0
 10
51.333386774
 20
32.5239594511
 30
0.0
 10
51.3444518746
 20
32.5960607623
 30
0.0
 10
51.3613604327
 20
32.7328243567
 30
0.0
 10
51.3687543376
 20
32.8705413175
 30
0.0
 10
51.3687543376
 20
32.9353133028
 30
0.0
  0
SPLINE
  5
2E7
100
AcDbEntity
  8
0
100
AcDbSpline
 62
7
  6
CONTINUOUS
 70
0
 71
3
 72
14
 73
10
 74
0
 42
0.0000001
 43
0.0000001
 44
0.0000000001
 40
0.0
 40
0.0
 40
0.0
 40
0.0
 40
0.1202517063
 40
0.2419966943
 40
0.3655938289
 40
0.49074865
 40
0.617054932
 40
0.7441785387
 40
1.0
 40
1.0
 40
1.0
 40
1.0
 10
23.0446982029
 20
35.7982680839
 30
0.0
 10
23.0598678825
 20
35.7059460128
 30
0.0
 10
23.1202339713
 20
35.5244531057
 30
0.0
 10
23.2727103345
 20
35.2823965077
 30
0.0
 10
23.4640740834
 20
35.0656809928
 30
0.0
 10
23.6803762315
 20
34.8692310907
 30
0.0
 10
23.9133169135
 20
34.6886029864
 30
0.0
 10
24.2398488273
 20
34.4639349065
 30
0.0
 10
24.4961371474
 20
34.311323239
 30
0.0
 10
24.6698583351
 20
34.2141784459
 30
0.0
  0
SPLINE
  5
2E8
100
AcDbEntity
  8
0
100
AcDbSpline
 62
7
  6
CONTINUOUS
 70
0
 71
3
 72
9
 73
5
 74
0
 42
0.0000001
 43
0.0000001
 44
0.0000000001
 40
0.0
 40
0.0
 40
0.0
 40
0.0
 40
0.50206746
 40
1.0
 40
1.0
 40
1.0
 40
1.0
 10
24.85852543
 20
37.939920022
 30
0.0
 10
24.8250723169
 20
37.939920022
 30
0.0
 10
24.7580469862
 20
37.9289230397
 30
0.0
 10
24.6975853927
 20
37.8988845575
 30
0.0
 10
24.6698581191
 20
37.8806650222
 30
0.0
  0
SPLINE
  5
2E9
100
AcDbEntity
  8
0
100
AcDbSpline
 62
7
  6
CONTINUOUS
 70
0
 71
3
 72
9
 73
5
 74
0
 42
0.0000001
 43
0.0000001
 44
0.0000000001
 40
0.0
 40
0.0
 40
0.0
 40
0.0
 40
0.2745345006
 40
1.0
 40
1.0
 40
1.0
 40
1.0
 10
51.3687543376
 20
30.9514655624
 30
0.0
 10
51.3687543376
 20
30.959155676
 30
0.0
 10
51.3684592404
 20
30.9871626498
 30
0.0
 10
51.3669814998
 20
31.0151842036
 30
0.0
 10
51.3647559349
 20
31.0353833172
 30
0.0
  0
SPLINE
  5
2EA
100
AcDbEntity
  8
0
100
AcDbSpline
 62
7
  6
CONTINUOUS
 70
0
 71
3
 72
11
 73
7
 74
0
 42
0.0000001
 43
0.0000001
 44
0.0000000001
 40
0.0
 40
0.0
 40
0.0
 40
0.0
 40
0.3337119254
 40
0.6091872126
 40
0.8289009797
 40
1.0
 40
1.0
 40
1.0
 40
1.0
 10
51.3647559349
 20
31.0353833172
 30
0.0
 10
51.3635249312
 20
31.0465558436
 30
0.0
 10
51.3606214305
 20
31.0668914446
 30
0.0
 10
51.3539551915
 20
31.094080155
 30
0.0
 10
51.3454927795
 20
31.1149515887
 30
0.0
 10
51.337671626
 20
31.1258725455
 30
0.0
 10
51.3333868997
 20
31.129726519
 30
0.0
  0
SPLINE
  5
2EB
100
AcDbEntity
  8
0
100
AcDbSpline
 62
7
  6
CONTINUOUS
 70
0
 71
3
 72
9
 73
5
 74
0
 42
0.0000001
 43
0.0000001
 44
0.0000000001
 40
0.0
 40
0.0
 40
0.0
 40
0.0
 40
0.4899365108
 40
1.0
 40
1.0
 40
1.0
 40
1.0
 10
24.6698583351
 20
34.2141784459
 30
0.0
 10
24.6982098015
 20
34.1993788868
 30
0.0
 10
24.7596858851
 20
34.1755844512
 30
0.0
 10
24.8252298402
 20
34.1672703766
 30
0.0
 10
24.85852543
 20
34.1672703766
 30
0.0
  0
SPLINE
  5
2EC
100
AcDbEntity
  8
0
100
AcDbSpline
 62
7
  6
CONTINUOUS
 70
0
 71
3
 72
14
 73
10
 74
0
 42
0.0000001
 43
0.0000001
 44
0.0000000001
 40
0.0
 40
0.0
 40
0.0
 40
0.0
 40
0.1259438362
 40
0.2518339173
 40
0.3774407704
 40
0.5032841788
 40
0.629384743
 40
0.7552194331
 40
1.0
 40
1.0
 40
1.0
 40
1.0
 10
50.863860035
 20
30.1162814729
 30
0.0
 10
50.8943549944
 20
30.1167576156
 30
0.0
 10
50.9554103954
 20
30.1235952632
 30
0.0
 10
51.0430448151
 20
30.1515931372
 30
0.0
 10
51.1231328674
 20
30.1969955614
 30
0.0
 10
51.191958285
 20
30.258162307
 30
0.0
 10
51.2473380194
 20
30.331686242
 30
0.0
 10
51.3016192609
 20
30.4395910463
 30
0.0
 10
51.3238583638
 20
30.5276578928
 30
0.0
 10
51.333386774
 20
30.5861633447
 30
0.0
  0
SPLINE
  5
2ED
100
AcDbEntity
  8
0
100
AcDbSpline
 62
7
  6
CONTINUOUS
 70
0
 71
3
 72
10
 73
6
 74
0
 42
0.0000001
 43
0.0000001
 44
0.0000000001
 40
0.0
 40
0.0
 40
0.0
 40
0.0
 40
0.5488298355
 40
0.7889948711
 40
1.0
 40
1.0
 40
1.0
 40
1.0
 10
51.333386774
 20
30.5861633447
 30
0.0
 10
51.344109427
 20
30.6525011865
 30
0.0
 10
51.3571994484
 20
30.7483069783
 30
0.0
 10
51.3669120444
 20
30.8703856435
 30
0.0
 10
51.3687543376
 20
30.925630049
 30
0.0
 10
51.3687543376
 20
30.9514655624
 30
0.0
  0
LINE
  5
2EE
100
AcDbEntity
  8
0
100
AcDbLine
 62
7
  6
CONTINUOUS
 10
24.85852543
 20
34.1672703766
 11
24.8690477265
 21
34.1673691535
  0
LINE
  5
2EF
100
AcDbEntity
  8
0
100
AcDbLine
 62
7
  6
CONTINUOUS
 10
24.8690477265
 20
37.9397948086
 11
24.85852543
 21
37.939920022
  0
SPLINE
  5
2F0
100
AcDbEntity
  8
0
100
AcDbSpline
 62
7
  6
CONTINUOUS
 70
0
 71
3
 72
11
 73
7
 74
0
 42
0.0000001
 43
0.0000001
 44
0.0000000001
 40
0.0
 40
0.0
 40
0.0
 40
0.0
 40
0.2499868477
 40
0.4999842774
 40
0.749989272
 40
1.0
 40
1.0
 40
1.0
 40
1.0
 10
39.0636982025
 20
27.1876433156
 30
0.0
 10
40.0470020872
 20
27.2122417258
 30
0.0
 10
42.0136401494
 20
27.261891507
 30
0.0
 10
44.9636470905
 20
27.3363939399
 30
0.0
 10
47.9137376496
 20
27.4113076821
 30
0.0
 10
49.880478268
 20
27.4617901166
 30
0.0
 10
50.863859939
 20
27.487028008
 30
0.0
  0
SPLINE
  5
2F1
100
AcDbEntity
  8
0
100
AcDbSpline
 62
7
  6
CONTINUOUS
 70
0
 71
3
 72
12
 73
8
 74
0
 42
0.0000001
 43
0.0000001
 44
0.0000000001
 40
0.0
 40
0.0
 40
0.0
 40
0.0
 40
0.1423634469
 40
0.2835473494
 40
0.5554226035
 40
0.7997498566
 40
1.0
 40
1.0
 40
1.0
 40
1.0
 10
50.9107375896
 20
27.4904781788
 30
0.0
 10
50.9391005751
 20
27.4939255622
 30
0.0
 10
50.9951452019
 20
27.5056676941
 30
0.0
 10
51.0990128847
 20
27.5473597152
 30
0.0
 10
51.2073170127
 20
27.6273748446
 30
0.0
 10
51.2920490026
 20
27.7460254588
 30
0.0
 10
51.323504091
 20
27.8304621307
 30
0.0
 10
51.333386855
 20
27.8694174045
 30
0.0
  0
SPLINE
  5
2F2
100
AcDbEntity
  8
0
100
AcDbSpline
 62
7
  6
CONTINUOUS
 70
0
 71
3
 72
9
 73
5
 74
0
 42
0.0000001
 43
0.0000001
 44
0.0000000001
 40
0.0
 40
0.0
 40
0.0
 40
0.0
 40
0.590428975
 40
1.0
 40
1.0
 40
1.0
 40
1.0
 10
51.333386855
 20
27.8694174045
 30
0.0
 10
51.3400757874
 20
27.8959829444
 30
0.0
 10
51.3511101169
 20
27.9410467428
 30
0.0
 10
51.3612536527
 20
27.9863401236
 30
0.0
 10
51.3647574657
 20
28.0050175767
 30
0.0
  0
SPLINE
  5
2F3
100
AcDbEntity
  8
0
100
AcDbSpline
 62
7
  6
CONTINUOUS
 70
0
 71
3
 72
9
 73
5
 74
0
 42
0.0000001
 43
0.0000001
 44
0.0000000001
 40
0.0
 40
0.0
 40
0.0
 40
0.0
 40
0.6165360576
 40
1.0
 40
1.0
 40
1.0
 40
1.0
 10
51.3647574657
 20
28.0050175767
 30
0.0
 10
51.365875796
 20
28.0109789573
 30
0.0
 10
51.3675288929
 20
28.0206637175
 30
0.0
 10
51.3687543382
 20
28.0304660455
 30
0.0
 10
51.3687543382
 20
28.0342384946
 30
0.0
  0
SPLINE
  5
2F4
100
AcDbEntity
  8
0
100
AcDbSpline
 62
7
  6
CONTINUOUS
 70
0
 71
3
 72
20
 73
16
 74
0
 42
0.0000001
 43
0.0000001
 44
0.0000000001
 40
0.0
 40
0.0
 40
0.0
 40
0.0
 40
0.1272700773
 40
0.25368471
 40
0.5042976897
 40
0.6287599223
 40
0.7527859461
 40
0.8146740799
 40
0.8764956121
 40
0.9073863464
 40
0.9382659859
 40
0.9537020822
 40
0.969135757
 40
0.9845686371
 40
1.0
 40
1.0
 40
1.0
 40
1.0
 10
51.3440022454
 20
51.7760291422
 30
0.0
 10
51.4811978194
 20
51.4262079898
 30
0.0
 10
51.7407968082
 20
50.7233511236
 30
0.0
 10
52.1983067861
 20
49.3061476342
 30
0.0
 10
52.5651113884
 20
47.8694806917
 30
0.0
 10
52.8374926249
 20
46.4209472256
 30
0.0
 10
52.9681163752
 20
45.5135923487
 30
0.0
 10
53.04883091
 20
44.786581349
 30
0.0
 10
53.0893887643
 20
44.3318905303
 30
0.0
 10
53.115881093
 20
43.9679452323
 30
0.0
 10
53.1299945953
 20
43.7404271842
 30
0.0
 10
53.139830776
 20
43.5583775379
 30
0.0
 10
53.1461867243
 20
43.4218168068
 30
0.0
 10
53.1523430915
 20
43.2852625639
 30
0.0
 10
53.1562709594
 20
43.1942193736
 30
0.0
 10
53.1578563426
 20
43.1486861565
 30
0.0
  0
SPLINE
  5
2F5
100
AcDbEntity
  8
0
100
AcDbSpline
 62
7
  6
CONTINUOUS
 70
0
 71
3
 72
11
 73
7
 74
0
 42
0.0000001
 43
0.0000001
 44
0.0000000001
 40
0.0
 40
0.0
 40
0.0
 40
0.0
 40
0.2159410861
 40
0.4565693876
 40
0.7207917341
 40
1.0
 40
1.0
 40
1.0
 40
1.0
 10
51.3330586677
 20
50.0746997947
 30
0.0
 10
51.3183896877
 20
50.1116951248
 30
0.0
 10
51.2700569647
 20
50.1834700635
 30
0.0
 10
51.1619642302
 20
50.2638073443
 30
0.0
 10
51.026054951
 20
50.3169833587
 30
0.0
 10
50.9258932898
 20
50.3310386504
 30
0.0
 10
50.8744622924
 20
50.3326864809
 30
0.0
  0
LINE
  5
2F6
100
AcDbEntity
  8
0
100
AcDbLine
 62
7
  6
CONTINUOUS
 10
40.0536973204
 20
52.2631929408
 11
50.8650970758
 21
52.062209859
  0
SPLINE
  5
2F7
100
AcDbEntity
  8
0
100
AcDbSpline
 62
7
  6
CONTINUOUS
 70
0
 71
3
 72
12
 73
8
 74
0
 42
0.0000001
 43
0.0000001
 44
0.0000000001
 40
0.0
 40
0.0
 40
0.0
 40
0.0
 40
0.1270164595
 40
0.2533261794
 40
0.5040539647
 40
0.7527560357
 40
1.0
 40
1.0
 40
1.0
 40
1.0
 10
51.3464068095
 20
50.0407167772
 30
0.0
 10
51.4576852797
 20
49.7568768921
 30
0.0
 10
51.6705191879
 20
49.1871427738
 30
0.0
 10
52.0555744299
 20
48.0400064147
 30
0.0
 10
52.4617137312
 20
46.5926913635
 30
0.0
 10
52.8267220415
 20
44.8366839274
 30
0.0
 10
52.9875457896
 20
43.6560281846
 30
0.0
 10
53.0469215225
 20
43.0655538708
 30
0.0
  0
LINE
  5
2F8
100
AcDbEntity
  8
0
100
AcDbLine
 62
7
  6
CONTINUOUS
 10
40.0536973204
 20
50.5338438496
 11
50.8650970862
 21
50.332923572
  0
SPLINE
  5
2F9
100
AcDbEntity
  8
0
100
AcDbSpline
 62
7
  6
CONTINUOUS
 70
0
 71
3
 72
9
 73
5
 74
0
 42
0.0000001
 43
0.0000001
 44
0.0000000001
 40
0.0
 40
0.0
 40
0.0
 40
0.0
 40
0.4999957127
 40
1.0
 40
1.0
 40
1.0
 40
1.0
 10
8.2046982025
 20
47.1955513485
 30
0.0
 10
8.4044521057
 20
47.5081694212
 30
0.0
 10
8.8174066506
 20
48.1248688043
 30
0.0
 10
9.2502983941
 20
48.7276049104
 30
0.0
 10
9.4705078122
 20
49.0261751936
 30
0.0
  0
SPLINE
  5
2FA
100
AcDbEntity
  8
0
100
AcDbSpline
 62
7
  6
CONTINUOUS
 70
0
 71
3
 72
18
 73
14
 74
0
 42
0.0000001
 43
0.0000001
 44
0.0000000001
 40
0.0
 40
0.0
 40
0.0
 40
0.0
 40
0.0263619413
 40
0.0511346304
 40
0.0845017535
 40
0.1264057567
 40
0.176568123
 40
0.2345714933
 40
0.2998892965
 40
0.4499648084
 40
0.6211233018
 40
0.8068251023
 40
1.0
 40
1.0
 40
1.0
 40
1.0
 10
38.4591513201
 20
27.2224154233
 30
0.0
 10
38.45892975
 20
27.2170452475
 30
0.0
 10
38.4706262925
 20
27.20989892
 30
0.0
 10
38.4859434151
 20
27.205130871
 30
0.0
 10
38.506295795
 20
27.2005554261
 30
0.0
 10
38.5314358545
 20
27.1967829682
 30
0.0
 10
38.5619091386
 20
27.1934139019
 30
0.0
 10
38.5971544736
 20
27.1906210023
 30
0.0
 10
38.6528160018
 20
27.187450878
 30
0.0
 10
38.7315989976
 20
27.185067116
 30
0.0
 10
38.8349565479
 20
27.1841756074
 30
0.0
 10
38.947099894
 20
27.1849877526
 30
0.0
 10
39.0243322809
 20
27.1865764189
 30
0.0
 10
39.0637037905
 20
27.1876081858
 30
0.0
  0
SPLINE
  5
2FB
100
AcDbEntity
  8
0
100
AcDbSpline
 62
7
  6
CONTINUOUS
 70
0
 71
3
 72
19
 73
15
 74
0
 42
0.0000001
 43
0.0000001
 44
0.0000000001
 40
0.0
 40
0.0
 40
0.0
 40
0.0
 40
0.1251834289
 40
0.2501285371
 40
0.3748674183
 40
0.4995051476
 40
0.6241709248
 40
0.7490088206
 40
0.811646123
 40
0.8743500613
 40
0.9057401989
 40
0.9371491726
 40
0.9685665394
 40
1.0
 40
1.0
 40
1.0
 40
1.0
 10
38.5169593424
 20
40.1493769648
 30
0.0
 10
38.4953939413
 20
40.103864608
 30
0.0
 10
38.4636391952
 20
40.007044345
 30
0.0
 10
38.4539157311
 20
39.8549925178
 30
0.0
 10
38.4826042068
 20
39.7054802552
 30
0.0
 10
38.5479591631
 20
39.5681166789
 30
0.0
 10
38.6457205026
 20
39.4515820048
 30
0.0
 10
38.749149627
 20
39.377822077
 30
0.0
 10
38.8407756263
 20
39.3356678387
 30
0.0
 10
38.9010681997
 20
39.3165665049
 30
0.0
 10
38.9504549903
 20
39.3059497688
 30
0.0
 10
38.9879403682
 20
39.3001524124
 30
0.0
 10
39.0257598412
 20
39.2969600925
 30
0.0
 10
39.0510578131
 20
39.2965391606
 30
0.0
 10
39.0637037904
 20
39.2966019295
 30
0.0
  0
SPLINE
  5
2FC
100
AcDbEntity
  8
0
100
AcDbSpline
 62
7
  6
CONTINUOUS
 70
0
 71
3
 72
16
 73
12
 74
0
 42
0.0000001
 43
0.0000001
 44
0.0000000001
 40
0.0
 40
0.0
 40
0.0
 40
0.0
 40
0.1103199831
 40
0.2216921921
 40
0.3369192212
 40
0.4579627309
 40
0.5856215698
 40
0.7195204675
 40
0.85829082
 40
0.9289334642
 40
1.0
 40
1.0
 40
1.0
 40
1.0
 10
38.4598950395
 20
32.4448307434
 30
0.0
 10
38.4578752568
 20
32.4132928898
 30
0.0
 10
38.4621092201
 20
32.3490549054
 30
0.0
 10
38.493808724
 20
32.2567912812
 30
0.0
 10
38.5491178121
 20
32.1728054676
 30
0.0
 10
38.6252778337
 20
32.1004390081
 30
0.0
 10
38.7188932206
 20
32.0421696482
 30
0.0
 10
38.8260772952
 20
31.9998269735
 30
0.0
 10
38.922679704
 20
31.9792134923
 30
0.0
 10
39.0027064078
 20
31.9712834878
 30
0.0
 10
39.0433493041
 20
31.9708600357
 30
0.0
 10
39.0637037905
 20
31.9712300763
 30
0.0
  0
SPLINE
  5
2FD
100
AcDbEntity
  8
0
100
AcDbSpline
 62
7
  6
CONTINUOUS
 70
0
 71
3
 72
15
 73
11
 74
0
 42
0.0000001
 43
0.0000001
 44
0.0000000001
 40
0.0
 40
0.0
 40
0.0
 40
0.0
 40
0.1387535785
 40
0.275137717
 40
0.4084592428
 40
0.5379661123
 40
0.6625832099
 40
0.7813122402
 40
0.8935135785
 40
1.0
 40
1.0
 40
1.0
 40
1.0
 10
24.0416798359
 20
50.8523606246
 30
0.0
 10
23.9858117319
 20
50.8281811126
 30
0.0
 10
23.875784882
 20
50.7784601428
 30
0.0
 10
23.7153545873
 20
50.6984834138
 30
0.0
 10
23.5625843767
 20
50.612642915
 30
0.0
 10
23.4197770211
 20
50.5201582886
 30
0.0
 10
23.2904106245
 20
50.4196296429
 30
0.0
 10
23.1788505176
 20
50.3098352537
 30
0.0
 10
23.0919903381
 20
50.1888655333
 30
0.0
 10
23.0553298128
 20
50.0986458918
 30
0.0
 10
23.0446982029
 20
50.0531523332
 30
0.0
  0
SPLINE
  5
2FE
100
AcDbEntity
  8
0
100
AcDbSpline
 62
7
  6
CONTINUOUS
 70
0
 71
3
 72
16
 73
12
 74
0
 42
0.0000001
 43
0.0000001
 44
0.0000000001
 40
0.0
 40
0.0
 40
0.0
 40
0.0
 40
0.0968256134
 40
0.1969793712
 40
0.3054124489
 40
0.4249173658
 40
0.5560243655
 40
0.6974372719
 40
0.8465447941
 40
0.9229664824
 40
1.0
 40
1.0
 40
1.0
 40
1.0
 10
38.4594755212
 20
30.3294500322
 30
0.0
 10
38.458149791
 20
30.3041626407
 30
0.0
 10
38.4638128458
 20
30.2518855214
 30
0.0
 10
38.4976458722
 20
30.1782288555
 30
0.0
 10
38.5542354814
 20
30.1124948827
 30
0.0
 10
38.6305599181
 20
30.0566891726
 30
0.0
 10
38.7234706831
 20
30.0122251842
 30
0.0
 10
38.829395867
 20
29.9802813889
 30
0.0
 10
38.9244245454
 20
29.9651110981
 30
0.0
 10
39.0033991663
 20
29.9595460968
 30
0.0
 10
39.0435625034
 20
29.9595208045
 30
0.0
 10
39.0637037905
 20
29.9599580337
 30
0.0
  0
SPLINE
  5
2FF
100
AcDbEntity
  8
0
100
AcDbSpline
 62
7
  6
CONTINUOUS
 70
0
 71
3
 72
14
 73
10
 74
0
 42
0.0000001
 43
0.0000001
 44
0.0000000001
 40
0.0
 40
0.0
 40
0.0
 40
0.0
 40
0.4092326515
 40
0.5821884878
 40
0.7284484267
 40
0.8453951962
 40
0.9305969598
 40
0.9824779154
 40
1.0
 40
1.0
 40
1.0
 40
1.0
 10
17.2802306369
 20
51.8773543809
 30
0.0
 10
17.2562679236
 20
51.8776397423
 30
0.0
 10
17.222095847
 20
51.8781697935
 30
0.0
 10
17.179638947
 20
51.8790143515
 30
0.0
 10
17.1536797429
 20
51.879624496
 30
0.0
 10
17.1344196283
 20
51.8800654575
 30
0.0
 10
17.116908163
 20
51.8806306842
 30
0.0
 10
17.1125770526
 20
51.8805814435
 30
0.0
 10
17.103569233
 20
51.8810131129
 30
0.0
 10
17.1045904183
 20
51.8809129842
 30
0.0
  0
SPLINE
  5
300
100
AcDbEntity
  8
0
100
AcDbSpline
 62
7
  6
CONTINUOUS
 70
0
 71
3
 72
12
 73
8
 74
0
 42
0.0000001
 43
0.0000001
 44
0.0000000001
 40
0.0
 40
0.0
 40
0.0
 40
0.0
 40
0.0973801812
 40
0.2068701544
 40
0.4531629789
 40
0.7223830857
 40
1.0
 40
1.0
 40
1.0
 40
1.0
 10
9.6046982025
 20
49.3289571869
 30
0.0
 10
9.6046982025
 20
49.3180632022
 30
0.0
 10
9.602539869
 20
49.2949145433
 30
0.0
 10
9.5915269422
 20
49.2453394812
 30
0.0
 10
9.5658573407
 20
49.1798957405
 30
0.0
 10
9.5232753805
 20
49.1019155575
 30
0.0
 10
9.4889335141
 20
49.0511695658
 30
0.0
 10
9.470499031
 20
49.0261751936
 30
0.0
  0
SPLINE
  5
301
100
AcDbEntity
  8
0
100
AcDbSpline
 62
7
  6
CONTINUOUS
 70
0
 71
3
 72
18
 73
14
 74
0
 42
0.0000001
 43
0.0000001
 44
0.0000000001
 40
0.0
 40
0.0
 40
0.0
 40
0.0
 40
0.1932437365
 40
0.378983249
 40
0.5501699389
 40
0.7002269568
 40
0.7655219359
 40
0.8234964548
 40
0.8736285686
 40
0.9155100685
 40
0.9488590485
 40
0.9736283739
 40
1.0
 40
1.0
 40
1.0
 40
1.0
 10
39.0637037905
 20
55.5742211031
 30
0.0
 10
39.0243190792
 20
55.575253216
 30
0.0
 10
38.9470666874
 20
55.5768480761
 30
0.0
 10
38.8348981501
 20
55.5776509442
 30
0.0
 10
38.7315331133
 20
55.5767619885
 30
0.0
 10
38.6527544912
 20
55.5743756569
 30
0.0
 10
38.5971085207
 20
55.5712050305
 30
0.0
 10
38.5618805912
 20
55.5684127443
 30
0.0
 10
38.5314247682
 20
55.5650442889
 30
0.0
 10
38.5062991325
 20
55.561274489
 30
0.0
 10
38.4859566421
 20
55.5567022177
 30
0.0
 10
38.4706406585
 20
55.5519328932
 30
0.0
 10
38.4589407981
 20
55.5448033991
 30
0.0
 10
38.4591507382
 20
55.5394308933
 30
0.0
  0
SPLINE
  5
302
100
AcDbEntity
  8
0
100
AcDbSpline
 62
7
  6
CONTINUOUS
 70
0
 71
3
 72
11
 73
7
 74
0
 42
0.0000001
 43
0.0000001
 44
0.0000000001
 40
0.0
 40
0.0
 40
0.0
 40
0.0
 40
0.1316153364
 40
0.3433832865
 40
0.6337459571
 40
1.0
 40
1.0
 40
1.0
 40
1.0
 10
51.3687543382
 20
54.7275907942
 30
0.0
 10
51.3687543382
 20
54.7313773051
 30
0.0
 10
51.3675233947
 20
54.7412199279
 30
0.0
 10
51.3644398458
 20
54.7591722769
 30
0.0
 10
51.3593661043
 20
54.783647337
 30
0.0
 10
51.3552184287
 20
54.8020744941
 30
0.0
 10
51.352843638
 20
54.8123403499
 30
0.0
  0
SPLINE
  5
303
100
AcDbEntity
  8
0
100
AcDbSpline
 62
7
  6
CONTINUOUS
 70
0
 71
3
 72
9
 73
5
 74
0
 42
0.0000001
 43
0.0000001
 44
0.0000000001
 40
0.0
 40
0.0
 40
0.0
 40
0.0
 40
0.2226763153
 40
1.0
 40
1.0
 40
1.0
 40
1.0
 10
51.352843638
 20
54.8123403499
 30
0.0
 10
51.3514651624
 20
54.8182992886
 30
0.0
 10
51.345183466
 20
54.8450387295
 30
0.0
 10
51.338600211
 20
54.8717065909
 30
0.0
 10
51.3333869811
 20
54.8924112858
 30
0.0
  0
SPLINE
  5
304
100
AcDbEntity
  8
0
100
AcDbSpline
 62
7
  6
CONTINUOUS
 70
0
 71
3
 72
12
 73
8
 74
0
 42
0.0000001
 43
0.0000001
 44
0.0000000001
 40
0.0
 40
0.0
 40
0.0
 40
0.0
 40
0.2002666802
 40
0.4445994007
 40
0.7165026265
 40
0.8576696704
 40
1.0
 40
1.0
 40
1.0
 40
1.0
 10
51.3333869811
 20
54.8924112858
 30
0.0
 10
51.3234971598
 20
54.9313943911
 30
0.0
 10
51.2920183816
 20
55.0158870366
 30
0.0
 10
51.2072166349
 20
55.1346210695
 30
0.0
 10
51.0987783137
 20
55.2146140066
 30
0.0
 10
50.994823136
 20
55.2562628362
 30
0.0
 10
50.9387439003
 20
55.267970036
 30
0.0
 10
50.9103668748
 20
55.2713963212
 30
0.0
  0
SPLINE
  5
305
100
AcDbEntity
  8
0
100
AcDbSpline
 62
7
  6
CONTINUOUS
 70
0
 71
3
 72
11
 73
7
 74
0
 42
0.0000001
 43
0.0000001
 44
0.0000000001
 40
0.0
 40
0.0
 40
0.0
 40
0.0
 40
0.250010728
 40
0.5000157226
 40
0.7500131523
 40
1.0
 40
1.0
 40
1.0
 40
1.0
 10
50.8638350941
 20
55.2748019558
 30
0.0
 10
49.8804554937
 20
55.3000397932
 30
0.0
 10
47.9137190156
 20
55.3505220879
 30
0.0
 10
44.9636346678
 20
55.4254356531
 30
0.0
 10
42.0136339384
 20
55.4999379434
 30
0.0
 10
40.0470000168
 20
55.5495876149
 30
0.0
 10
39.0636982025
 20
55.5741859733
 30
0.0
  0
SPLINE
  5
306
100
AcDbEntity
  8
0
100
AcDbSpline
 62
7
  6
CONTINUOUS
 70
0
 71
3
 72
15
 73
11
 74
0
 42
0.0000001
 43
0.0000001
 44
0.0000000001
 40
0.0
 40
0.0
 40
0.0
 40
0.0
 40
0.1008912228
 40
0.1556560576
 40
0.2129778467
 40
0.333719172
 40
0.4605832633
 40
0.5916693489
 40
0.7257393953
 40
1.0
 40
1.0
 40
1.0
 40
1.0
 10
23.0446982029
 20
49.8458560711
 30
0.0
 10
23.0606380635
 20
49.7748906572
 30
0.0
 10
23.1086835148
 20
49.6705787172
 30
0.0
 10
23.1970772121
 20
49.5451157645
 30
0.0
 10
23.3067699367
 20
49.4176858725
 30
0.0
 10
23.4678547601
 20
49.2673615253
 30
0.0
 10
23.6830020281
 20
49.0990137735
 30
0.0
 10
23.9152204463
 20
48.9377524508
 30
0.0
 10
24.2430078743
 20
48.7284158429
 30
0.0
 10
24.4975710585
 20
48.580354157
 30
0.0
 10
24.6698583351
 20
48.4833528577
 30
0.0
  0
SPLINE
  5
307
100
AcDbEntity
  8
0
100
AcDbSpline
 62
7
  6
CONTINUOUS
 70
0
 71
3
 72
9
 73
5
 74
0
 42
0.0000001
 43
0.0000001
 44
0.0000000001
 40
0.0
 40
0.0
 40
0.0
 40
0.0
 40
0.4902142876
 40
1.0
 40
1.0
 40
1.0
 40
1.0
 10
24.6698583351
 20
48.4833528577
 30
0.0
 10
24.6982067381
 20
48.4684537775
 30
0.0
 10
24.7596208765
 20
48.4443722044
 30
0.0
 10
24.8252216308
 20
48.4358876025
 30
0.0
 10
24.85852543
 20
48.4358876025
 30
0.0
  0
ELLIPSE
  5
308
100
AcDbEntity
  8
0
100
AcDbEllipse
 62
7
  6
CONTINUOUS
 10
34.1818047477
 20
40.6724212696
 30
0.0
 11
38.1705593386
 21
10.826013306
 31
0.0
 40
0.2460158785
 41
1.3470649969
 42
1.3892559805
  0
ELLIPSE
  5
309
100
AcDbEntity
  8
0
100
AcDbEllipse
 62
7
  6
CONTINUOUS
 10
34.04781767
 20
42.089581319
 30
0.0
 11
38.1798960098
 21
-10.8286603847
 31
0.0
 40
0.2460158612
 41
1.482884432
 42
1.5264001849
  0
ELLIPSE
  5
30A
100
AcDbEntity
  8
0
100
AcDbEllipse
 62
7
  6
CONTINUOUS
 10
34.04781767
 20
40.6722479699
 30
0.0
 11
38.1798960098
 21
10.8286603847
 31
0.0
 40
0.2460158612
 41
7.6267445079
 42
7.6702602608
  0
ELLIPSE
  5
30B
100
AcDbEntity
  8
0
100
AcDbEllipse
 62
7
  6
CONTINUOUS
 10
34.1818047477
 20
42.0894080192
 30
0.0
 11
38.1705593386
 21
-10.826013306
 31
0.0
 40
0.2460158785
 41
1.4863902428
 42
1.5285812346
  0
ELLIPSE
  5
30C
100
AcDbEntity
  8
0
100
AcDbEllipse
 62
7
  6
CONTINUOUS
 10
16.6747618251
 20
41.3809146444
 30
0.0
 11
23.2519159813
 21
0.0
 31
0.0
 40
0.4515756899
 41
1.3791491318
 42
1.5447538597
  0
ENDSEC
  0
SECTION
  2
OBJECTS
  0
DICTIONARY
  5
C
100
AcDbDictionary
280
0
281
1
  3
ACAD_GROUP
350
D
  3
ACAD_MLINESTYLE
350
17
  3
ACAD_LAYOUT
350
1A
  3
ACAD_PLOTSETTINGS
350
19
  3
ACAD_PLOTSTYLENAME
350
E
  0
DICTIONARY
  5
D
102
{ACAD_REACTORS
330
C
102
}
100
AcDbDictionary
280
0
281
1
  0
ACDBDICTIONARYWDFLT
  5
E
102
{ACAD_REACTORS
330
C
102
}
100
AcDbDictionary
281
1
  3
Normal
350
F
100
AcDbDictionaryWithDefault
340
F
  0
DICTIONARY
  5
17
102
{ACAD_REACTORS
330
C
102
}
100
AcDbDictionary
280
0
281
1
  3
Standard
350
18
  0
DICTIONARY
  5
19
102
{ACAD_REACTORS
330
C
102
}
100
AcDbDictionary
281
1
  0
DICTIONARY
  5
1A
102
{ACAD_REACTORS
330
C
102
}
100
AcDbDictionary
281
1
  3
Model
350
30D
  3
Layout1
350
30E
  0
ACDBPLACEHOLDER
  5
F
102
{ACAD_REACTORS
330
E
102
}
  0
MLINESTYLE
  5
18
102
{ACAD_REACTORS
330
17
102
}
100
AcDbMlineStyle
  2
STANDARD
 70
0
  3

 62
256
 51
90.0
 52
90.0
 71
2
 49
0.5
 62
256
  6
BYLAYER
 49
-0.5
 62
256
  6
BYLAYER
  0
LAYOUT
  5
30D
102
{ACAD_REACTORS
330
1A
102
}
100
AcDbPlotSettings
  1

  2
none_device
  4

  6

 40
0.0
 41
0.0
 42
0.0
 43
0.0
 44
210.0
 45
297.0
 46
0.0
 47
0.0
 48
0.0
 49
0.0
140
0.0
141
0.0
142
1.0
143
1.0
 70
1024
 72
1
 73
0
 74
0
  7

 75
0
147
1.0
148
0.0
149
0.0
100
AcDbLayout
  1
Model
 70
0
 71
0
 10
0.0
 20
0.0
 11
210.0
 21
297.0
 12
0.0
 22
0.0
 32
0.0
 14
0.0
 24
0.0
 34
0.0
 15
0.0
 25
0.0
 35
0.0
146
0.0
 13
0.0
 23
0.0
 33
0.0
 16
1.0
 26
0.0
 36
0.0
 17
0.0
 27
1.0
 37
0.0
 76
0
330
210
345
0
346
0
  0
LAYOUT
  5
30E
102
{ACAD_REACTORS
330
1A
102
}
100
AcDbPlotSettings
  1

  2
none_device
  4

  6

 40
0.0
 41
0.0
 42
0.0
 43
0.0
 44
210.0
 45
297.0
 46
0.0
 47
0.0
 48
0.0
 49
0.0
140
0.0
141
0.0
142
1.0
143
1.0
 70
0
 72
1
 73
0
 74
0
  7

 75
0
147
1.0
148
0.0
149
0.0
100
AcDbLayout
  1
Layout1
 70
0
 71
1
 10
0.0
 20
0.0
 11
210.0
 21
297.0
 12
0.0
 22
0.0
 32
0.0
 14
0.0
 24
0.0
 34
0.0
 15
0.0
 25
0.0
 35
0.0
146
0.0
 13
0.0
 23
0.0
 33
0.0
 16
1.0
 26
0.0
 36
0.0
 17
0.0
 27
1.0
 37
0.0
 76
0
330
211
345
0
346
0
  0
ENDSEC
  0
EOF
