999
DXF file: C:\Users\sesa63760\Dev\_Creo\CAD\MCADPD0004377_3D-CAD\drw0001_2.dxf
999
Pro/ENGINEER 2019471 by Parametric Technology Corporation
  0
SECTION
  2
HEADER
  9
$ACADVER
  1
AC1024
  9
$DWGCODEPAGE
  3
ANSI_1252
  9
$EXTMAX
 10
55.2505666689
 20
78.140087146
 30
0.0
  9
$EXTMIN
 10
0.0
 20
0.0
 30
0.0
  9
$LIMMIN
 10
0.0
 20
0.0
  9
$LIMMAX
 10
55.2505666689
 20
78.140087146
  9
$VIEWCTR
 10
27.6252833344
 20
39.070043573
  9
$VIEWSIZE
 40
78.140087146
  9
$CLAYER
  8
0
  9
$LTSCALE
 40
5.093576051
  9
$CELTYPE
  6
BYLAYER
  9
$DIMSCALE
 40
1.0
  9
$DIMASZ
 40
0.6577448413
  9
$DIMEXO
 40
1.0
  9
$DIMDLI
 40
3.5191979989
  9
$DIMEXE
 40
1.0
  9
$DIMCEN
 40
0.8334942629
  9
$DIMLFAC
 40
1.0
  9
$DIMBLK
  1
_FILLED
  9
$DIMALT
 70
0
  9
$DIMALTF
 40
0.0393700787
  9
$DIMTXT
 40
0.9208427778
  9
$DIMTOL
 70
1
  9
$DIMLIM
 70
0
  9
$DIMTFAC
 40
1.0
  9
$DIMTP
 40
0.01
  9
$DIMTM
 40
0.01
  9
$DIMGAP
 40
0.625
  9
$DIMDSEP
 70
46
  9
$AUNITS
 70
0
  9
$PDMODE
 70
3
  9
$PDSIZE
 40
0.3125
  9
$HANDSEED
  5
2D6
  9
$TILEMODE
 70
1
  9
$MEASUREMENT
 70
1
  9
$INSUNITS
 70
4
  0
ENDSEC
  0
SECTION
  2
CLASSES
  0
CLASS
  1
ACDBDICTIONARYWDFLT
  2
AcDbDictionaryWithDefault
  3
AutoCAD 2000
 90
0
 91
1
280
0
281
0
  0
CLASS
  1
ACDBPLACEHOLDER
  2
AcDbPlaceHolder
  3
AutoCAD 2000
 90
0
 91
1
280
0
281
0
  0
CLASS
  1
LAYOUT
  2
AcDbLayout
  3
AutoCAD 2000
 90
0
 91
0
280
0
281
0
  0
ENDSEC
  0
SECTION
  2
TABLES
  0
TABLE
  2
VPORT
  5
8
100
AcDbSymbolTable
 70
2
  0
VPORT
  5
1F4
100
AcDbSymbolTableRecord
100
AcDbViewportTableRecord
  2
*ACTIVE
 70
0
 10
0.0
 20
0.0
 11
1.0
 21
1.0
 12
27.6252833344
 22
39.070043573
 13
0.0
 23
0.0
 14
1.0
 24
1.0
 15
0.0
 25
0.0
 16
0.0
 26
0.0
 36
1.0
 17
0.0
 27
0.0
 37
0.0
 40
78.140087146
 41
0.7070707071
 42
50.0
 43
0.0
 44
0.0
 50
0.0
 51
0.0
 71
0
 72
100
 73
1
 74
1
 75
0
 76
0
 77
0
 78
0
  0
ENDTAB
  0
TABLE
  2
LTYPE
  5
5
100
AcDbSymbolTable
 70
6
  0
LTYPE
  5
14
100
AcDbSymbolTableRecord
100
AcDbLinetypeTableRecord
  2
BYBLOCK
 70
0
  3

 72
65
 73
0
 40
0.0
  0
LTYPE
  5
15
100
AcDbSymbolTableRecord
100
AcDbLinetypeTableRecord
  2
BYLAYER
 70
0
  3

 72
65
 73
0
 40
0.0
  0
LTYPE
  5
16
100
AcDbSymbolTableRecord
100
AcDbLinetypeTableRecord
  2
CONTINUOUS
 70
64
  3
Solid line
 72
65
 73
0
 40
0.0
  0
LTYPE
  5
1F5
100
AcDbSymbolTableRecord
100
AcDbLinetypeTableRecord
  2
CENTER
 70
64
  3
____ _ ____ _ ____ _ ____ _ ____ _ ____ _ ____
 72
65
 73
4
 40
0.6
 49
0.375
 74
0
 49
-0.075
 74
0
 49
0.075
 74
0
 49
-0.075
 74
0
  0
LTYPE
  5
1F6
100
AcDbSymbolTableRecord
100
AcDbLinetypeTableRecord
  2
HIDDEN
 70
64
  3
- - - - - - - - - - - - - - - - - - - -
 72
65
 73
2
 40
0.2
 49
0.1
 74
0
 49
-0.1
 74
0
  0
LTYPE
  5
1F7
100
AcDbSymbolTableRecord
100
AcDbLinetypeTableRecord
  2
PHANTOM
 70
64
  3
_____ _ _ _____ _ _ _____ _ _ _____
 72
65
 73
6
 40
0.8
 49
0.45
 74
0
 49
-0.05
 74
0
 49
0.1
 74
0
 49
-0.05
 74
0
 49
0.1
 74
0
 49
-0.05
 74
0
  0
LTYPE
  5
1F8
100
AcDbSymbolTableRecord
100
AcDbLinetypeTableRecord
  2
DOT
 70
64
  3
. . . . . . . . . . . . . . . . . . . .
 72
65
 73
2
 40
0.2
 49
0.1
 74
0
 49
-0.1
 74
0
  0
LTYPE
  5
1F9
100
AcDbSymbolTableRecord
100
AcDbLinetypeTableRecord
  2
DASHED
 70
64
  3
- - - - - - - - - - - - - - - - - - - -
 72
65
 73
2
 40
0.2
 49
0.1
 74
0
 49
-0.1
 74
0
  0
ENDTAB
  0
TABLE
  2
LAYER
  5
2
100
AcDbSymbolTable
 70
36
  0
LAYER
  5
10
100
AcDbSymbolTableRecord
100
AcDbLayerTableRecord
  2
0
 70
0
 62
7
  6
CONTINUOUS
370
-3
390
F
  0
LAYER
  5
1FA
100
AcDbSymbolTableRecord
100
AcDbLayerTableRecord
  2
DEFAULT_1
 70
0
 62
7
  6
CENTER
370
-3
390
F
  0
LAYER
  5
1FB
100
AcDbSymbolTableRecord
100
AcDbLayerTableRecord
  2
DEFAULT_2
 70
0
 62
7
  6
HIDDEN
370
-3
390
F
  0
LAYER
  5
1FC
100
AcDbSymbolTableRecord
100
AcDbLayerTableRecord
  2
DEFAULT_3
 70
0
 62
7
  6
PHANTOM
370
-3
390
F
  0
LAYER
  5
1FD
100
AcDbSymbolTableRecord
100
AcDbLayerTableRecord
  2
00_COMPONENTS
 70
0
 62
7
  6
CONTINUOUS
370
-3
390
F
  0
LAYER
  5
1FE
100
AcDbSymbolTableRecord
100
AcDbLayerTableRecord
  2
01_1_DEFAULT_DATUMS
 70
0
 62
7
  6
CONTINUOUS
370
-3
390
F
  0
LAYER
  5
1FF
100
AcDbSymbolTableRecord
100
AcDbLayerTableRecord
  2
01_PLANES
 70
0
 62
7
  6
CONTINUOUS
370
-3
390
F
  0
LAYER
  5
200
100
AcDbSymbolTableRecord
100
AcDbLayerTableRecord
  2
02_COORD_SYS
 70
0
 62
7
  6
CONTINUOUS
370
-3
390
F
  0
LAYER
  5
201
100
AcDbSymbolTableRecord
100
AcDbLayerTableRecord
  2
03_AXES
 70
0
 62
7
  6
CONTINUOUS
370
-3
390
F
  0
LAYER
  5
202
100
AcDbSymbolTableRecord
100
AcDbLayerTableRecord
  2
04_POINTS
 70
0
 62
7
  6
CONTINUOUS
370
-3
390
F
  0
LAYER
  5
203
100
AcDbSymbolTableRecord
100
AcDbLayerTableRecord
  2
05_CURVES
 70
0
 62
7
  6
CONTINUOUS
370
-3
390
F
  0
LAYER
  5
204
100
AcDbSymbolTableRecord
100
AcDbLayerTableRecord
  2
06_SURFS
 70
0
 62
7
  6
CONTINUOUS
370
-3
390
F
  0
LAYER
  5
205
100
AcDbSymbolTableRecord
100
AcDbLayerTableRecord
  2
07_COSMETICS
 70
0
 62
7
  6
CONTINUOUS
370
-3
390
F
  0
LAYER
  5
206
100
AcDbSymbolTableRecord
100
AcDbLayerTableRecord
  2
10_NOTES
 70
0
 62
7
  6
CONTINUOUS
370
-3
390
F
  0
LAYER
  5
207
100
AcDbSymbolTableRecord
100
AcDbLayerTableRecord
  2
11_NOTES_PUB
 70
0
 62
7
  6
CONTINUOUS
370
-3
390
F
  0
LAYER
  5
208
100
AcDbSymbolTableRecord
100
AcDbLayerTableRecord
  2
13_REF_GTOL
 70
0
 62
7
  6
CONTINUOUS
370
-3
390
F
  0
LAYER
  5
209
100
AcDbSymbolTableRecord
100
AcDbLayerTableRecord
  2
16_MISC
 70
0
 62
7
  6
CONTINUOUS
370
-3
390
F
  0
LAYER
  5
20A
100
AcDbSymbolTableRecord
100
AcDbLayerTableRecord
  2
17_NO_PRINT
 70
0
 62
7
  6
CONTINUOUS
370
-3
390
F
  0
LAYER
  5
20B
100
AcDbSymbolTableRecord
100
AcDbLayerTableRecord
  2
18_DATUM_CAMS_JOINTS
 70
0
 62
7
  6
CONTINUOUS
370
-3
390
F
  0
LAYER
  5
20C
100
AcDbSymbolTableRecord
100
AcDbLayerTableRecord
  2
19_DATUM_FUNCTIONAL
 70
0
 62
7
  6
CONTINUOUS
370
-3
390
F
  0
LAYER
  5
20D
100
AcDbSymbolTableRecord
100
AcDbLayerTableRecord
  2
20_DATUM_KINEMATIC_SCHEME
 70
0
 62
7
  6
CONTINUOUS
370
-3
390
F
  0
ENDTAB
  0
TABLE
  2
STYLE
  5
3
100
AcDbSymbolTable
 70
1
  0
STYLE
  5
11
100
AcDbSymbolTableRecord
100
AcDbTextStyleTableRecord
  2
STANDARD
 70
0
 40
0.0
 41
1.0
 50
0.0
 71
0
 42
0.2
  3
ARIAL.TTF
  4

  0
STYLE
  5
20E
100
AcDbSymbolTableRecord
100
AcDbTextStyleTableRecord
  2
TEXTSTYLE_1
 70
0
 40
0.0
 41
0.8
 50
0.0
 71
0
 42
0.2
  3
gdt
  4

  0
ENDTAB
  0
TABLE
  2
VIEW
  5
6
100
AcDbSymbolTable
 70
0
  0
ENDTAB
  0
TABLE
  2
UCS
  5
7
100
AcDbSymbolTable
 70
0
  0
ENDTAB
  0
TABLE
  2
APPID
  5
9
100
AcDbSymbolTable
 70
1
  0
APPID
  5
20F
100
AcDbSymbolTableRecord
100
AcDbRegAppTableRecord
  2
ACAD
 70
0
  0
ENDTAB
  0
TABLE
  2
BLOCK_RECORD
  5
1
100
AcDbSymbolTable
 70
0
  0
BLOCK_RECORD
  5
210
100
AcDbSymbolTableRecord
100
AcDbBlockTableRecord
  2
*Model_Space
  0
BLOCK_RECORD
  5
211
100
AcDbSymbolTableRecord
100
AcDbBlockTableRecord
  2
*Paper_Space
  0
BLOCK_RECORD
  5
212
100
AcDbSymbolTableRecord
100
AcDbBlockTableRecord
  2
_FILLED
  0
ENDTAB
  0
TABLE
  2
DIMSTYLE
  5
A
100
AcDbSymbolTable
 70
1
100
AcDbDimStyleTable
 71
0
  0
DIMSTYLE
105
213
100
AcDbSymbolTableRecord
100
AcDbDimStyleTableRecord
  2
STANDARD
 70
0
  3

  4

 40
1.0
 41
0.6577448413
 42
1.0
 43
0.38
 44
1.0
 45
0.0
 46
0.0
 47
0.01
 48
0.01
140
0.9208427778
141
0.09
142
0.0
143
25.4
144
1.0
145
0.0
146
1.0
147
0.625
 71
1
 72
0
 73
0
 74
0
 75
0
 76
0
 77
1
 78
8
 79
2
170
0
171
1
172
0
173
0
174
0
175
0
176
0
177
0
178
0
270
2
179
2
271
2
272
2
273
2
274
2
275
0
280
0
281
0
282
0
283
1
284
8
285
0
286
0
287
3
288
0
340
11
278
46
341
212
342
212
343
212
344
212
  0
ENDTAB
  0
ENDSEC
  0
SECTION
  2
BLOCKS
  0
BLOCK
  5
20
100
AcDbEntity
  8
0
100
AcDbBlockBegin
  2
*Model_Space
 70
0
 10
0.0
 20
0.0
 30
0.0
  3
*Model_Space
  1

  0
ENDBLK
  5
21
100
AcDbEntity
  8
0
100
AcDbBlockEnd
  0
BLOCK
  5
1C
100
AcDbEntity
  8
0
100
AcDbBlockBegin
  2
*Paper_Space
 70
0
 10
0.0
 20
0.0
 30
0.0
  3
*Paper_Space
  1

  0
ENDBLK
  5
1D
100
AcDbEntity
  8
0
100
AcDbBlockEnd
  0
BLOCK
  5
214
100
AcDbEntity
  8
0
100
AcDbBlockBegin
  2
_FILLED
 70
64
 10
0.0
 20
0.0
  3
_FILLED
  1

  0
SOLID
  5
215
100
AcDbEntity
  8
0
  6
BYBLOCK
 62
0
100
AcDbTrace
 10
0.0
 20
0.0
 11
-1.0
 21
0.25
 12
-1.0
 22
-0.25
 13
-1.0
 23
-0.25
  0
ENDBLK
  5
216
100
AcDbEntity
  8
0
  6
BYBLOCK
 62
0
100
AcDbBlockEnd
  0
ENDSEC
  0
SECTION
  2
ENTITIES
  0
LINE
  5
217
100
AcDbEntity
  8
0
100
AcDbLine
 62
7
  6
BYLAYER
 10
6.0578541405
 20
15.4265795207
 11
49.9578541405
 21
15.4265795207
  0
LINE
  5
218
100
AcDbEntity
  8
0
100
AcDbLine
 62
7
  6
BYLAYER
 10
6.0578541405
 20
15.4265795207
 11
6.0578541405
 21
62.4265795207
  0
LINE
  5
219
100
AcDbEntity
  8
0
100
AcDbLine
 62
7
  6
BYLAYER
 10
7.0578541405
 20
24.3765795207
 11
7.0578541405
 21
53.4765795207
  0
LINE
  5
21A
100
AcDbEntity
  8
0
100
AcDbLine
 62
7
  6
BYLAYER
 10
7.7078541405
 20
15.4265795207
 11
7.7078541405
 21
22.9265795207
  0
LINE
  5
21B
100
AcDbEntity
  8
0
100
AcDbLine
 62
7
  6
BYLAYER
 10
7.7078541405
 20
54.9265795207
 11
7.7078541405
 21
62.4265795207
  0
LINE
  5
21C
100
AcDbEntity
  8
0
100
AcDbLine
 62
7
  6
BYLAYER
 10
8.9578541405
 20
36.9265795207
 11
8.9578541405
 21
41.4265795207
  0
LINE
  5
21D
100
AcDbEntity
  8
0
100
AcDbLine
 62
7
  6
BYLAYER
 10
9.0235722764
 20
17.7316634614
 11
9.0235722764
 21
18.5206986258
  0
LINE
  5
21E
100
AcDbEntity
  8
0
100
AcDbLine
 62
7
  6
BYLAYER
 10
9.0235722764
 20
59.3324604156
 11
9.0235722764
 21
60.12149558
  0
LINE
  5
21F
100
AcDbEntity
  8
0
100
AcDbLine
 62
7
  6
BYLAYER
 10
15.4043726437
 20
59.2156406889
 11
15.8767029933
 21
62.4265795207
  0
LINE
  5
220
100
AcDbEntity
  8
0
100
AcDbLine
 62
7
  6
BYLAYER
 10
15.7881534012
 20
62.4265795207
 11
15.4043726437
 21
60.0134446771
  0
LINE
  5
221
100
AcDbEntity
  8
0
100
AcDbLine
 62
7
  6
BYLAYER
 10
9.0235722764
 20
18.5206986259
 11
8.5067029933
 21
15.4265795207
  0
LINE
  5
222
100
AcDbEntity
  8
0
100
AcDbLine
 62
7
  6
BYLAYER
 10
8.6072609503
 20
15.4265795207
 11
9.0235722763
 21
17.7316634613
  0
LINE
  5
223
100
AcDbEntity
  8
0
100
AcDbLine
 62
7
  6
BYLAYER
 10
6.0578541405
 20
22.9265795207
 11
27.1078541405
 21
22.9265795207
  0
LINE
  5
224
100
AcDbEntity
  8
0
100
AcDbLine
 62
7
  6
BYLAYER
 10
28.9078541405
 20
22.9265795207
 11
49.9578541405
 21
22.9265795207
  0
LINE
  5
225
100
AcDbEntity
  8
0
100
AcDbLine
 62
7
  6
BYLAYER
 10
9.0235722763
 20
60.1214955801
 11
8.6072609503
 21
62.4265795207
  0
LINE
  5
226
100
AcDbEntity
  8
0
100
AcDbLine
 62
7
  6
BYLAYER
 10
9.0235722764
 20
59.3324604156
 11
8.5067029933
 21
62.4265795207
  0
LINE
  5
227
100
AcDbEntity
  8
0
100
AcDbLine
 62
7
  6
BYLAYER
 10
15.4043726437
 20
17.8397143643
 11
15.7881534012
 21
15.4265795207
  0
LINE
  5
228
100
AcDbEntity
  8
0
100
AcDbLine
 62
7
  6
BYLAYER
 10
15.4043726437
 20
18.6375183525
 11
15.8767029933
 21
15.4265795207
  0
LINE
  5
229
100
AcDbEntity
  8
0
100
AcDbLine
 62
7
  6
BYLAYER
 10
14.3078541405
 20
34.9265795207
 11
14.3078541405
 21
36.9265795207
  0
LINE
  5
22A
100
AcDbEntity
  8
0
100
AcDbLine
 62
7
  6
BYLAYER
 10
14.3078541405
 20
41.4265795207
 11
14.3078541405
 21
42.9265795207
  0
LINE
  5
22B
100
AcDbEntity
  8
0
100
AcDbLine
 62
7
  6
BYLAYER
 10
15.0078541405
 20
33.9265795207
 11
15.0078541405
 21
29.4265795207
  0
LINE
  5
22C
100
AcDbEntity
  8
0
100
AcDbLine
 62
7
  6
BYLAYER
 10
15.2578541405
 20
42.9265795207
 11
15.2578541405
 21
34.9265795207
  0
LINE
  5
22D
100
AcDbEntity
  8
0
100
AcDbLine
 62
7
  6
BYLAYER
 10
15.4043726437
 20
60.0134446771
 11
15.4043726437
 21
59.2156406889
  0
LINE
  5
22E
100
AcDbEntity
  8
0
100
AcDbLine
 62
7
  6
BYLAYER
 10
15.4043726437
 20
18.6375183525
 11
15.4043726437
 21
17.8397143643
  0
LINE
  5
22F
100
AcDbEntity
  8
0
100
AcDbLine
 62
7
  6
BYLAYER
 10
48.9578541405
 20
24.3765795207
 11
45.7078541405
 21
24.3765795207
  0
LINE
  5
230
100
AcDbEntity
  8
0
100
AcDbLine
 62
7
  6
BYLAYER
 10
43.2078541405
 20
24.3765795207
 11
40.1578541405
 21
24.3765795207
  0
LINE
  5
231
100
AcDbEntity
  8
0
100
AcDbLine
 62
7
  6
BYLAYER
 10
15.8578541405
 20
24.3765795207
 11
7.0578541405
 21
24.3765795207
  0
LINE
  5
232
100
AcDbEntity
  8
0
100
AcDbLine
 62
7
  6
BYLAYER
 10
15.8578541405
 20
29.4265795207
 11
15.8578541405
 21
24.3765795207
  0
LINE
  5
233
100
AcDbEntity
  8
0
100
AcDbLine
 62
7
  6
BYLAYER
 10
16.5078541405
 20
43.9265795207
 11
16.5078541405
 21
33.9265795207
  0
LINE
  5
234
100
AcDbEntity
  8
0
100
AcDbLine
 62
7
  6
BYLAYER
 10
16.5078541405
 20
15.4265795207
 11
16.5078541405
 21
22.9265795207
  0
LINE
  5
235
100
AcDbEntity
  8
0
100
AcDbLine
 62
7
  6
BYLAYER
 10
16.5078541405
 20
54.9265795207
 11
16.5078541405
 21
62.4265795207
  0
LINE
  5
236
100
AcDbEntity
  8
0
100
AcDbLine
 62
7
  6
BYLAYER
 10
16.9578541405
 20
53.4765795207
 11
16.9578541405
 21
43.9265795207
  0
LINE
  5
237
100
AcDbEntity
  8
0
100
AcDbLine
 62
7
  6
BYLAYER
 10
18.8078541405
 20
46.4265795207
 11
18.3078541405
 21
44.5565795207
  0
LINE
  5
238
100
AcDbEntity
  8
0
100
AcDbLine
 62
7
  6
BYLAYER
 10
18.3078541405
 20
15.4265795207
 11
18.3078541405
 21
44.5565795207
  0
LINE
  5
239
100
AcDbEntity
  8
0
100
AcDbLine
 62
7
  6
BYLAYER
 10
18.3078541405
 20
54.9265795207
 11
18.3078541405
 21
62.4265795207
  0
LINE
  5
23A
100
AcDbEntity
  8
0
100
AcDbLine
 62
7
  6
BYLAYER
 10
19.5578541405
 20
34.9265795207
 11
19.5578541405
 21
42.9265795207
  0
LINE
  5
23B
100
AcDbEntity
  8
0
100
AcDbLine
 62
7
  6
BYLAYER
 10
19.6396518744
 20
17.8115174858
 11
19.6396518744
 21
18.6070331686
  0
LINE
  5
23C
100
AcDbEntity
  8
0
100
AcDbLine
 62
7
  6
BYLAYER
 10
19.6396518744
 20
59.2461258728
 11
19.6396518744
 21
60.0416415556
  0
LINE
  5
23D
100
AcDbEntity
  8
0
100
AcDbLine
 62
7
  6
BYLAYER
 10
15.0078541405
 20
29.4265795207
 11
15.8578541405
 21
29.4265795207
  0
LINE
  5
23E
100
AcDbEntity
  8
0
100
AcDbLine
 62
7
  6
BYLAYER
 10
40.1578541405
 20
29.4265795207
 11
41.0078541405
 21
29.4265795207
  0
LINE
  5
23F
100
AcDbEntity
  8
0
100
AcDbLine
 62
7
  6
BYLAYER
 10
20.5078541405
 20
42.9265795207
 11
20.5078541405
 21
41.4265795207
  0
LINE
  5
240
100
AcDbEntity
  8
0
100
AcDbLine
 62
7
  6
BYLAYER
 10
20.5078541405
 20
36.9265795207
 11
20.5078541405
 21
34.9265795207
  0
LINE
  5
241
100
AcDbEntity
  8
0
100
AcDbLine
 62
7
  6
BYLAYER
 10
20.9078541405
 20
46.4265795207
 11
20.9078541405
 21
54.9265795207
  0
LINE
  5
242
100
AcDbEntity
  8
0
100
AcDbLine
 62
7
  6
BYLAYER
 10
21.5078541405
 20
33.9265795207
 11
21.5078541405
 21
22.9265795207
  0
LINE
  5
243
100
AcDbEntity
  8
0
100
AcDbLine
 62
7
  6
BYLAYER
 10
23.5078541405
 20
43.9265795207
 11
23.5078541405
 21
54.9265795207
  0
LINE
  5
244
100
AcDbEntity
  8
0
100
AcDbLine
 62
7
  6
BYLAYER
 10
26.0258129577
 20
59.325154939
 11
26.5439026128
 21
62.4265795207
  0
LINE
  5
245
100
AcDbEntity
  8
0
100
AcDbLine
 62
7
  6
BYLAYER
 10
26.4433446559
 20
62.4265795207
 11
26.0258129577
 21
60.1147384733
  0
LINE
  5
246
100
AcDbEntity
  8
0
100
AcDbLine
 62
7
  6
BYLAYER
 10
19.6396518744
 20
18.6070331687
 11
19.0439026128
 21
15.4265795207
  0
LINE
  5
247
100
AcDbEntity
  8
0
100
AcDbLine
 62
7
  6
BYLAYER
 10
19.1566605669
 20
15.4265795207
 11
19.6396518744
 21
17.8115174858
  0
LINE
  5
248
100
AcDbEntity
  8
0
100
AcDbLine
 62
7
  6
BYLAYER
 10
45.7078541405
 20
32.9265795207
 11
43.2078541405
 21
32.9265795207
  0
LINE
  5
249
100
AcDbEntity
  8
0
100
AcDbLine
 62
7
  6
BYLAYER
 10
41.0078541405
 20
33.9265795207
 11
39.5078541405
 21
33.9265795207
  0
LINE
  5
24A
100
AcDbEntity
  8
0
100
AcDbLine
 62
7
  6
BYLAYER
 10
37.7078541405
 20
33.9265795207
 11
34.5078541405
 21
33.9265795207
  0
LINE
  5
24B
100
AcDbEntity
  8
0
100
AcDbLine
 62
7
  6
BYLAYER
 10
21.5078541405
 20
33.9265795207
 11
18.3078541405
 21
33.9265795207
  0
LINE
  5
24C
100
AcDbEntity
  8
0
100
AcDbLine
 62
7
  6
BYLAYER
 10
16.5078541405
 20
33.9265795207
 11
15.0078541405
 21
33.9265795207
  0
LINE
  5
24D
100
AcDbEntity
  8
0
100
AcDbLine
 62
7
  6
BYLAYER
 10
41.7078541405
 20
34.9265795207
 11
40.7578541405
 21
34.9265795207
  0
LINE
  5
24E
100
AcDbEntity
  8
0
100
AcDbLine
 62
7
  6
BYLAYER
 10
36.4578541405
 20
34.9265795207
 11
35.5078541405
 21
34.9265795207
  0
LINE
  5
24F
100
AcDbEntity
  8
0
100
AcDbLine
 62
7
  6
BYLAYER
 10
20.5078541405
 20
34.9265795207
 11
19.5578541405
 21
34.9265795207
  0
LINE
  5
250
100
AcDbEntity
  8
0
100
AcDbLine
 62
7
  6
BYLAYER
 10
15.2578541405
 20
34.9265795207
 11
14.3078541405
 21
34.9265795207
  0
LINE
  5
251
100
AcDbEntity
  8
0
100
AcDbLine
 62
7
  6
BYLAYER
 10
19.6396518744
 20
60.0416415556
 11
19.1566605669
 21
62.4265795207
  0
LINE
  5
252
100
AcDbEntity
  8
0
100
AcDbLine
 62
7
  6
BYLAYER
 10
19.6396518744
 20
59.2461258728
 11
19.0439026128
 21
62.4265795207
  0
LINE
  5
253
100
AcDbEntity
  8
0
100
AcDbLine
 62
7
  6
BYLAYER
 10
26.0258129577
 20
17.7384205681
 11
26.4433446559
 21
15.4265795207
  0
LINE
  5
254
100
AcDbEntity
  8
0
100
AcDbLine
 62
7
  6
BYLAYER
 10
26.0258129577
 20
18.5280041025
 11
26.5439026128
 21
15.4265795207
  0
LINE
  5
255
100
AcDbEntity
  8
0
100
AcDbLine
 62
7
  6
BYLAYER
 10
24.7078541405
 20
41.9265795207
 11
24.7078541405
 21
35.4265795207
  0
LINE
  5
256
100
AcDbEntity
  8
0
100
AcDbLine
 62
7
  6
BYLAYER
 10
24.8078541405
 20
47.6965795207
 11
24.8078541405
 21
44.9565795207
  0
LINE
  5
257
100
AcDbEntity
  8
0
100
AcDbLine
 62
7
  6
BYLAYER
 10
25.3078541405
 20
47.4265795207
 11
25.3078541405
 21
54.9265795207
  0
LINE
  5
258
100
AcDbEntity
  8
0
100
AcDbLine
 62
7
  6
BYLAYER
 10
25.5078541405
 20
47.4265795207
 11
25.5078541405
 21
55.8265795207
  0
LINE
  5
259
100
AcDbEntity
  8
0
100
AcDbLine
 62
7
  6
BYLAYER
 10
26.0258129577
 20
60.1147384733
 11
26.0258129577
 21
59.3251549389
  0
LINE
  5
25A
100
AcDbEntity
  8
0
100
AcDbLine
 62
7
  6
BYLAYER
 10
26.0258129577
 20
18.5280041025
 11
26.0258129577
 21
17.738420568
  0
LINE
  5
25B
100
AcDbEntity
  8
0
100
AcDbLine
 62
7
  6
BYLAYER
 10
31.3078541405
 20
35.4265795207
 11
29.2078541405
 21
35.4265795207
  0
LINE
  5
25C
100
AcDbEntity
  8
0
100
AcDbLine
 62
7
  6
BYLAYER
 10
24.7078541405
 20
35.4265795207
 11
26.8078541405
 21
35.4265795207
  0
LINE
  5
25D
100
AcDbEntity
  8
0
100
AcDbLine
 62
7
  6
BYLAYER
 10
47.0578541405
 20
36.9265795207
 11
41.7078541405
 21
36.9265795207
  0
LINE
  5
25E
100
AcDbEntity
  8
0
100
AcDbLine
 62
7
  6
BYLAYER
 10
35.5078541405
 20
36.9265795207
 11
31.3078541405
 21
36.9265795207
  0
LINE
  5
25F
100
AcDbEntity
  8
0
100
AcDbLine
 62
7
  6
BYLAYER
 10
24.7078541405
 20
36.9265795207
 11
20.5078541405
 21
36.9265795207
  0
LINE
  5
260
100
AcDbEntity
  8
0
100
AcDbLine
 62
7
  6
BYLAYER
 10
14.3078541405
 20
36.9265795207
 11
8.9578541405
 21
36.9265795207
  0
LINE
  5
261
100
AcDbEntity
  8
0
100
AcDbLine
 62
7
  6
BYLAYER
 10
26.6078541405
 20
47.4265795207
 11
26.6078541405
 21
49.8265795207
  0
LINE
  5
262
100
AcDbEntity
  8
0
100
AcDbLine
 62
7
  6
BYLAYER
 10
26.7578541405
 20
55.8265795207
 11
26.7578541405
 21
61.3265795207
  0
LINE
  5
263
100
AcDbEntity
  8
0
100
AcDbLine
 62
7
  6
BYLAYER
 10
26.8078541405
 20
41.9265795207
 11
26.8078541405
 21
35.4265795207
  0
LINE
  5
264
100
AcDbEntity
  8
0
100
AcDbLine
 62
7
  6
BYLAYER
 10
27.1078541405
 20
15.4265795207
 11
27.1078541405
 21
22.9265795207
  0
LINE
  5
265
100
AcDbEntity
  8
0
100
AcDbLine
 62
7
  6
BYLAYER
 10
27.1078541405
 20
61.3265795207
 11
27.1078541405
 21
62.4265795207
  0
LINE
  5
266
100
AcDbEntity
  8
0
100
AcDbLine
 62
7
  6
BYLAYER
 10
29.2078541405
 20
38.1765795207
 11
26.8078541405
 21
38.1765795207
  0
LINE
  5
267
100
AcDbEntity
  8
0
100
AcDbLine
 62
7
  6
BYLAYER
 10
28.9078541405
 20
15.4265795207
 11
28.9078541405
 21
22.9265795207
  0
LINE
  5
268
100
AcDbEntity
  8
0
100
AcDbLine
 62
7
  6
BYLAYER
 10
28.9078541405
 20
61.3265795207
 11
28.9078541405
 21
62.4265795207
  0
LINE
  5
269
100
AcDbEntity
  8
0
100
AcDbLine
 62
7
  6
BYLAYER
 10
29.2078541405
 20
41.9265795207
 11
29.2078541405
 21
35.4265795207
  0
LINE
  5
26A
100
AcDbEntity
  8
0
100
AcDbLine
 62
7
  6
BYLAYER
 10
29.2578541405
 20
55.8265795207
 11
29.2578541405
 21
61.3265795207
  0
LINE
  5
26B
100
AcDbEntity
  8
0
100
AcDbLine
 62
7
  6
BYLAYER
 10
29.4078541405
 20
47.4265795207
 11
29.4078541405
 21
49.8265795207
  0
LINE
  5
26C
100
AcDbEntity
  8
0
100
AcDbLine
 62
7
  6
BYLAYER
 10
30.2247234236
 20
17.7316634614
 11
30.2247234236
 21
18.5206986258
  0
LINE
  5
26D
100
AcDbEntity
  8
0
100
AcDbLine
 62
7
  6
BYLAYER
 10
30.2247234236
 20
59.3324604156
 11
30.2247234236
 21
60.12149558
  0
LINE
  5
26E
100
AcDbEntity
  8
0
100
AcDbLine
 62
7
  6
BYLAYER
 10
26.8078541405
 20
39.5765795207
 11
29.2078541405
 21
39.5765795207
  0
LINE
  5
26F
100
AcDbEntity
  8
0
100
AcDbLine
 62
7
  6
BYLAYER
 10
30.5078541405
 20
47.4265795207
 11
30.5078541405
 21
55.8265795207
  0
LINE
  5
270
100
AcDbEntity
  8
0
100
AcDbLine
 62
7
  6
BYLAYER
 10
30.7078541405
 20
47.4265795207
 11
30.7078541405
 21
54.9265795207
  0
LINE
  5
271
100
AcDbEntity
  8
0
100
AcDbLine
 62
7
  6
BYLAYER
 10
31.2078541405
 20
44.9565795207
 11
31.2078541405
 21
47.6965795207
  0
LINE
  5
272
100
AcDbEntity
  8
0
100
AcDbLine
 62
7
  6
BYLAYER
 10
31.3078541405
 20
41.9265795207
 11
31.3078541405
 21
35.4265795207
  0
LINE
  5
273
100
AcDbEntity
  8
0
100
AcDbLine
 62
7
  6
BYLAYER
 10
32.5078541405
 20
43.9265795207
 11
32.5078541405
 21
54.9265795207
  0
LINE
  5
274
100
AcDbEntity
  8
0
100
AcDbLine
 62
7
  6
BYLAYER
 10
8.9578541405
 20
41.4265795207
 11
14.3078541405
 21
41.4265795207
  0
LINE
  5
275
100
AcDbEntity
  8
0
100
AcDbLine
 62
7
  6
BYLAYER
 10
20.5078541405
 20
41.4265795207
 11
24.7078541405
 21
41.4265795207
  0
LINE
  5
276
100
AcDbEntity
  8
0
100
AcDbLine
 62
7
  6
BYLAYER
 10
31.3078541405
 20
41.4265795207
 11
35.5078541405
 21
41.4265795207
  0
LINE
  5
277
100
AcDbEntity
  8
0
100
AcDbLine
 62
7
  6
BYLAYER
 10
41.7078541405
 20
41.4265795207
 11
47.0578541405
 21
41.4265795207
  0
LINE
  5
278
100
AcDbEntity
  8
0
100
AcDbLine
 62
7
  6
BYLAYER
 10
31.3078541405
 20
41.9265795207
 11
29.2078541405
 21
41.9265795207
  0
LINE
  5
279
100
AcDbEntity
  8
0
100
AcDbLine
 62
7
  6
BYLAYER
 10
24.7078541405
 20
41.9265795207
 11
26.8078541405
 21
41.9265795207
  0
LINE
  5
27A
100
AcDbEntity
  8
0
100
AcDbLine
 62
7
  6
BYLAYER
 10
14.3078541405
 20
42.9265795207
 11
15.2578541405
 21
42.9265795207
  0
LINE
  5
27B
100
AcDbEntity
  8
0
100
AcDbLine
 62
7
  6
BYLAYER
 10
19.5578541405
 20
42.9265795207
 11
20.5078541405
 21
42.9265795207
  0
LINE
  5
27C
100
AcDbEntity
  8
0
100
AcDbLine
 62
7
  6
BYLAYER
 10
35.5078541405
 20
42.9265795207
 11
36.4578541405
 21
42.9265795207
  0
LINE
  5
27D
100
AcDbEntity
  8
0
100
AcDbLine
 62
7
  6
BYLAYER
 10
40.7578541405
 20
42.9265795207
 11
41.7078541405
 21
42.9265795207
  0
LINE
  5
27E
100
AcDbEntity
  8
0
100
AcDbLine
 62
7
  6
BYLAYER
 10
34.5078541405
 20
33.9265795207
 11
34.5078541405
 21
22.9265795207
  0
LINE
  5
27F
100
AcDbEntity
  8
0
100
AcDbLine
 62
7
  6
BYLAYER
 10
36.6569650687
 20
59.5653425371
 11
37.0778541405
 21
62.4265795207
  0
LINE
  5
280
100
AcDbEntity
  8
0
100
AcDbLine
 62
7
  6
BYLAYER
 10
36.9893045484
 20
62.4265795207
 11
36.6569650687
 21
60.3368969018
  0
LINE
  5
281
100
AcDbEntity
  8
0
100
AcDbLine
 62
7
  6
BYLAYER
 10
30.2247234236
 20
18.5206986258
 11
29.7078541405
 21
15.4265795207
  0
LINE
  5
282
100
AcDbEntity
  8
0
100
AcDbLine
 62
7
  6
BYLAYER
 10
29.8084120975
 20
15.4265795207
 11
30.2247234236
 21
17.7316634614
  0
LINE
  5
283
100
AcDbEntity
  8
0
100
AcDbLine
 62
7
  6
BYLAYER
 10
39.5078541405
 20
43.9265795207
 11
39.0578541405
 21
43.9265795207
  0
LINE
  5
284
100
AcDbEntity
  8
0
100
AcDbLine
 62
7
  6
BYLAYER
 10
16.9578541405
 20
43.9265795207
 11
16.5078541405
 21
43.9265795207
  0
LINE
  5
285
100
AcDbEntity
  8
0
100
AcDbLine
 62
7
  6
BYLAYER
 10
18.3078541405
 20
43.9265795207
 11
37.7078541405
 21
43.9265795207
  0
LINE
  5
286
100
AcDbEntity
  8
0
100
AcDbLine
 62
7
  6
BYLAYER
 10
32.5078541405
 20
44.9565795207
 11
31.2078541405
 21
44.9565795207
  0
LINE
  5
287
100
AcDbEntity
  8
0
100
AcDbLine
 62
7
  6
BYLAYER
 10
24.8078541405
 20
44.9565795207
 11
23.5078541405
 21
44.9565795207
  0
LINE
  5
288
100
AcDbEntity
  8
0
100
AcDbLine
 62
7
  6
BYLAYER
 10
30.2247234236
 20
60.12149558
 11
29.8084120975
 21
62.4265795207
  0
LINE
  5
289
100
AcDbEntity
  8
0
100
AcDbLine
 62
7
  6
BYLAYER
 10
30.2247234236
 20
59.3324604156
 11
29.7078541405
 21
62.4265795207
  0
LINE
  5
28A
100
AcDbEntity
  8
0
100
AcDbLine
 62
7
  6
BYLAYER
 10
36.6569650687
 20
17.5162621396
 11
36.9893045484
 21
15.4265795207
  0
LINE
  5
28B
100
AcDbEntity
  8
0
100
AcDbLine
 62
7
  6
BYLAYER
 10
36.6569650687
 20
18.287816504
 11
37.0778541405
 21
15.4265795207
  0
LINE
  5
28C
100
AcDbEntity
  8
0
100
AcDbLine
 62
7
  6
BYLAYER
 10
35.1078541405
 20
46.4265795207
 11
35.1078541405
 21
54.9265795207
  0
LINE
  5
28D
100
AcDbEntity
  8
0
100
AcDbLine
 62
7
  6
BYLAYER
 10
35.5078541405
 20
34.9265795207
 11
35.5078541405
 21
36.9265795207
  0
LINE
  5
28E
100
AcDbEntity
  8
0
100
AcDbLine
 62
7
  6
BYLAYER
 10
35.5078541405
 20
41.4265795207
 11
35.5078541405
 21
42.9265795207
  0
LINE
  5
28F
100
AcDbEntity
  8
0
100
AcDbLine
 62
7
  6
BYLAYER
 10
36.4578541405
 20
42.9265795207
 11
36.4578541405
 21
34.9265795207
  0
LINE
  5
290
100
AcDbEntity
  8
0
100
AcDbLine
 62
7
  6
BYLAYER
 10
36.6569650687
 20
60.3368969018
 11
36.6569650687
 21
59.5653425374
  0
LINE
  5
291
100
AcDbEntity
  8
0
100
AcDbLine
 62
7
  6
BYLAYER
 10
36.6569650687
 20
18.287816504
 11
36.6569650687
 21
17.5162621396
  0
LINE
  5
292
100
AcDbEntity
  8
0
100
AcDbLine
 62
7
  6
BYLAYER
 10
18.8078541405
 20
46.4265795207
 11
20.9078541405
 21
46.4265795207
  0
LINE
  5
293
100
AcDbEntity
  8
0
100
AcDbLine
 62
7
  6
BYLAYER
 10
35.1078541405
 20
46.4265795207
 11
37.2078541405
 21
46.4265795207
  0
LINE
  5
294
100
AcDbEntity
  8
0
100
AcDbLine
 62
7
  6
BYLAYER
 10
30.7078541405
 20
47.4265795207
 11
25.3078541405
 21
47.4265795207
  0
LINE
  5
295
100
AcDbEntity
  8
0
100
AcDbLine
 62
7
  6
BYLAYER
 10
23.5078541405
 20
47.6965795207
 11
24.8078541405
 21
47.6965795207
  0
LINE
  5
296
100
AcDbEntity
  8
0
100
AcDbLine
 62
7
  6
BYLAYER
 10
31.2078541405
 20
47.6965795207
 11
32.5078541405
 21
47.6965795207
  0
LINE
  5
297
100
AcDbEntity
  8
0
100
AcDbLine
 62
7
  6
BYLAYER
 10
37.7078541405
 20
15.4265795207
 11
37.7078541405
 21
44.5565795207
  0
LINE
  5
298
100
AcDbEntity
  8
0
100
AcDbLine
 62
7
  6
BYLAYER
 10
37.7078541405
 20
54.9265795207
 11
37.7078541405
 21
62.4265795207
  0
LINE
  5
299
100
AcDbEntity
  8
0
100
AcDbLine
 62
7
  6
BYLAYER
 10
30.5078541405
 20
47.8265795207
 11
29.4078541405
 21
47.8265795207
  0
LINE
  5
29A
100
AcDbEntity
  8
0
100
AcDbLine
 62
7
  6
BYLAYER
 10
26.6078541405
 20
47.8265795207
 11
25.5078541405
 21
47.8265795207
  0
LINE
  5
29B
100
AcDbEntity
  8
0
100
AcDbLine
 62
7
  6
BYLAYER
 10
26.6078541405
 20
49.8265795207
 11
29.4078541405
 21
49.8265795207
  0
LINE
  5
29C
100
AcDbEntity
  8
0
100
AcDbLine
 62
7
  6
BYLAYER
 10
37.7078541405
 20
44.5565795207
 11
37.2078541405
 21
46.4265795207
  0
LINE
  5
29D
100
AcDbEntity
  8
0
100
AcDbLine
 62
7
  6
BYLAYER
 10
39.0578541405
 20
43.9265795207
 11
39.0578541405
 21
53.4765795207
  0
LINE
  5
29E
100
AcDbEntity
  8
0
100
AcDbLine
 62
7
  6
BYLAYER
 10
39.5078541405
 20
15.4265795207
 11
39.5078541405
 21
22.9265795207
  0
LINE
  5
29F
100
AcDbEntity
  8
0
100
AcDbLine
 62
7
  6
BYLAYER
 10
39.5078541405
 20
33.9265795207
 11
39.5078541405
 21
43.9265795207
  0
LINE
  5
2A0
100
AcDbEntity
  8
0
100
AcDbLine
 62
7
  6
BYLAYER
 10
39.5078541405
 20
54.9265795207
 11
39.5078541405
 21
62.4265795207
  0
LINE
  5
2A1
100
AcDbEntity
  8
0
100
AcDbLine
 62
7
  6
BYLAYER
 10
40.1578541405
 20
24.3765795207
 11
40.1578541405
 21
29.4265795207
  0
LINE
  5
2A2
100
AcDbEntity
  8
0
100
AcDbLine
 62
7
  6
BYLAYER
 10
40.7578541405
 20
34.9265795207
 11
40.7578541405
 21
42.9265795207
  0
LINE
  5
2A3
100
AcDbEntity
  8
0
100
AcDbLine
 62
7
  6
BYLAYER
 10
40.8240833414
 20
17.715130381
 11
40.8240833414
 21
18.5028238105
  0
LINE
  5
2A4
100
AcDbEntity
  8
0
100
AcDbLine
 62
7
  6
BYLAYER
 10
40.8240833414
 20
59.3503352309
 11
40.8240833414
 21
60.1380286604
  0
LINE
  5
2A5
100
AcDbEntity
  8
0
100
AcDbLine
 62
7
  6
BYLAYER
 10
41.0078541405
 20
29.4265795207
 11
41.0078541405
 21
33.9265795207
  0
LINE
  5
2A6
100
AcDbEntity
  8
0
100
AcDbLine
 62
7
  6
BYLAYER
 10
30.5078541405
 20
50.711965284
 11
25.5078541405
 21
50.711965284
  0
LINE
  5
2A7
100
AcDbEntity
  8
0
100
AcDbLine
 62
7
  6
BYLAYER
 10
41.7078541405
 20
42.9265795207
 11
41.7078541405
 21
41.4265795207
  0
LINE
  5
2A8
100
AcDbEntity
  8
0
100
AcDbLine
 62
7
  6
BYLAYER
 10
41.7078541405
 20
36.9265795207
 11
41.7078541405
 21
34.9265795207
  0
LINE
  5
2A9
100
AcDbEntity
  8
0
100
AcDbLine
 62
7
  6
BYLAYER
 10
43.2078541405
 20
32.9265795207
 11
43.2078541405
 21
24.3765795207
  0
LINE
  5
2AA
100
AcDbEntity
  8
0
100
AcDbLine
 62
7
  6
BYLAYER
 10
47.6472961836
 20
62.4265795207
 11
47.231604498
 21
60.1249264823
  0
LINE
  5
2AB
100
AcDbEntity
  8
0
100
AcDbLine
 62
7
  6
BYLAYER
 10
30.5078541405
 20
52.1941439554
 11
25.5078541405
 21
52.1941439554
  0
LINE
  5
2AC
100
AcDbEntity
  8
0
100
AcDbLine
 62
7
  6
BYLAYER
 10
7.0578541405
 20
53.4765795207
 11
16.9578541405
 21
53.4765795207
  0
LINE
  5
2AD
100
AcDbEntity
  8
0
100
AcDbLine
 62
7
  6
BYLAYER
 10
39.0578541405
 20
53.4765795207
 11
48.9578541405
 21
53.4765795207
  0
LINE
  5
2AE
100
AcDbEntity
  8
0
100
AcDbLine
 62
7
  6
BYLAYER
 10
47.231604498
 20
17.7282325591
 11
47.6472961836
 21
15.4265795207
  0
LINE
  5
2AF
100
AcDbEntity
  8
0
100
AcDbLine
 62
7
  6
BYLAYER
 10
47.231604498
 20
59.3361697512
 11
47.7478541405
 21
62.4265795207
  0
LINE
  5
2B0
100
AcDbEntity
  8
0
100
AcDbLine
 62
7
  6
BYLAYER
 10
40.8240833414
 20
18.5028238105
 11
40.2478541405
 21
15.4265795207
  0
LINE
  5
2B1
100
AcDbEntity
  8
0
100
AcDbLine
 62
7
  6
BYLAYER
 10
40.3606120946
 20
15.4265795207
 11
40.8240833414
 21
17.715130381
  0
LINE
  5
2B2
100
AcDbEntity
  8
0
100
AcDbLine
 62
7
  6
BYLAYER
 10
6.0578541405
 20
54.9265795207
 11
25.5078541405
 21
54.9265795207
  0
LINE
  5
2B3
100
AcDbEntity
  8
0
100
AcDbLine
 62
7
  6
BYLAYER
 10
30.5078541405
 20
54.9265795207
 11
49.9578541405
 21
54.9265795207
  0
LINE
  5
2B4
100
AcDbEntity
  8
0
100
AcDbLine
 62
7
  6
BYLAYER
 10
26.7578541405
 20
55.8265795207
 11
25.5078541405
 21
55.8265795207
  0
LINE
  5
2B5
100
AcDbEntity
  8
0
100
AcDbLine
 62
7
  6
BYLAYER
 10
29.2578541405
 20
55.8265795207
 11
30.5078541405
 21
55.8265795207
  0
LINE
  5
2B6
100
AcDbEntity
  8
0
100
AcDbLine
 62
7
  6
BYLAYER
 10
40.8240833414
 20
60.1380286604
 11
40.3606120946
 21
62.4265795207
  0
LINE
  5
2B7
100
AcDbEntity
  8
0
100
AcDbLine
 62
7
  6
BYLAYER
 10
40.8240833414
 20
59.3503352309
 11
40.2478541405
 21
62.4265795207
  0
LINE
  5
2B8
100
AcDbEntity
  8
0
100
AcDbLine
 62
7
  6
BYLAYER
 10
47.231604498
 20
18.5169892902
 11
47.7478541405
 21
15.4265795207
  0
LINE
  5
2B9
100
AcDbEntity
  8
0
100
AcDbLine
 62
7
  6
BYLAYER
 10
45.7078541405
 20
24.3765795207
 11
45.7078541405
 21
32.9265795207
  0
LINE
  5
2BA
100
AcDbEntity
  8
0
100
AcDbLine
 62
7
  6
BYLAYER
 10
47.0578541405
 20
41.4265795207
 11
47.0578541405
 21
36.9265795207
  0
LINE
  5
2BB
100
AcDbEntity
  8
0
100
AcDbLine
 62
7
  6
BYLAYER
 10
47.231604498
 20
60.1249264823
 11
47.231604498
 21
59.3361697512
  0
LINE
  5
2BC
100
AcDbEntity
  8
0
100
AcDbLine
 62
7
  6
BYLAYER
 10
47.231604498
 20
18.5169892902
 11
47.231604498
 21
17.7282325591
  0
LINE
  5
2BD
100
AcDbEntity
  8
0
100
AcDbLine
 62
7
  6
BYLAYER
 10
48.3078541405
 20
15.4265795207
 11
48.3078541405
 21
22.9265795207
  0
LINE
  5
2BE
100
AcDbEntity
  8
0
100
AcDbLine
 62
7
  6
BYLAYER
 10
48.3078541405
 20
54.9265795207
 11
48.3078541405
 21
62.4265795207
  0
LINE
  5
2BF
100
AcDbEntity
  8
0
100
AcDbLine
 62
7
  6
BYLAYER
 10
48.9578541405
 20
53.4765795207
 11
48.9578541405
 21
24.3765795207
  0
LINE
  5
2C0
100
AcDbEntity
  8
0
100
AcDbLine
 62
7
  6
BYLAYER
 10
29.2578541405
 20
60.1141439554
 11
26.7578541405
 21
60.1141439554
  0
LINE
  5
2C1
100
AcDbEntity
  8
0
100
AcDbLine
 62
7
  6
BYLAYER
 10
49.9578541405
 20
15.4265795207
 11
49.9578541405
 21
62.4265795207
  0
LINE
  5
2C2
100
AcDbEntity
  8
0
100
AcDbLine
 62
7
  6
BYLAYER
 10
29.2578541405
 20
61.3265795207
 11
26.7578541405
 21
61.3265795207
  0
LINE
  5
2C3
100
AcDbEntity
  8
0
100
AcDbLine
 62
7
  6
BYLAYER
 10
6.0578541405
 20
62.4265795207
 11
49.9578541405
 21
62.4265795207
  0
SPLINE
  5
2C4
100
AcDbEntity
  8
0
100
AcDbSpline
 62
7
  6
BYLAYER
 70
0
 71
3
 72
25
 73
21
 74
0
 42
0.0000001
 43
0.0000001
 44
0.0000000001
 40
0.0
 40
0.0
 40
0.0
 40
0.0
 40
0.0621747418
 40
0.1244556741
 40
0.1867957181
 40
0.2492514988
 40
0.2805481604
 40
0.3118695918
 40
0.3745191965
 40
0.437237499
 40
0.4999929421
 40
0.562748823
 40
0.6254683859
 40
0.6881199226
 40
0.7194424995
 40
0.7507403826
 40
0.8131986926
 40
0.8755411151
 40
0.937823994
 40
1.0
 40
1.0
 40
1.0
 40
1.0
 10
40.8240833414
 20
17.715130381
 30
0.0
 10
40.8561480931
 20
17.8998509486
 30
0.0
 10
40.9533003402
 20
18.2647190054
 30
0.0
 10
41.1924538024
 20
18.7777795956
 30
0.0
 10
41.5182327169
 20
19.24183045
 30
0.0
 10
41.8534507086
 20
19.5759353258
 30
0.0
 10
42.1534178841
 20
19.8052250395
 30
0.0
 10
42.4726206699
 20
20.0079681666
 30
0.0
 10
42.9034055406
 20
20.2082648748
 30
0.0
 10
43.4540400255
 20
20.3557778887
 30
0.0
 10
44.0222477802
 20
20.406271559
 30
0.0
 10
44.5906609836
 20
20.3581014773
 30
0.0
 10
45.1419051876
 20
20.2128412237
 30
0.0
 10
45.5735199222
 20
20.014308414
 30
0.0
 10
45.8935647654
 20
19.8128729226
 30
0.0
 10
46.1944856131
 20
19.5848118847
 30
0.0
 10
46.5310934445
 20
19.2520814763
 30
0.0
 10
46.858804371
 20
18.7893680651
 30
0.0
 10
47.1000954533
 20
18.2772910001
 30
0.0
 10
47.1987694438
 20
17.9128216299
 30
0.0
 10
47.231604498
 20
17.7282325591
 30
0.0
  0
SPLINE
  5
2C5
100
AcDbEntity
  8
0
100
AcDbSpline
 62
7
  6
BYLAYER
 70
0
 71
3
 72
25
 73
21
 74
0
 42
0.0000001
 43
0.0000001
 44
0.0000000001
 40
0.0
 40
0.0
 40
0.0
 40
0.0
 40
0.0621717131
 40
0.1244260493
 40
0.1867458741
 40
0.2491781575
 40
0.2804654179
 40
0.3117784358
 40
0.374415726
 40
0.4371289761
 40
0.499886364
 40
0.5626510042
 40
0.6253851249
 40
0.6880543404
 40
0.7193862131
 40
0.7506935122
 40
0.8131669927
 40
0.8755249947
 40
0.9378096774
 40
1.0
 40
1.0
 40
1.0
 40
1.0
 10
36.6569650687
 20
60.3368969018
 30
0.0
 10
36.6358809981
 20
60.1467548101
 30
0.0
 10
36.5591140635
 20
59.769166033
 30
0.0
 10
36.3446085771
 20
59.2328645796
 30
0.0
 10
36.0372689604
 20
58.7427652158
 30
0.0
 10
35.7120158484
 20
58.3858114398
 30
0.0
 10
35.4169206887
 20
58.1382660036
 30
0.0
 10
35.100539605
 20
57.9174740943
 30
0.0
 10
34.6695794886
 20
57.6953753542
 30
0.0
 10
34.113533074
 20
57.524240981
 30
0.0
 10
33.5355970501
 20
57.453489683
 30
0.0
 10
32.9541598877
 20
57.4854282071
 30
0.0
 10
32.3877238026
 20
57.6189806293
 30
0.0
 10
31.9426286163
 20
57.8117345957
 30
0.0
 10
31.6119217453
 20
58.0108488909
 30
0.0
 10
31.3006147769
 20
58.2380869801
 30
0.0
 10
30.9517666773
 20
58.5724529991
 30
0.0
 10
30.6117038937
 20
59.0408505824
 30
0.0
 10
30.3611018583
 20
59.5615566001
 30
0.0
 10
30.258734743
 20
59.9331775082
 30
0.0
 10
30.2247234236
 20
60.12149558
 30
0.0
  0
SPLINE
  5
2C6
100
AcDbEntity
  8
0
100
AcDbSpline
 62
7
  6
BYLAYER
 70
0
 71
3
 72
25
 73
21
 74
0
 42
0.0000001
 43
0.0000001
 44
0.0000000001
 40
0.0
 40
0.0
 40
0.0
 40
0.0
 40
0.0621831105
 40
0.1244761932
 40
0.1868314481
 40
0.2493014892
 40
0.2806033983
 40
0.3119291238
 40
0.3745858017
 40
0.4373061207
 40
0.5000586642
 40
0.562807648
 40
0.6255177011
 40
0.6881585975
 40
0.7194749424
 40
0.7507668217
 40
0.8132159872
 40
0.8755514066
 40
0.9378280284
 40
1.0
 40
1.0
 40
1.0
 40
1.0
 10
15.4043726437
 20
60.0134446771
 30
0.0
 10
15.365313583
 20
59.833014132
 30
0.0
 10
15.2554079095
 20
59.4778984621
 30
0.0
 10
15.0013739117
 20
58.9818306233
 30
0.0
 10
14.6651604959
 20
58.5361724409
 30
0.0
 10
14.3249434276
 20
58.217741393
 30
0.0
 10
14.02308396
 20
58.0007044453
 30
0.0
 10
13.7033390669
 20
57.8099188806
 30
0.0
 10
13.2743055649
 20
57.6237383433
 30
0.0
 10
12.7290457227
 20
57.4910493685
 30
0.0
 10
12.1688363699
 20
57.4527224608
 30
0.0
 10
11.6102754045
 20
57.509989022
 30
0.0
 10
11.0699092526
 20
57.6610583014
 30
0.0
 10
10.6475402461
 20
57.8616596144
 30
0.0
 10
10.3345629694
 20
58.063163134
 30
0.0
 10
10.0403733913
 20
58.2902930914
 30
0.0
 10
9.7113439456
 20
58.6200621303
 30
0.0
 10
9.3907094623
 20
59.0768528523
 30
0.0
 10
9.1539508594
 20
59.5812411393
 30
0.0
 10
9.0563771661
 20
59.9398574168
 30
0.0
 10
9.0235722763
 20
60.1214955801
 30
0.0
  0
SPLINE
  5
2C7
100
AcDbEntity
  8
0
100
AcDbSpline
 62
7
  6
BYLAYER
 70
0
 71
3
 72
25
 73
21
 74
0
 42
0.0000001
 43
0.0000001
 44
0.0000000001
 40
0.0
 40
0.0
 40
0.0
 40
0.0
 40
0.0621759995
 40
0.1244588653
 40
0.1868012815
 40
0.2492595855
 40
0.280557466
 40
0.3118800405
 40
0.3745315742
 40
0.4372511348
 40
0.5000070148
 40
0.5627624589
 40
0.6254807636
 40
0.6881303713
 40
0.7194518051
 40
0.7507484693
 40
0.813204256
 40
0.8755443064
 40
0.9378252517
 40
1.0
 40
1.0
 40
1.0
 40
1.0
 10
47.231604498
 20
60.1249264823
 30
0.0
 10
47.1987694472
 20
59.9403374308
 30
0.0
 10
47.1000954936
 20
59.5758681121
 30
0.0
 10
46.8588044463
 20
59.0637911167
 30
0.0
 10
46.5310935937
 20
58.6010777515
 30
0.0
 10
46.1944858342
 20
58.268347333
 30
0.0
 10
45.8935650235
 20
58.0402863015
 30
0.0
 10
45.5735202349
 20
57.8388507696
 30
0.0
 10
45.1419055333
 20
57.6403179387
 30
0.0
 10
44.5906613629
 20
57.4950576403
 30
0.0
 10
44.0222481737
 20
57.4468874816
 30
0.0
 10
43.4540404045
 20
57.4973810751
 30
0.0
 10
42.9034058857
 20
57.6448940442
 30
0.0
 10
42.472620982
 20
57.8451907312
 30
0.0
 10
42.1534181414
 20
58.0479338181
 30
0.0
 10
41.853450929
 20
58.2772235384
 30
0.0
 10
41.5182328652
 20
58.6113284044
 30
0.0
 10
41.1924538771
 20
59.0753793051
 30
0.0
 10
40.9533003801
 20
59.588439965
 30
0.0
 10
40.8561480965
 20
59.9533080735
 30
0.0
 10
40.8240833414
 20
60.1380286604
 30
0.0
  0
SPLINE
  5
2C8
100
AcDbEntity
  8
0
100
AcDbSpline
 62
7
  6
BYLAYER
 70
0
 71
3
 72
25
 73
21
 74
0
 42
0.0000001
 43
0.0000001
 44
0.0000000001
 40
0.0
 40
0.0
 40
0.0
 40
0.0
 40
0.0621902973
 40
0.1244749688
 40
0.186833008
 40
0.2493065531
 40
0.2806138956
 40
0.3119458178
 40
0.3746151455
 40
0.4373493649
 40
0.5001140443
 40
0.5628713929
 40
0.6255845442
 40
0.6882217224
 40
0.7195346907
 40
0.7508219078
 40
0.8132541266
 40
0.8755739143
 40
0.9378282617
 40
1.0
 40
1.0
 40
1.0
 40
1.0
 10
30.2247234236
 20
17.7316634614
 30
0.0
 10
30.2587347292
 20
17.9199814567
 30
0.0
 10
30.361101739
 20
18.2916022761
 30
0.0
 10
30.6117038003
 20
18.8123082903
 30
0.0
 10
30.9517667326
 20
19.2807061033
 30
0.0
 10
31.3006151626
 20
19.6150724487
 30
0.0
 10
31.6119226392
 20
19.8423106624
 30
0.0
 10
31.9426300641
 20
20.0414252635
 30
0.0
 10
32.387726189
 20
20.2341791468
 30
0.0
 10
32.9541631476
 20
20.3677312041
 30
0.0
 10
33.5356006426
 20
20.3996692381
 30
0.0
 10
34.1135363013
 20
20.3289174733
 30
0.0
 10
34.6695818197
 20
20.1577827945
 30
0.0
 10
35.1005409938
 20
19.9356840341
 30
0.0
 10
35.4169215456
 20
19.7148924673
 30
0.0
 10
35.7120162067
 20
19.4673471893
 30
0.0
 10
36.0372690114
 20
19.1103937611
 30
0.0
 10
36.3446084954
 20
18.6202946364
 30
0.0
 10
36.5591139558
 20
18.0839931812
 30
0.0
 10
36.6358809895
 20
17.7064043085
 30
0.0
 10
36.6569650687
 20
17.5162621396
 30
0.0
  0
SPLINE
  5
2C9
100
AcDbEntity
  8
0
100
AcDbSpline
 62
7
  6
BYLAYER
 70
0
 71
3
 72
25
 73
21
 74
0
 42
0.0000001
 43
0.0000001
 44
0.0000000001
 40
0.0
 40
0.0
 40
0.0
 40
0.0
 40
0.0621719655
 40
0.124448575
 40
0.1867839884
 40
0.2492331483
 40
0.2805250252
 40
0.3118413678
 40
0.3744822613
 40
0.4371923123
 40
0.4999412951
 40
0.5626938395
 40
0.6254141607
 40
0.6880708415
 40
0.7193965693
 40
0.7506984808
 40
0.8131685275
 40
0.8755237884
 40
0.9378168834
 40
1.0
 40
1.0
 40
1.0
 40
1.0
 10
9.0235722763
 20
17.7316634613
 30
0.0
 10
9.0563771629
 20
17.9133016067
 30
0.0
 10
9.1539508223
 20
18.2719178363
 30
0.0
 10
9.3907093928
 20
18.7763060587
 30
0.0
 10
9.7113438082
 20
19.2330967376
 30
0.0
 10
10.0403731877
 20
19.5628657848
 30
0.0
 10
10.3345627317
 20
19.7899957358
 30
0.0
 10
10.6475399578
 20
19.9914992916
 30
0.0
 10
11.0699089338
 20
20.1921006235
 30
0.0
 10
11.610275054
 20
20.3431699432
 30
0.0
 10
12.1688360052
 20
20.4004365744
 30
0.0
 10
12.7290453698
 20
20.3621097371
 30
0.0
 10
13.2743052422
 20
20.2294208038
 30
0.0
 10
13.7033387742
 20
20.0432402863
 30
0.0
 10
14.0230837166
 20
19.8524547596
 30
0.0
 10
14.3249432184
 20
19.6354178065
 30
0.0
 10
14.6651603526
 20
19.3169867693
 30
0.0
 10
15.0013738377
 20
18.871328546
 30
0.0
 10
15.2554078702
 20
18.3752606438
 30
0.0
 10
15.3653135791
 20
18.0201449271
 30
0.0
 10
15.4043726437
 20
17.8397143643
 30
0.0
  0
SPLINE
  5
2CA
100
AcDbEntity
  8
0
100
AcDbSpline
 62
7
  6
BYLAYER
 70
0
 71
3
 72
25
 73
21
 74
0
 42
0.0000001
 43
0.0000001
 44
0.0000000001
 40
0.0
 40
0.0
 40
0.0
 40
0.0
 40
0.0621733358
 40
0.124452051
 40
0.1867899243
 40
0.2492420059
 40
0.2805355801
 40
0.3118536249
 40
0.3744974267
 40
0.4372098596
 40
0.4999603564
 40
0.5627132681
 40
0.6254326629
 40
0.6880871612
 40
0.7194115615
 40
0.7507119277
 40
0.8131781333
 40
0.8755294026
 40
0.9378192115
 40
1.0
 40
1.0
 40
1.0
 40
1.0
 10
26.0258129577
 20
60.1147384733
 30
0.0
 10
25.9926150431
 20
59.9326388078
 30
0.0
 10
25.8940796705
 20
59.573175782
 30
0.0
 10
25.6554369984
 20
59.0679026997
 30
0.0
 10
25.3325663851
 20
58.610716635
 30
0.0
 10
25.0014814992
 20
58.281098078
 30
0.0
 10
24.7056052465
 20
58.0544085442
 30
0.0
 10
24.3909354549
 20
57.85356253
 30
0.0
 10
23.9664851679
 20
57.6542008941
 30
0.0
 10
23.4238461674
 20
57.5052811737
 30
0.0
 10
22.8633894962
 20
57.4507884235
 30
0.0
 10
22.3018121657
 20
57.4924417235
 30
0.0
 10
21.7558463901
 20
57.6289033709
 30
0.0
 10
21.3268659968
 20
57.8184942027
 30
0.0
 10
21.0075966229
 20
58.0120815506
 30
0.0
 10
20.7065082066
 20
58.2319383598
 30
0.0
 10
20.3678218284
 20
58.5538870544
 30
0.0
 10
20.0343693071
 20
59.0035542392
 30
0.0
 10
19.7839970944
 20
59.5032236428
 30
0.0
 10
19.6770927111
 20
59.8603440433
 30
0.0
 10
19.6396518744
 20
60.0416415556
 30
0.0
  0
SPLINE
  5
2CB
100
AcDbEntity
  8
0
100
AcDbSpline
 62
7
  6
BYLAYER
 70
0
 71
3
 72
25
 73
21
 74
0
 42
0.0000001
 43
0.0000001
 44
0.0000000001
 40
0.0
 40
0.0
 40
0.0
 40
0.0
 40
0.0621807823
 40
0.1244705788
 40
0.186821842
 40
0.2492880419
 40
0.2805884057
 40
0.3119128037
 40
0.3745672991
 40
0.4372866917
 40
0.5000396025
 40
0.5627901002
 40
0.6255025353
 40
0.68814634
 40
0.7194643871
 40
0.7507579638
 40
0.813210051
 40
0.8755479303
 40
0.937826658
 40
1.0
 40
1.0
 40
1.0
 40
1.0
 10
19.6396518744
 20
17.8115174858
 30
0.0
 10
19.6770927074
 20
17.9928149801
 30
0.0
 10
19.783997055
 20
18.3499353329
 30
0.0
 10
20.0343692332
 20
18.8496046718
 30
0.0
 10
20.3678216845
 20
19.2992718147
 30
0.0
 10
20.7065079958
 20
19.6212205197
 30
0.0
 10
21.0075963773
 20
19.8410773232
 30
0.0
 10
21.3268657009
 20
20.0346647094
 30
0.0
 10
21.7558460637
 20
20.2242555613
 30
0.0
 10
22.3018118083
 20
20.3607172506
 30
0.0
 10
22.8633891264
 20
20.4023706222
 30
0.0
 10
23.4238458117
 20
20.3478779432
 30
0.0
 10
23.9664848442
 20
20.1989582639
 30
0.0
 10
24.390935162
 20
19.9995966474
 30
0.0
 10
24.7056050049
 20
19.7987506703
 30
0.0
 10
25.0014812922
 20
19.5720611301
 30
0.0
 10
25.3325662452
 20
19.2424425819
 30
0.0
 10
25.6554369276
 20
18.7852564737
 30
0.0
 10
25.8940796327
 20
18.2799833259
 30
0.0
 10
25.9926150398
 20
17.9205202517
 30
0.0
 10
26.0258129577
 20
17.7384205681
 30
0.0
  0
ELLIPSE
  5
2CC
100
AcDbEntity
  8
0
100
AcDbEllipse
 62
7
  6
BYLAYER
 10
44.0289951607
 20
17.9130040805
 30
0.0
 11
0.0
 21
3.4815975536
 31
0.0
 40
0.9340299781
 41
-1.3964348518
 42
1.4005646747
  0
ELLIPSE
  5
2CD
100
AcDbEntity
  8
0
100
AcDbEllipse
 62
7
  6
BYLAYER
 10
33.4251656312
 20
59.9452791795
 30
0.0
 11
-0.0
 21
3.4808568803
 31
0.0
 40
0.9340299781
 41
-4.5354125942
 42
-1.6801645494
  0
ELLIPSE
  5
2CE
100
AcDbEntity
  8
0
100
AcDbEllipse
 62
7
  6
BYLAYER
 10
12.2246954893
 20
59.945409578
 30
0.0
 11
0.0
 21
3.4815975536
 31
0.0
 40
0.9340299781
 41
-4.5354125942
 42
-1.7819698314
  0
ELLIPSE
  5
2CF
100
AcDbEntity
  8
0
100
AcDbEllipse
 62
7
  6
BYLAYER
 10
44.0289951607
 20
59.9401549609
 30
0.0
 11
0.0
 21
3.4815975536
 31
0.0
 40
0.9340299781
 41
-4.5421573283
 42
-1.7451578018
  0
ELLIPSE
  5
2D0
100
AcDbEntity
  8
0
100
AcDbEllipse
 62
7
  6
BYLAYER
 10
33.4251656312
 20
17.9078798619
 30
0.0
 11
-0.0
 21
3.4808568803
 31
0.0
 40
0.9340299781
 41
-1.4614281042
 42
1.3938199406
  0
ELLIPSE
  5
2D1
100
AcDbEntity
  8
0
100
AcDbEllipse
 62
7
  6
BYLAYER
 10
12.2246954893
 20
17.9077494634
 30
0.0
 11
0.0
 21
3.4815975536
 31
0.0
 40
0.9340299781
 41
-1.3596228222
 42
1.3938199406
  0
ELLIPSE
  5
2D2
100
AcDbEntity
  8
0
100
AcDbEllipse
 62
7
  6
BYLAYER
 10
22.8256279727
 20
59.9436942722
 30
0.0
 11
-0.0
 21
3.4815975536
 31
0.0
 40
0.9340299781
 41
-4.5106649376
 42
-1.7494040626
  0
ELLIPSE
  5
2D3
100
AcDbEntity
  8
0
100
AcDbEllipse
 62
7
  6
BYLAYER
 10
22.8256279727
 20
17.9094647692
 30
0.0
 11
-0.0
 21
3.4815975536
 31
0.0
 40
0.9340299781
 41
-1.392188591
 42
1.369072284
  0
ENDSEC
  0
SECTION
  2
OBJECTS
  0
DICTIONARY
  5
C
100
AcDbDictionary
280
0
281
1
  3
ACAD_GROUP
350
D
  3
ACAD_MLINESTYLE
350
17
  3
ACAD_LAYOUT
350
1A
  3
ACAD_PLOTSETTINGS
350
19
  3
ACAD_PLOTSTYLENAME
350
E
  0
DICTIONARY
  5
D
102
{ACAD_REACTORS
330
C
102
}
100
AcDbDictionary
280
0
281
1
  0
ACDBDICTIONARYWDFLT
  5
E
102
{ACAD_REACTORS
330
C
102
}
100
AcDbDictionary
281
1
  3
Normal
350
F
100
AcDbDictionaryWithDefault
340
F
  0
DICTIONARY
  5
17
102
{ACAD_REACTORS
330
C
102
}
100
AcDbDictionary
280
0
281
1
  3
Standard
350
18
  0
DICTIONARY
  5
19
102
{ACAD_REACTORS
330
C
102
}
100
AcDbDictionary
281
1
  0
DICTIONARY
  5
1A
102
{ACAD_REACTORS
330
C
102
}
100
AcDbDictionary
281
1
  3
Model
350
2D4
  3
Layout1
350
2D5
  0
ACDBPLACEHOLDER
  5
F
102
{ACAD_REACTORS
330
E
102
}
  0
MLINESTYLE
  5
18
102
{ACAD_REACTORS
330
17
102
}
100
AcDbMlineStyle
  2
STANDARD
 70
0
  3

 62
256
 51
90.0
 52
90.0
 71
2
 49
0.5
 62
256
  6
BYLAYER
 49
-0.5
 62
256
  6
BYLAYER
  0
LAYOUT
  5
2D4
102
{ACAD_REACTORS
330
1A
102
}
100
AcDbPlotSettings
  1

  2
none_device
  4

  6

 40
0.0
 41
0.0
 42
0.0
 43
0.0
 44
210.0
 45
297.0
 46
0.0
 47
0.0
 48
0.0
 49
0.0
140
0.0
141
0.0
142
1.0
143
1.0
 70
1024
 72
1
 73
0
 74
0
  7

 75
0
147
1.0
148
0.0
149
0.0
100
AcDbLayout
  1
Model
 70
0
 71
0
 10
0.0
 20
0.0
 11
210.0
 21
297.0
 12
0.0
 22
0.0
 32
0.0
 14
0.0
 24
0.0
 34
0.0
 15
0.0
 25
0.0
 35
0.0
146
0.0
 13
0.0
 23
0.0
 33
0.0
 16
1.0
 26
0.0
 36
0.0
 17
0.0
 27
1.0
 37
0.0
 76
0
330
210
345
0
346
0
  0
LAYOUT
  5
2D5
102
{ACAD_REACTORS
330
1A
102
}
100
AcDbPlotSettings
  1

  2
none_device
  4

  6

 40
0.0
 41
0.0
 42
0.0
 43
0.0
 44
210.0
 45
297.0
 46
0.0
 47
0.0
 48
0.0
 49
0.0
140
0.0
141
0.0
142
1.0
143
1.0
 70
0
 72
1
 73
0
 74
0
  7

 75
0
147
1.0
148
0.0
149
0.0
100
AcDbLayout
  1
Layout1
 70
0
 71
1
 10
0.0
 20
0.0
 11
210.0
 21
297.0
 12
0.0
 22
0.0
 32
0.0
 14
0.0
 24
0.0
 34
0.0
 15
0.0
 25
0.0
 35
0.0
146
0.0
 13
0.0
 23
0.0
 33
0.0
 16
1.0
 26
0.0
 36
0.0
 17
0.0
 27
1.0
 37
0.0
 76
0
330
211
345
0
346
0
  0
ENDSEC
  0
EOF
