999
DXF file: C:\Users\sesa63760\Dev\_Creo\CAD\MCADID0003486_3D-CAD\drw0001_1.dxf
999
Pro/ENGINEER 2019471 by Parametric Technology Corporation
  0
SECTION
  2
HEADER
  9
$ACADVER
  1
AC1024
  9
$DWGCODEPAGE
  3
ANSI_1252
  9
$EXTMAX
 10
77.0370268032
 20
108.9523664788
 30
0.0
  9
$EXTMIN
 10
0.0
 20
0.0
 30
0.0
  9
$LIMMIN
 10
0.0
 20
0.0
  9
$LIMMAX
 10
77.0370268032
 20
108.9523664788
  9
$VIEWCTR
 10
38.5185134016
 20
54.4761832394
  9
$VIEWSIZE
 40
108.9523664788
  9
$CLAYER
  8
0
  9
$LTSCALE
 40
7.1020801853
  9
$CELTYPE
  6
BYLAYER
  9
$DIMSCALE
 40
1.0
  9
$DIMASZ
 40
0.9171074619
  9
$DIMEXO
 40
1.0
  9
$DIMDLI
 40
4.9068917644
  9
$DIMEXE
 40
1.0
  9
$DIMCEN
 40
1.1621585758
  9
$DIMLFAC
 40
1.0
  9
$DIMBLK
  1
_FILLED
  9
$DIMALT
 70
0
  9
$DIMALTF
 40
0.0393700787
  9
$DIMTXT
 40
1.2839504467
  9
$DIMTOL
 70
1
  9
$DIMLIM
 70
0
  9
$DIMTFAC
 40
1.0
  9
$DIMTP
 40
0.01
  9
$DIMTM
 40
0.01
  9
$DIMGAP
 40
0.625
  9
$DIMDSEP
 70
46
  9
$AUNITS
 70
0
  9
$PDMODE
 70
3
  9
$PDSIZE
 40
0.3125
  9
$HANDSEED
  5
324
  9
$TILEMODE
 70
1
  9
$MEASUREMENT
 70
1
  9
$INSUNITS
 70
4
  0
ENDSEC
  0
SECTION
  2
CLASSES
  0
CLASS
  1
ACDBDICTIONARYWDFLT
  2
AcDbDictionaryWithDefault
  3
AutoCAD 2000
 90
0
 91
1
280
0
281
0
  0
CLASS
  1
ACDBPLACEHOLDER
  2
AcDbPlaceHolder
  3
AutoCAD 2000
 90
0
 91
1
280
0
281
0
  0
CLASS
  1
LAYOUT
  2
AcDbLayout
  3
AutoCAD 2000
 90
0
 91
0
280
0
281
0
  0
ENDSEC
  0
SECTION
  2
TABLES
  0
TABLE
  2
VPORT
  5
8
100
AcDbSymbolTable
 70
2
  0
VPORT
  5
1F4
100
AcDbSymbolTableRecord
100
AcDbViewportTableRecord
  2
*ACTIVE
 70
0
 10
0.0
 20
0.0
 11
1.0
 21
1.0
 12
38.5185134016
 22
54.4761832394
 13
0.0
 23
0.0
 14
1.0
 24
1.0
 15
0.0
 25
0.0
 16
0.0
 26
0.0
 36
1.0
 17
0.0
 27
0.0
 37
0.0
 40
108.9523664788
 41
0.7070707071
 42
50.0
 43
0.0
 44
0.0
 50
0.0
 51
0.0
 71
0
 72
100
 73
1
 74
1
 75
0
 76
0
 77
0
 78
0
  0
ENDTAB
  0
TABLE
  2
LTYPE
  5
5
100
AcDbSymbolTable
 70
6
  0
LTYPE
  5
14
100
AcDbSymbolTableRecord
100
AcDbLinetypeTableRecord
  2
BYBLOCK
 70
0
  3

 72
65
 73
0
 40
0.0
  0
LTYPE
  5
15
100
AcDbSymbolTableRecord
100
AcDbLinetypeTableRecord
  2
BYLAYER
 70
0
  3

 72
65
 73
0
 40
0.0
  0
LTYPE
  5
16
100
AcDbSymbolTableRecord
100
AcDbLinetypeTableRecord
  2
CONTINUOUS
 70
64
  3
Solid line
 72
65
 73
0
 40
0.0
  0
LTYPE
  5
1F5
100
AcDbSymbolTableRecord
100
AcDbLinetypeTableRecord
  2
CENTER
 70
64
  3
____ _ ____ _ ____ _ ____ _ ____ _ ____ _ ____
 72
65
 73
4
 40
0.6
 49
0.375
 74
0
 49
-0.075
 74
0
 49
0.075
 74
0
 49
-0.075
 74
0
  0
LTYPE
  5
1F6
100
AcDbSymbolTableRecord
100
AcDbLinetypeTableRecord
  2
HIDDEN
 70
64
  3
- - - - - - - - - - - - - - - - - - - -
 72
65
 73
2
 40
0.2
 49
0.1
 74
0
 49
-0.1
 74
0
  0
LTYPE
  5
1F7
100
AcDbSymbolTableRecord
100
AcDbLinetypeTableRecord
  2
PHANTOM
 70
64
  3
_____ _ _ _____ _ _ _____ _ _ _____
 72
65
 73
6
 40
0.8
 49
0.45
 74
0
 49
-0.05
 74
0
 49
0.1
 74
0
 49
-0.05
 74
0
 49
0.1
 74
0
 49
-0.05
 74
0
  0
LTYPE
  5
1F8
100
AcDbSymbolTableRecord
100
AcDbLinetypeTableRecord
  2
DOT
 70
64
  3
. . . . . . . . . . . . . . . . . . . .
 72
65
 73
2
 40
0.2
 49
0.1
 74
0
 49
-0.1
 74
0
  0
LTYPE
  5
1F9
100
AcDbSymbolTableRecord
100
AcDbLinetypeTableRecord
  2
DASHED
 70
64
  3
- - - - - - - - - - - - - - - - - - - -
 72
65
 73
2
 40
0.2
 49
0.1
 74
0
 49
-0.1
 74
0
  0
ENDTAB
  0
TABLE
  2
LAYER
  5
2
100
AcDbSymbolTable
 70
36
  0
LAYER
  5
10
100
AcDbSymbolTableRecord
100
AcDbLayerTableRecord
  2
0
 70
0
 62
7
  6
CONTINUOUS
370
-3
390
F
  0
LAYER
  5
1FA
100
AcDbSymbolTableRecord
100
AcDbLayerTableRecord
  2
DEFAULT_1
 70
0
 62
7
  6
CENTER
370
-3
390
F
  0
LAYER
  5
1FB
100
AcDbSymbolTableRecord
100
AcDbLayerTableRecord
  2
DEFAULT_2
 70
0
 62
7
  6
HIDDEN
370
-3
390
F
  0
LAYER
  5
1FC
100
AcDbSymbolTableRecord
100
AcDbLayerTableRecord
  2
DEFAULT_3
 70
0
 62
7
  6
PHANTOM
370
-3
390
F
  0
LAYER
  5
1FD
100
AcDbSymbolTableRecord
100
AcDbLayerTableRecord
  2
00_COMPONENTS
 70
0
 62
7
  6
CONTINUOUS
370
-3
390
F
  0
LAYER
  5
1FE
100
AcDbSymbolTableRecord
100
AcDbLayerTableRecord
  2
01_1_DEFAULT_DATUMS
 70
0
 62
7
  6
CONTINUOUS
370
-3
390
F
  0
LAYER
  5
1FF
100
AcDbSymbolTableRecord
100
AcDbLayerTableRecord
  2
01_PLANES
 70
0
 62
7
  6
CONTINUOUS
370
-3
390
F
  0
LAYER
  5
200
100
AcDbSymbolTableRecord
100
AcDbLayerTableRecord
  2
02_COORD_SYS
 70
0
 62
7
  6
CONTINUOUS
370
-3
390
F
  0
LAYER
  5
201
100
AcDbSymbolTableRecord
100
AcDbLayerTableRecord
  2
03_AXES
 70
0
 62
7
  6
CONTINUOUS
370
-3
390
F
  0
LAYER
  5
202
100
AcDbSymbolTableRecord
100
AcDbLayerTableRecord
  2
04_POINTS
 70
0
 62
7
  6
CONTINUOUS
370
-3
390
F
  0
LAYER
  5
203
100
AcDbSymbolTableRecord
100
AcDbLayerTableRecord
  2
05_CURVES
 70
0
 62
7
  6
CONTINUOUS
370
-3
390
F
  0
LAYER
  5
204
100
AcDbSymbolTableRecord
100
AcDbLayerTableRecord
  2
06_SURFS
 70
0
 62
7
  6
CONTINUOUS
370
-3
390
F
  0
LAYER
  5
205
100
AcDbSymbolTableRecord
100
AcDbLayerTableRecord
  2
07_COSMETICS
 70
0
 62
7
  6
CONTINUOUS
370
-3
390
F
  0
LAYER
  5
206
100
AcDbSymbolTableRecord
100
AcDbLayerTableRecord
  2
10_NOTES
 70
0
 62
7
  6
CONTINUOUS
370
-3
390
F
  0
LAYER
  5
207
100
AcDbSymbolTableRecord
100
AcDbLayerTableRecord
  2
11_NOTES_PUB
 70
0
 62
7
  6
CONTINUOUS
370
-3
390
F
  0
LAYER
  5
208
100
AcDbSymbolTableRecord
100
AcDbLayerTableRecord
  2
13_REF_GTOL
 70
0
 62
7
  6
CONTINUOUS
370
-3
390
F
  0
LAYER
  5
209
100
AcDbSymbolTableRecord
100
AcDbLayerTableRecord
  2
16_MISC
 70
0
 62
7
  6
CONTINUOUS
370
-3
390
F
  0
LAYER
  5
20A
100
AcDbSymbolTableRecord
100
AcDbLayerTableRecord
  2
17_NO_PRINT
 70
0
 62
7
  6
CONTINUOUS
370
-3
390
F
  0
LAYER
  5
20B
100
AcDbSymbolTableRecord
100
AcDbLayerTableRecord
  2
18_DATUM_CAMS_JOINTS
 70
0
 62
7
  6
CONTINUOUS
370
-3
390
F
  0
LAYER
  5
20C
100
AcDbSymbolTableRecord
100
AcDbLayerTableRecord
  2
19_DATUM_FUNCTIONAL
 70
0
 62
7
  6
CONTINUOUS
370
-3
390
F
  0
LAYER
  5
20D
100
AcDbSymbolTableRecord
100
AcDbLayerTableRecord
  2
20_DATUM_KINEMATIC_SCHEME
 70
0
 62
7
  6
CONTINUOUS
370
-3
390
F
  0
ENDTAB
  0
TABLE
  2
STYLE
  5
3
100
AcDbSymbolTable
 70
1
  0
STYLE
  5
11
100
AcDbSymbolTableRecord
100
AcDbTextStyleTableRecord
  2
STANDARD
 70
0
 40
0.0
 41
1.0
 50
0.0
 71
0
 42
0.2
  3
ARIAL.TTF
  4

  0
STYLE
  5
20E
100
AcDbSymbolTableRecord
100
AcDbTextStyleTableRecord
  2
TEXTSTYLE_1
 70
0
 40
0.0
 41
0.8
 50
0.0
 71
0
 42
0.2
  3
gdt
  4

  0
ENDTAB
  0
TABLE
  2
VIEW
  5
6
100
AcDbSymbolTable
 70
0
  0
ENDTAB
  0
TABLE
  2
UCS
  5
7
100
AcDbSymbolTable
 70
0
  0
ENDTAB
  0
TABLE
  2
APPID
  5
9
100
AcDbSymbolTable
 70
1
  0
APPID
  5
20F
100
AcDbSymbolTableRecord
100
AcDbRegAppTableRecord
  2
ACAD
 70
0
  0
ENDTAB
  0
TABLE
  2
BLOCK_RECORD
  5
1
100
AcDbSymbolTable
 70
0
  0
BLOCK_RECORD
  5
210
100
AcDbSymbolTableRecord
100
AcDbBlockTableRecord
  2
*Model_Space
  0
BLOCK_RECORD
  5
211
100
AcDbSymbolTableRecord
100
AcDbBlockTableRecord
  2
*Paper_Space
  0
BLOCK_RECORD
  5
212
100
AcDbSymbolTableRecord
100
AcDbBlockTableRecord
  2
_FILLED
  0
ENDTAB
  0
TABLE
  2
DIMSTYLE
  5
A
100
AcDbSymbolTable
 70
1
100
AcDbDimStyleTable
 71
0
  0
DIMSTYLE
105
213
100
AcDbSymbolTableRecord
100
AcDbDimStyleTableRecord
  2
STANDARD
 70
0
  3

  4

 40
1.0
 41
0.9171074619
 42
1.0
 43
0.38
 44
1.0
 45
0.0
 46
0.0
 47
0.01
 48
0.01
140
1.2839504467
141
0.09
142
0.0
143
25.4
144
1.0
145
0.0
146
1.0
147
0.625
 71
1
 72
0
 73
0
 74
0
 75
0
 76
0
 77
1
 78
8
 79
2
170
0
171
1
172
0
173
0
174
0
175
0
176
0
177
0
178
0
270
2
179
2
271
2
272
2
273
2
274
2
275
0
280
0
281
0
282
0
283
1
284
8
285
0
286
0
287
3
288
0
340
11
278
46
341
212
342
212
343
212
344
212
  0
ENDTAB
  0
ENDSEC
  0
SECTION
  2
BLOCKS
  0
BLOCK
  5
20
100
AcDbEntity
  8
0
100
AcDbBlockBegin
  2
*Model_Space
 70
0
 10
0.0
 20
0.0
 30
0.0
  3
*Model_Space
  1

  0
ENDBLK
  5
21
100
AcDbEntity
  8
0
100
AcDbBlockEnd
  0
BLOCK
  5
1C
100
AcDbEntity
  8
0
100
AcDbBlockBegin
  2
*Paper_Space
 70
0
 10
0.0
 20
0.0
 30
0.0
  3
*Paper_Space
  1

  0
ENDBLK
  5
1D
100
AcDbEntity
  8
0
100
AcDbBlockEnd
  0
BLOCK
  5
214
100
AcDbEntity
  8
0
100
AcDbBlockBegin
  2
_FILLED
 70
64
 10
0.0
 20
0.0
  3
_FILLED
  1

  0
SOLID
  5
215
100
AcDbEntity
  8
0
  6
BYBLOCK
 62
0
100
AcDbTrace
 10
0.0
 20
0.0
 11
-1.0
 21
0.25
 12
-1.0
 22
-0.25
 13
-1.0
 23
-0.25
  0
ENDBLK
  5
216
100
AcDbEntity
  8
0
  6
BYBLOCK
 62
0
100
AcDbBlockEnd
  0
ENDSEC
  0
SECTION
  2
ENTITIES
  0
LINE
  5
217
100
AcDbEntity
  8
0
100
AcDbLine
 62
7
  6
BYLAYER
 10
17.3786137883
 20
98.1599444426
 11
21.1969745092
 21
100.3644628735
  0
LINE
  5
218
100
AcDbEntity
  8
0
100
AcDbLine
 62
7
  6
BYLAYER
 10
19.3533028487
 20
92.949181414
 11
20.1286014768
 21
93.3967976138
  0
LINE
  5
219
100
AcDbEntity
  8
0
100
AcDbLine
 62
7
  6
BYLAYER
 10
20.3960998029
 20
20.6562979008
 11
41.6093915573
 21
8.4090752651
  0
LINE
  5
21A
100
AcDbEntity
  8
0
100
AcDbLine
 62
7
  6
BYLAYER
 10
43.3769892911
 20
97.6033003604
 11
32.2222586522
 21
91.1631520659
  0
LINE
  5
21B
100
AcDbEntity
  8
0
100
AcDbLine
 62
7
  6
BYLAYER
 10
23.3532849412
 20
86.0209678449
 11
24.1285835693
 21
86.4685840446
  0
LINE
  5
21C
100
AcDbEntity
  8
0
100
AcDbLine
 62
7
  6
BYLAYER
 10
41.6093915573
 20
10.0420800994
 11
20.3960998029
 21
22.289302735
  0
LINE
  5
21D
100
AcDbEntity
  8
0
100
AcDbLine
 62
7
  6
BYLAYER
 10
41.6093915573
 20
10.1237303411
 11
20.3960998029
 21
22.3709529767
  0
LINE
  5
21E
100
AcDbEntity
  8
0
100
AcDbLine
 62
7
  6
BYLAYER
 10
44.2256748497
 20
11.6342321423
 11
44.2963861387
 21
11.5934078841
  0
LINE
  5
21F
100
AcDbEntity
  8
0
100
AcDbLine
 62
7
  6
BYLAYER
 10
48.8200000593
 20
94.46084772
 11
31.6445029149
 21
84.5446290121
  0
LINE
  5
220
100
AcDbEntity
  8
0
100
AcDbLine
 62
7
  6
BYLAYER
 10
26.8785712579
 20
81.7054372158
 11
30.6969319789
 21
83.9099556467
  0
LINE
  5
221
100
AcDbEntity
  8
0
100
AcDbLine
 62
7
  6
BYLAYER
 10
26.317106153
 20
79.4770893828
 11
25.2564503972
 21
78.864723152
  0
LWPOLYLINE
  5
222
100
AcDbEntity
  8
0
100
AcDbPolyline
 62
7
  6
BYLAYER
 90
3
 70
0
 10
26.3321120006
 20
81.4825403992
 10
25.4797833113
 20
80.3893592944
 10
25.3915413975
 20
79.8976659275
  0
LINE
  5
223
100
AcDbEntity
  8
0
100
AcDbLine
 62
7
  6
BYLAYER
 10
30.6491996494
 20
80.1386486167
 11
29.2802989257
 21
79.348318133
  0
LINE
  5
224
100
AcDbEntity
  8
0
100
AcDbLine
 62
7
  6
BYLAYER
 10
25.0903801971
 20
75.6647964793
 11
27.2116917087
 21
76.8895289409
  0
LINE
  5
225
100
AcDbEntity
  8
0
100
AcDbLine
 62
7
  6
BYLAYER
 10
35.0395744803
 20
80.5425374004
 11
33.4132356547
 21
79.6035758465
  0
LINE
  5
226
100
AcDbEntity
  8
0
100
AcDbLine
 62
7
  6
BYLAYER
 10
25.0903801971
 20
75.6647964793
 11
23.4206377373
 21
73.2893060432
  0
LINE
  5
227
100
AcDbEntity
  8
0
100
AcDbLine
 62
7
  6
BYLAYER
 10
37.9341256034
 20
80.3499599893
 11
55.597579457
 21
90.547898953
  0
LINE
  5
228
100
AcDbEntity
  8
0
100
AcDbLine
 62
7
  6
BYLAYER
 10
28.4298651166
 20
73.7367875795
 11
30.5511766282
 21
74.9615200411
  0
LINE
  5
229
100
AcDbEntity
  8
0
100
AcDbLine
 62
7
  6
BYLAYER
 10
35.8225861324
 20
76.2596257683
 11
34.1962473068
 21
75.3206642144
  0
LINE
  5
22A
100
AcDbEntity
  8
0
100
AcDbLine
 62
7
  6
BYLAYER
 10
20.3960998029
 20
58.6147152645
 11
20.3960998029
 21
22.3709529767
  0
LINE
  5
22B
100
AcDbEntity
  8
0
100
AcDbLine
 62
7
  6
BYLAYER
 10
20.3960998029
 20
22.289302735
 11
20.3960998029
 21
20.6562979008
  0
LINE
  5
22C
100
AcDbEntity
  8
0
100
AcDbLine
 62
7
  6
BYLAYER
 10
25.2397719805
 20
68.0746598421
 11
25.9541643232
 21
68.4871119914
  0
LINE
  5
22D
100
AcDbEntity
  8
0
100
AcDbLine
 62
7
  6
BYLAYER
 10
61.0405902252
 20
87.4054463125
 11
43.3771363716
 21
77.2075073488
  0
LINE
  5
22E
100
AcDbEntity
  8
0
100
AcDbLine
 62
7
  6
BYLAYER
 10
30.0996075763
 20
69.4332882435
 11
32.220919088
 21
70.6580207051
  0
LINE
  5
22F
100
AcDbEntity
  8
0
100
AcDbLine
 62
7
  6
BYLAYER
 10
27.368408212
 20
67.6706163731
 11
25.2397719805
 21
66.4416550078
  0
LINE
  5
230
100
AcDbEntity
  8
0
100
AcDbLine
 62
7
  6
BYLAYER
 10
23.0830943843
 20
60.5832392906
 11
23.0830943843
 21
60.1070689983
  0
LINE
  5
231
100
AcDbEntity
  8
0
100
AcDbLine
 62
7
  6
BYLAYER
 10
23.931618989
 20
71.9723320006
 11
23.931618989
 21
61.0731322752
  0
LINE
  5
232
100
AcDbEntity
  8
0
100
AcDbLine
 62
7
  6
BYLAYER
 10
25.2397719805
 20
68.0746598421
 11
25.2397719805
 21
66.4416550078
  0
LINE
  5
233
100
AcDbEntity
  8
0
100
AcDbLine
 62
7
  6
BYLAYER
 10
25.7135354375
 20
80.6891654733
 11
25.7135354375
 21
81.3727414137
  0
LINE
  5
234
100
AcDbEntity
  8
0
100
AcDbLine
 62
7
  6
BYLAYER
 10
28.4298651166
 20
67.0577978073
 11
30.0996075763
 21
69.4332882435
  0
LINE
  5
235
100
AcDbEntity
  8
0
100
AcDbLine
 62
7
  6
BYLAYER
 10
32.220919088
 20
70.6580207051
 11
30.5511766282
 21
68.282530269
  0
LINE
  5
236
100
AcDbEntity
  8
0
100
AcDbLine
 62
7
  6
BYLAYER
 10
28.4298651166
 20
67.0577978073
 11
30.5511766282
 21
68.282530269
  0
LINE
  5
237
100
AcDbEntity
  8
0
100
AcDbLine
 62
7
  6
BYLAYER
 10
35.7106010619
 20
70.7189189159
 11
37.3369398875
 21
71.6578804698
  0
LINE
  5
238
100
AcDbEntity
  8
0
100
AcDbLine
 62
7
  6
BYLAYER
 10
35.9259961669
 20
70.770672388
 11
35.0632899377
 21
70.2725916875
  0
LINE
  5
239
100
AcDbEntity
  8
0
100
AcDbLine
 62
7
  6
BYLAYER
 10
37.3369398875
 20
69.9560820796
 11
35.7106010619
 21
69.0171205257
  0
LINE
  5
23A
100
AcDbEntity
  8
0
100
AcDbLine
 62
7
  6
BYLAYER
 10
26.7600578896
 20
63.8084571888
 11
28.8428612004
 21
65.010957063
  0
LINE
  5
23B
100
AcDbEntity
  8
0
100
AcDbLine
 62
7
  6
BYLAYER
 10
28.9874666592
 20
64.2779562574
 11
27.4671676147
 21
63.4002164342
  0
LINE
  5
23C
100
AcDbEntity
  8
0
100
AcDbLine
 62
7
  6
BYLAYER
 10
33.5670736956
 20
66.9197022887
 11
32.5064179398
 21
66.3073360579
  0
LINE
  5
23D
100
AcDbEntity
  8
0
100
AcDbLine
 62
7
  6
BYLAYER
 10
28.2803437986
 20
66.1694700628
 11
28.2803437986
 21
66.3192245976
  0
LINE
  5
23E
100
AcDbEntity
  8
0
100
AcDbLine
 62
7
  6
BYLAYER
 10
30.3477500081
 20
61.8830567708
 11
30.7052706694
 21
62.1440284099
  0
LINE
  5
23F
100
AcDbEntity
  8
0
100
AcDbLine
 62
7
  6
BYLAYER
 10
23.931618989
 20
61.0731322752
 11
23.0830943843
 21
60.5832392906
  0
LINE
  5
240
100
AcDbEntity
  8
0
100
AcDbLine
 62
7
  6
BYLAYER
 10
20.3960998029
 20
58.6147152645
 11
23.0123840006
 21
60.1252186338
  0
LINE
  5
241
100
AcDbEntity
  8
0
100
AcDbLine
 62
7
  6
BYLAYER
 10
33.1872893067
 20
65.5984940982
 11
31.5431009689
 21
64.6492271851
  0
LINE
  5
242
100
AcDbEntity
  8
0
100
AcDbLine
 62
7
  6
BYLAYER
 10
31.5489995309
 20
64.639010515
 11
33.4597278283
 21
65.7421634269
  0
LINE
  5
243
100
AcDbEntity
  8
0
100
AcDbLine
 62
7
  6
BYLAYER
 10
34.054154806
 20
66.0760480222
 11
35.6804936316
 21
67.0150095761
  0
LINE
  5
244
100
AcDbEntity
  8
0
100
AcDbLine
 62
7
  6
BYLAYER
 10
24.3134326142
 20
59.791271101
 11
25.2326676025
 21
60.3219885011
  0
LINE
  5
245
100
AcDbEntity
  8
0
100
AcDbLine
 62
7
  6
BYLAYER
 10
39.1653152214
 20
67.8539786051
 11
36.1884080667
 21
66.1352707173
  0
LINE
  5
246
100
AcDbEntity
  8
0
100
AcDbLine
 62
7
  6
BYLAYER
 10
38.4273683545
 20
66.9929891073
 11
38.4344393929
 21
66.9970715488
  0
LINE
  5
247
100
AcDbEntity
  8
0
100
AcDbLine
 62
7
  6
BYLAYER
 10
33.7763844136
 20
63.3530580614
 11
35.687112957
 21
64.4562111154
  0
LINE
  5
248
100
AcDbEntity
  8
0
100
AcDbLine
 62
7
  6
BYLAYER
 10
27.2758591372
 20
59.2775740513
 11
24.3569626513
 21
57.5923584389
  0
LINE
  5
249
100
AcDbEntity
  8
0
100
AcDbLine
 62
7
  6
BYLAYER
 10
31.5490320808
 20
64.6390272245
 11
31.1712067514
 21
64.4339377384
  0
LINE
  5
24A
100
AcDbEntity
  8
0
100
AcDbLine
 62
7
  6
BYLAYER
 10
33.1873230153
 20
65.5984357086
 11
33.4597278283
 21
65.7421634269
  0
LINE
  5
24B
100
AcDbEntity
  8
0
100
AcDbLine
 62
7
  6
BYLAYER
 10
23.7548886612
 20
75.5457750752
 11
23.983166074
 21
74.0895975348
  0
LINE
  5
24C
100
AcDbEntity
  8
0
100
AcDbLine
 62
7
  6
BYLAYER
 10
29.2349801991
 20
81.2735942871
 11
29.2349801991
 21
79.3640745255
  0
LINE
  5
24D
100
AcDbEntity
  8
0
100
AcDbLine
 62
7
  6
BYLAYER
 10
29.4939083716
 20
83.1874937484
 11
29.4939083716
 21
83.2153937892
  0
LINE
  5
24E
100
AcDbEntity
  8
0
100
AcDbLine
 62
7
  6
BYLAYER
 10
30.6491996494
 20
78.5478962803
 11
30.6491996494
 21
80.4571127781
  0
LINE
  5
24F
100
AcDbEntity
  8
0
100
AcDbLine
 62
7
  6
BYLAYER
 10
31.1151481837
 20
84.2335821269
 11
31.1151481837
 21
84.0897748218
  0
LINE
  5
250
100
AcDbEntity
  8
0
100
AcDbLine
 62
7
  6
BYLAYER
 10
30.2190327537
 20
60.4643106694
 11
29.9665149042
 21
60.289611409
  0
LINE
  5
251
100
AcDbEntity
  8
0
100
AcDbLine
 62
7
  6
BYLAYER
 10
33.3653641359
 20
59.3527027554
 11
33.3222331058
 21
59.3319218471
  0
LINE
  5
252
100
AcDbEntity
  8
0
100
AcDbLine
 62
7
  6
BYLAYER
 10
23.4206377373
 20
73.2893060432
 11
25.0903801971
 21
68.9858067072
  0
LINE
  5
253
100
AcDbEntity
  8
0
100
AcDbLine
 62
7
  6
BYLAYER
 10
29.8572651004
 20
60.0724053707
 11
29.8767459694
 21
60.0191470518
  0
LINE
  5
254
100
AcDbEntity
  8
0
100
AcDbLine
 62
7
  6
BYLAYER
 10
33.4132356547
 20
79.6035758465
 11
33.4132356547
 21
81.091913575
  0
LINE
  5
255
100
AcDbEntity
  8
0
100
AcDbLine
 62
7
  6
BYLAYER
 10
35.0395744803
 20
81.9868010172
 11
35.0395744803
 21
80.5425374004
  0
LINE
  5
256
100
AcDbEntity
  8
0
100
AcDbLine
 62
7
  6
BYLAYER
 10
35.9259961669
 20
70.8432765954
 11
35.9259961669
 21
70.770672388
  0
LINE
  5
257
100
AcDbEntity
  8
0
100
AcDbLine
 62
7
  6
BYLAYER
 10
43.3771363716
 20
64.1434686747
 11
48.3197921938
 21
66.9970953103
  0
LINE
  5
258
100
AcDbEntity
  8
0
100
AcDbLine
 62
7
  6
BYLAYER
 10
56.0979344031
 20
71.4877810029
 11
61.0405902252
 21
74.3414076385
  0
LINE
  5
259
100
AcDbEntity
  8
0
100
AcDbLine
 62
7
  6
BYLAYER
 10
43.3771364305
 20
64.1353038257
 11
48.326863291
 21
66.9930129028
  0
LINE
  5
25A
100
AcDbEntity
  8
0
100
AcDbLine
 62
7
  6
BYLAYER
 10
56.1050055004
 20
71.4836985953
 11
61.0547323609
 21
74.3414076724
  0
LINE
  5
25B
100
AcDbEntity
  8
0
100
AcDbLine
 62
7
  6
BYLAYER
 10
34.7716262567
 20
59.0930092511
 11
37.5028343764
 21
60.6698635817
  0
LINE
  5
25C
100
AcDbEntity
  8
0
100
AcDbLine
 62
7
  6
BYLAYER
 10
48.3197921938
 20
63.7310856418
 11
56.0979344031
 21
68.2217713344
  0
LINE
  5
25D
100
AcDbEntity
  8
0
100
AcDbLine
 62
7
  6
BYLAYER
 10
43.3771364305
 20
60.8692941571
 11
48.326863291
 21
63.7270032342
  0
LINE
  5
25E
100
AcDbEntity
  8
0
100
AcDbLine
 62
7
  6
BYLAYER
 10
56.1050055004
 20
68.2176889268
 11
61.0547323609
 21
71.0753980039
  0
LINE
  5
25F
100
AcDbEntity
  8
0
100
AcDbLine
 62
7
  6
BYLAYER
 10
40.7961859337
 20
59.0933632426
 11
42.31523324
 21
59.9703803787
  0
LINE
  5
260
100
AcDbEntity
  8
0
100
AcDbLine
 62
7
  6
BYLAYER
 10
32.7907111075
 20
57.651698768
 11
32.8012931036
 21
57.6563819192
  0
LINE
  5
261
100
AcDbEntity
  8
0
100
AcDbLine
 62
7
  6
BYLAYER
 10
40.5343761025
 20
58.8528230411
 11
40.7961859337
 21
58.9436087078
  0
LINE
  5
262
100
AcDbEntity
  8
0
100
AcDbLine
 62
7
  6
BYLAYER
 10
21.6971484165
 20
58.2807677317
 11
40.4561322462
 21
47.4505083811
  0
LINE
  5
263
100
AcDbEntity
  8
0
100
AcDbLine
 62
7
  6
BYLAYER
 10
41.6093915573
 20
46.4225573039
 11
40.4561322462
 21
47.4505083811
  0
LINE
  5
264
100
AcDbEntity
  8
0
100
AcDbLine
 62
7
  6
BYLAYER
 10
30.0996075763
 20
69.4332882435
 11
28.4298651166
 21
73.7367875795
  0
LINE
  5
265
100
AcDbEntity
  8
0
100
AcDbLine
 62
7
  6
BYLAYER
 10
38.4273683545
 20
66.9929891073
 11
38.4273683545
 21
63.7269794388
  0
LINE
  5
266
100
AcDbEntity
  8
0
100
AcDbLine
 62
7
  6
BYLAYER
 10
42.4179706399
 20
59.8799409553
 11
40.7961859337
 21
58.9436087078
  0
LINE
  5
267
100
AcDbEntity
  8
0
100
AcDbLine
 62
7
  6
BYLAYER
 10
45.1449107434
 20
59.8486922708
 11
62.8225066737
 21
70.0547961176
  0
LINE
  5
268
100
AcDbEntity
  8
0
100
AcDbLine
 62
7
  6
BYLAYER
 10
38.6922043632
 20
55.9969516611
 11
35.2845188385
 21
54.02953525
  0
LINE
  5
269
100
AcDbEntity
  8
0
100
AcDbLine
 62
7
  6
BYLAYER
 10
21.6971484165
 20
58.2807677317
 11
20.3960998029
 21
58.6147152645
  0
LINE
  5
26A
100
AcDbEntity
  8
0
100
AcDbLine
 62
7
  6
BYLAYER
 10
44.2963861387
 20
48.3360166549
 11
43.1431268276
 21
49.0018361658
  0
LINE
  5
26B
100
AcDbEntity
  8
0
100
AcDbLine
 62
7
  6
BYLAYER
 10
24.3841429979
 20
59.8320955164
 11
23.0830943843
 21
60.5832392906
  0
LINE
  5
26C
100
AcDbEntity
  8
0
100
AcDbLine
 62
7
  6
BYLAYER
 10
45.1449107434
 20
48.8259096396
 11
43.9916514323
 21
49.4917291504
  0
LINE
  5
26D
100
AcDbEntity
  8
0
100
AcDbLine
 62
7
  6
BYLAYER
 10
25.2326676025
 20
60.3219885011
 11
23.931618989
 21
61.0731322752
  0
LINE
  5
26E
100
AcDbEntity
  8
0
100
AcDbLine
 62
7
  6
BYLAYER
 10
43.0724164439
 20
48.9610117504
 11
44.225675755
 21
47.9330606733
  0
LINE
  5
26F
100
AcDbEntity
  8
0
100
AcDbLine
 62
7
  6
BYLAYER
 10
41.2684913446
 20
51.9190022871
 11
43.9916514323
 21
49.4917291504
  0
LINE
  5
270
100
AcDbEntity
  8
0
100
AcDbLine
 62
7
  6
BYLAYER
 10
30.5511766282
 20
74.9615200411
 11
32.220919088
 21
70.6580207051
  0
LINE
  5
271
100
AcDbEntity
  8
0
100
AcDbLine
 62
7
  6
BYLAYER
 10
37.5028343764
 20
60.6698635817
 11
38.6922043632
 21
55.9969516611
  0
LINE
  5
272
100
AcDbEntity
  8
0
100
AcDbLine
 62
7
  6
BYLAYER
 10
34.6741126261
 20
72.74368091
 11
35.0686354316
 21
70.2386503655
  0
LINE
  5
273
100
AcDbEntity
  8
0
100
AcDbLine
 62
7
  6
BYLAYER
 10
40.7961859337
 20
59.0933632426
 11
40.7961859337
 21
58.9436087078
  0
LINE
  5
274
100
AcDbEntity
  8
0
100
AcDbLine
 62
7
  6
BYLAYER
 10
41.6093915573
 20
8.4090752651
 11
41.6093915573
 21
10.0420800994
  0
LINE
  5
275
100
AcDbEntity
  8
0
100
AcDbLine
 62
7
  6
BYLAYER
 10
41.6093915573
 20
10.1237303411
 11
41.6093915573
 21
46.4225573039
  0
LINE
  5
276
100
AcDbEntity
  8
0
100
AcDbLine
 62
7
  6
BYLAYER
 10
41.6093621176
 20
55.2354013438
 11
43.8367577519
 21
56.5213811366
  0
LINE
  5
277
100
AcDbEntity
  8
0
100
AcDbLine
 62
7
  6
BYLAYER
 10
43.8367708873
 20
55.7049004125
 11
42.3164718428
 21
54.8271605893
  0
LINE
  5
278
100
AcDbEntity
  8
0
100
AcDbLine
 62
7
  6
BYLAYER
 10
37.7261381999
 20
49.8738359534
 11
41.2684913446
 21
51.9190022871
  0
LINE
  5
279
100
AcDbEntity
  8
0
100
AcDbLine
 62
7
  6
BYLAYER
 10
23.0123840006
 20
60.1252186338
 11
24.3134326142
 21
59.791271101
  0
LINE
  5
27A
100
AcDbEntity
  8
0
100
AcDbLine
 62
7
  6
BYLAYER
 10
25.2326676025
 20
60.3219885011
 11
27.4930516152
 21
59.7418029059
  0
LINE
  5
27B
100
AcDbEntity
  8
0
100
AcDbLine
 62
7
  6
BYLAYER
 10
30.2190327537
 20
60.4643106694
 11
30.284483393
 21
60.4265235801
  0
LINE
  5
27C
100
AcDbEntity
  8
0
100
AcDbLine
 62
7
  6
BYLAYER
 10
31.8627249406
 20
59.5153460114
 11
33.3246958805
 21
58.6712957906
  0
LINE
  5
27D
100
AcDbEntity
  8
0
100
AcDbLine
 62
7
  6
BYLAYER
 10
26.7600578896
 20
63.8084571888
 11
27.4671676147
 21
63.4002164342
  0
LINE
  5
27E
100
AcDbEntity
  8
0
100
AcDbLine
 62
7
  6
BYLAYER
 10
41.6093621176
 20
55.2354013438
 11
42.3164718428
 21
54.8271605893
  0
LWPOLYLINE
  5
27F
100
AcDbEntity
  8
0
100
AcDbPolyline
 62
7
  6
BYLAYER
 90
4
 70
0
 10
38.1021226102
 20
70.3652128179
 10
37.6612282135
 20
73.344205261
 10
36.402023903
 20
76.4229052058
 10
35.4739374169
 20
77.7688830954
  0
LINE
  5
280
100
AcDbEntity
  8
0
100
AcDbLine
 62
7
  6
BYLAYER
 10
43.3771363716
 20
77.2075073488
 11
43.3771363716
 21
64.1434686747
  0
LINE
  5
281
100
AcDbEntity
  8
0
100
AcDbLine
 62
7
  6
BYLAYER
 10
43.3771364305
 20
60.8692941571
 11
43.3771364305
 21
64.1353038257
  0
LINE
  5
282
100
AcDbEntity
  8
0
100
AcDbLine
 62
7
  6
BYLAYER
 10
43.8367577519
 20
55.7049231639
 11
43.8367577519
 21
57.3379279982
  0
LINE
  5
283
100
AcDbEntity
  8
0
100
AcDbLine
 62
7
  6
BYLAYER
 10
44.225675755
 20
47.9330606733
 11
44.225675755
 21
11.6342337104
  0
LINE
  5
284
100
AcDbEntity
  8
0
100
AcDbLine
 62
7
  6
BYLAYER
 10
44.2963861387
 20
11.5934078841
 11
44.2963861387
 21
48.3360166549
  0
LINE
  5
285
100
AcDbEntity
  8
0
100
AcDbLine
 62
7
  6
BYLAYER
 10
45.1449107434
 20
48.8259096396
 11
45.1449107434
 21
59.8486922708
  0
LINE
  5
286
100
AcDbEntity
  8
0
100
AcDbLine
 62
7
  6
BYLAYER
 10
43.0724164439
 20
48.9610117504
 11
43.9916514323
 21
49.4917291504
  0
LINE
  5
287
100
AcDbEntity
  8
0
100
AcDbLine
 62
7
  6
BYLAYER
 10
33.7133197481
 20
63.530978269
 11
31.6839534504
 21
64.7026069415
  0
LINE
  5
288
100
AcDbEntity
  8
0
100
AcDbLine
 62
7
  6
BYLAYER
 10
25.0903801971
 20
68.9858067072
 11
28.4298651166
 21
67.0577978073
  0
LINE
  5
289
100
AcDbEntity
  8
0
100
AcDbLine
 62
7
  6
BYLAYER
 10
48.326863291
 20
66.9930129028
 11
48.326863291
 21
63.7270032342
  0
LINE
  5
28A
100
AcDbEntity
  8
0
100
AcDbLine
 62
7
  6
BYLAYER
 10
44.2963861387
 20
48.3360166549
 11
45.1449107434
 21
48.8259096396
  0
LINE
  5
28B
100
AcDbEntity
  8
0
100
AcDbLine
 62
7
  6
BYLAYER
 10
41.6093915573
 20
46.4225573039
 11
44.225675755
 21
47.9330606733
  0
LWPOLYLINE
  5
28C
100
AcDbEntity
  8
0
100
AcDbPolyline
 62
7
  6
BYLAYER
 90
3
 70
0
 10
32.4796409753
 20
66.1997171349
 10
34.4782334279
 20
65.7024417713
 10
36.1882537306
 20
66.1355382771
  0
LINE
  5
28D
100
AcDbEntity
  8
0
100
AcDbLine
 62
7
  6
BYLAYER
 10
45.1449107434
 20
59.8486922708
 11
43.3771364305
 21
60.8692941571
  0
LINE
  5
28E
100
AcDbEntity
  8
0
100
AcDbLine
 62
7
  6
BYLAYER
 10
38.4273683545
 20
63.7269794388
 11
34.8448571093
 21
65.795296479
  0
LINE
  5
28F
100
AcDbEntity
  8
0
100
AcDbLine
 62
7
  6
BYLAYER
 10
34.8546870469
 20
65.7977861053
 11
38.4344393929
 21
63.7310618803
  0
LINE
  5
290
100
AcDbEntity
  8
0
100
AcDbLine
 62
7
  6
BYLAYER
 10
43.3771364305
 20
64.1353038257
 11
38.4273683545
 21
66.9929891073
  0
LINE
  5
291
100
AcDbEntity
  8
0
100
AcDbLine
 62
7
  6
BYLAYER
 10
38.4344393929
 20
66.9970715488
 11
43.3771363716
 21
64.1434686747
  0
LINE
  5
292
100
AcDbEntity
  8
0
100
AcDbLine
 62
7
  6
BYLAYER
 10
35.7106010619
 20
69.0171205257
 11
34.9219702695
 21
69.4724264256
  0
LINE
  5
293
100
AcDbEntity
  8
0
100
AcDbLine
 62
7
  6
BYLAYER
 10
28.4298651166
 20
73.7367875795
 11
25.0903801971
 21
75.6647964793
  0
LINE
  5
294
100
AcDbEntity
  8
0
100
AcDbLine
 62
7
  6
BYLAYER
 10
34.9212216735
 20
71.1746570081
 11
35.7106010619
 21
70.7189189159
  0
LINE
  5
295
100
AcDbEntity
  8
0
100
AcDbLine
 62
7
  6
BYLAYER
 10
35.9259961669
 20
70.770672388
 11
37.3369398875
 21
69.9560820796
  0
LINE
  5
296
100
AcDbEntity
  8
0
100
AcDbLine
 62
7
  6
BYLAYER
 10
30.5511766282
 20
74.9615200411
 11
27.2116917087
 21
76.8895289409
  0
LWPOLYLINE
  5
297
100
AcDbEntity
  8
0
100
AcDbPolyline
 62
7
  6
BYLAYER
 90
4
 70
0
 10
30.6491996494
 20
78.5478962803
 10
31.896680943
 20
77.5424246689
 10
33.5597379066
 20
75.3040919431
 10
34.6741126261
 20
72.74368091
  0
LINE
  5
298
100
AcDbEntity
  8
0
100
AcDbLine
 62
7
  6
BYLAYER
 10
56.0979344031
 20
68.2217713344
 11
56.0979344031
 21
71.4877810029
  0
LINE
  5
299
100
AcDbEntity
  8
0
100
AcDbLine
 62
7
  6
BYLAYER
 10
56.1050055004
 20
68.2176889268
 11
56.1050055004
 21
71.4836985953
  0
LINE
  5
29A
100
AcDbEntity
  8
0
100
AcDbLine
 62
7
  6
BYLAYER
 10
48.3197921938
 20
66.9970953103
 11
48.326863291
 21
66.9930129028
  0
LINE
  5
29B
100
AcDbEntity
  8
0
100
AcDbLine
 62
7
  6
BYLAYER
 10
20.4668119973
 20
22.3301281958
 11
20.3960998029
 21
22.289302735
  0
LINE
  5
29C
100
AcDbEntity
  8
0
100
AcDbLine
 62
7
  6
BYLAYER
 10
30.6491996494
 20
80.4571127781
 11
29.2349801991
 21
81.2735942871
  0
LINE
  5
29D
100
AcDbEntity
  8
0
100
AcDbLine
 62
7
  6
BYLAYER
 10
28.9520918398
 20
82.902577736
 11
29.6833762737
 21
82.4803800226
  0
LINE
  5
29E
100
AcDbEntity
  8
0
100
AcDbLine
 62
7
  6
BYLAYER
 10
29.4939083716
 20
83.1874937484
 11
29.469745882
 21
83.2014436526
  0
LINE
  5
29F
100
AcDbEntity
  8
0
100
AcDbLine
 62
7
  6
BYLAYER
 10
56.1050055004
 20
68.2176889268
 11
56.0979344031
 21
68.2217713344
  0
LINE
  5
2A0
100
AcDbEntity
  8
0
100
AcDbLine
 62
7
  6
BYLAYER
 10
61.0405902252
 20
74.3414076385
 11
61.0405902252
 21
87.4054463125
  0
LINE
  5
2A1
100
AcDbEntity
  8
0
100
AcDbLine
 62
7
  6
BYLAYER
 10
61.0547323609
 20
74.3414076724
 11
61.0547323609
 21
71.0753980039
  0
LINE
  5
2A2
100
AcDbEntity
  8
0
100
AcDbLine
 62
7
  6
BYLAYER
 10
62.8225066737
 20
70.0547961176
 11
62.8225066737
 21
20.6563998813
  0
LINE
  5
2A3
100
AcDbEntity
  8
0
100
AcDbLine
 62
7
  6
BYLAYER
 10
29.6833762737
 20
82.4803800226
 11
33.4132356547
 21
81.091913575
  0
LINE
  5
2A4
100
AcDbEntity
  8
0
100
AcDbLine
 62
7
  6
BYLAYER
 10
37.9341256034
 20
80.3499599893
 11
43.3771363716
 21
77.2075073488
  0
LINE
  5
2A5
100
AcDbEntity
  8
0
100
AcDbLine
 62
7
  6
BYLAYER
 10
31.4941696771
 20
84.6314219839
 11
34.8501065781
 21
82.693914743
  0
LINE
  5
2A6
100
AcDbEntity
  8
0
100
AcDbLine
 62
7
  6
BYLAYER
 10
56.1050055004
 20
71.4836985953
 11
56.0979344031
 21
71.4877810029
  0
LINE
  5
2A7
100
AcDbEntity
  8
0
100
AcDbLine
 62
7
  6
BYLAYER
 10
34.8501065781
 20
82.693914743
 11
31.1151481837
 21
84.0897748218
  0
LINE
  5
2A8
100
AcDbEntity
  8
0
100
AcDbLine
 62
7
  6
BYLAYER
 10
61.0547323609
 20
71.0753980039
 11
62.8225066737
 21
70.0547961176
  0
LINE
  5
2A9
100
AcDbEntity
  8
0
100
AcDbLine
 62
7
  6
BYLAYER
 10
61.0441256539
 20
74.347531319
 11
61.0547323609
 21
74.3414076724
  0
LINE
  5
2AA
100
AcDbEntity
  8
0
100
AcDbLine
 62
7
  6
BYLAYER
 10
44.225675755
 20
11.6342337104
 11
41.6093915573
 21
10.1237303411
  0
LINE
  5
2AB
100
AcDbEntity
  8
0
100
AcDbLine
 62
7
  6
BYLAYER
 10
41.6093915573
 20
10.0420800994
 11
44.2963861387
 21
11.5934078841
  0
LINE
  5
2AC
100
AcDbEntity
  8
0
100
AcDbLine
 62
7
  6
BYLAYER
 10
41.6093915573
 20
8.4090752651
 11
62.8225066737
 21
20.6563998813
  0
LINE
  5
2AD
100
AcDbEntity
  8
0
100
AcDbLine
 62
7
  6
BYLAYER
 10
61.0405902252
 20
87.4054463125
 11
55.597579457
 21
90.547898953
  0
LINE
  5
2AE
100
AcDbEntity
  8
0
100
AcDbLine
 62
7
  6
BYLAYER
 10
48.8200000593
 20
94.46084772
 11
43.3769892911
 21
97.6033003604
  0
ARC
  5
2AF
100
AcDbEntity
  8
0
100
AcDbCircle
 62
7
  6
BYLAYER
 10
212.324451336
 20
244.8087094176
 40
261.6947836555
100
AcDbArc
 50
228.1499874105
 51
228.3342926801
  0
ARC
  5
2B0
100
AcDbEntity
  8
0
100
AcDbCircle
 62
7
  6
BYLAYER
 10
32.8807776812
 20
73.4994932114
 40
7.9186298491
100
AcDbArc
 50
234.6771373418
 51
235.6267527689
  0
ARC
  5
2B1
100
AcDbEntity
  8
0
100
AcDbCircle
 62
7
  6
BYLAYER
 10
35.1149429666
 20
57.6065906637
 40
7.8849888711
100
AcDbArc
 50
120.0117743132
 51
141.8669503881
  0
ARC
  5
2B2
100
AcDbEntity
  8
0
100
AcDbCircle
 62
7
  6
BYLAYER
 10
29.7762413711
 20
59.3909065349
 40
3.6465787795
100
AcDbArc
 50
358.7879212689
 51
359.1211098962
  0
ARC
  5
2B3
100
AcDbEntity
  8
0
100
AcDbCircle
 62
7
  6
BYLAYER
 10
29.100329867
 20
86.6731482675
 40
3.1912920796
100
AcDbArc
 50
300.0197792995
 51
307.9109933647
  0
ARC
  5
2B4
100
AcDbEntity
  8
0
100
AcDbCircle
 62
7
  6
BYLAYER
 10
33.3316614354
 20
61.0615455018
 40
3.1694079502
100
AcDbArc
 50
190.1847831896
 51
190.8616037087
  0
ARC
  5
2B5
100
AcDbEntity
  8
0
100
AcDbCircle
 62
7
  6
BYLAYER
 10
32.9502483935
 20
60.2902617522
 40
3.1588663885
100
AcDbArc
 50
183.7666679076
 51
184.2429380853
  0
ARC
  5
2B6
100
AcDbEntity
  8
0
100
AcDbCircle
 62
7
  6
BYLAYER
 10
32.9103592751
 20
60.2877397501
 40
3.1188977592
100
AcDbArc
 50
182.4112465261
 51
183.7685765723
  0
ARC
  5
2B7
100
AcDbEntity
  8
0
100
AcDbCircle
 62
7
  6
BYLAYER
 10
30.8413595459
 20
62.4128632439
 40
3.0819371526
100
AcDbArc
 50
17.7623323071
 51
21.2720186189
  0
ARC
  5
2B8
100
AcDbEntity
  8
0
100
AcDbCircle
 62
7
  6
BYLAYER
 10
32.8378594263
 20
60.2849713146
 40
3.0463456427
100
AcDbArc
 50
179.6680406855
 51
182.4165920072
  0
ARC
  5
2B9
100
AcDbEntity
  8
0
100
AcDbCircle
 62
7
  6
BYLAYER
 10
32.7991695906
 20
60.6511472939
 40
2.9900246968
100
AcDbArc
 50
192.1948964642
 51
194.6136247977
  0
ARC
  5
2BA
100
AcDbEntity
  8
0
100
AcDbCircle
 62
7
  6
BYLAYER
 10
30.4498700228
 20
59.8436602184
 40
2.8587692255
100
AcDbArc
 50
29.4857875881
 51
35.8900395892
  0
ARC
  5
2BB
100
AcDbEntity
  8
0
100
AcDbCircle
 62
7
  6
BYLAYER
 10
32.3309202302
 20
60.3396679039
 40
2.5355105466
100
AcDbArc
 50
165.7041299978
 51
169.4178291962
  0
ARC
  5
2BC
100
AcDbEntity
  8
0
100
AcDbCircle
 62
7
  6
BYLAYER
 10
31.3962703937
 20
60.7110527693
 40
1.6696370857
100
AcDbArc
 50
204.4818430794
 51
204.7415345413
  0
ARC
  5
2BD
100
AcDbEntity
  8
0
100
AcDbCircle
 62
7
  6
BYLAYER
 10
32.2326090964
 20
63.3633677402
 40
1.4472679974
100
AcDbArc
 50
112.2777894964
 51
118.1851509303
  0
ARC
  5
2BE
100
AcDbEntity
  8
0
100
AcDbCircle
 62
7
  6
BYLAYER
 10
31.4138230845
 20
60.903769157
 40
1.4331483978
100
AcDbArc
 50
119.9928096712
 51
123.4747051424
  0
ARC
  5
2BF
100
AcDbEntity
  8
0
100
AcDbCircle
 62
7
  6
BYLAYER
 10
31.397456737
 20
60.9319533946
 40
1.4005569714
100
AcDbArc
 50
116.1060986986
 51
119.9893060375
  0
ARC
  5
2C0
100
AcDbEntity
  8
0
100
AcDbCircle
 62
7
  6
BYLAYER
 10
32.1161294993
 20
58.997090541
 40
1.3515263319
100
AcDbArc
 50
254.191621086
 51
254.828511163
  0
ARC
  5
2C1
100
AcDbEntity
  8
0
100
AcDbCircle
 62
7
  6
BYLAYER
 10
31.0410516392
 20
60.6657783333
 40
1.2112662129
100
AcDbArc
 50
159.0172866473
 51
164.0158247259
  0
ARC
  5
2C2
100
AcDbEntity
  8
0
100
AcDbCircle
 62
7
  6
BYLAYER
 10
32.4569591563
 20
58.4066305215
 40
0.8253773374
100
AcDbArc
 50
293.8498131978
 51
294.8644123246
  0
SPLINE
  5
2C3
100
AcDbEntity
  8
0
100
AcDbSpline
 62
7
  6
BYLAYER
 70
0
 71
3
 72
23
 73
19
 74
0
 42
0.0000001
 43
0.0000001
 44
0.0000000001
 40
0.0
 40
0.0
 40
0.0
 40
0.0
 40
0.0428147452
 40
0.0873969745
 40
0.1351796187
 40
0.1870887444
 40
0.2435362
 40
0.3044941378
 40
0.369591932
 40
0.4382001608
 40
0.5094985314
 40
0.5825345471
 40
0.6562773538
 40
0.7296665417
 40
0.801655683
 40
0.8712521223
 40
0.9376170698
 40
1.0
 40
1.0
 40
1.0
 40
1.0
 10
19.3533028486
 20
92.9491814142
 30
0.0
 10
19.2546861212
 20
92.8922440402
 30
0.0
 10
19.0677505341
 20
92.7491524632
 30
0.0
 10
18.8427907235
 20
92.4646792584
 30
0.0
 10
18.6746795341
 20
92.1167902147
 30
0.0
 10
18.5658208276
 20
91.7139667847
 30
0.0
 10
18.5173700302
 20
91.2646998843
 30
0.0
 10
18.5297571339
 20
90.7782330621
 30
0.0
 10
18.6024561035
 20
90.2646008473
 30
0.0
 10
18.7338488635
 20
89.7345336514
 30
0.0
 10
18.9211384936
 20
89.1992216536
 30
0.0
 10
19.1603164222
 20
88.6700290668
 30
0.0
 10
19.4462744575
 20
88.1582242662
 30
0.0
 10
19.772925825
 20
87.6747226511
 30
0.0
 10
20.1333146954
 20
87.2298819832
 30
0.0
 10
20.5197847237
 20
86.8330444792
 30
0.0
 10
20.924110121
 20
86.4928403018
 30
0.0
 10
21.2096036391
 20
86.3020226921
 30
0.0
 10
21.3532938949
 20
86.2190649609
 30
0.0
  0
SPLINE
  5
2C4
100
AcDbEntity
  8
0
100
AcDbSpline
 62
7
  6
BYLAYER
 70
0
 71
3
 72
11
 73
7
 74
0
 42
0.0000001
 43
0.0000001
 44
0.0000000001
 40
0.0
 40
0.0
 40
0.0
 40
0.0
 40
0.2780336209
 40
0.5367156351
 40
0.7766214116
 40
1.0
 40
1.0
 40
1.0
 40
1.0
 10
35.0395744803
 20
81.9868010172
 30
0.0
 10
35.0395744803
 20
82.0556309301
 30
0.0
 10
35.0323182994
 20
82.1886722234
 30
0.0
 10
34.9970963642
 20
82.3783056456
 30
0.0
 10
34.9382307179
 20
82.5478380003
 30
0.0
 10
34.8819067957
 20
82.648673343
 30
0.0
 10
34.8501065781
 20
82.693914743
 30
0.0
  0
SPLINE
  5
2C5
100
AcDbEntity
  8
0
100
AcDbSpline
 62
7
  6
BYLAYER
 70
0
 71
3
 72
16
 73
12
 74
0
 42
0.0000001
 43
0.0000001
 44
0.0000000001
 40
0.0
 40
0.0
 40
0.0
 40
0.0
 40
0.1080076647
 40
0.2180490324
 40
0.3319780797
 40
0.4513318752
 40
0.5134429179
 40
0.5772988837
 40
0.7105074163
 40
0.8514362065
 40
1.0
 40
1.0
 40
1.0
 40
1.0
 10
21.1969765949
 20
100.3644592606
 30
0.0
 10
21.3527325357
 20
100.454384346
 30
0.0
 10
21.683434449
 20
100.6092216767
 30
0.0
 10
22.2185105367
 20
100.7572002494
 30
0.0
 10
22.7888863043
 20
100.8208406609
 30
0.0
 10
23.2821378291
 20
100.8036422161
 30
0.0
 10
23.6872947801
 20
100.7498460214
 30
0.0
 10
24.1109975349
 20
100.6664931034
 30
0.0
 10
24.6525709074
 20
100.5086277008
 30
0.0
 10
25.3049558467
 20
100.2415696621
 30
0.0
 10
25.7327112029
 20
100.0176721247
 30
0.0
 10
25.946953244
 20
99.8939822228
 30
0.0
  0
SPLINE
  5
2C6
100
AcDbEntity
  8
0
100
AcDbSpline
 62
7
  6
BYLAYER
 70
0
 71
3
 72
25
 73
21
 74
0
 42
0.0000001
 43
0.0000001
 44
0.0000000001
 40
0.0
 40
0.0
 40
0.0
 40
0.0
 40
0.0213325929
 40
0.042893433
 40
0.0648993531
 40
0.0875443933
 40
0.1353203028
 40
0.1872217701
 40
0.2436596973
 40
0.3046075795
 40
0.369695107
 40
0.4382920168
 40
0.5095780777
 40
0.5826019709
 40
0.6563334784
 40
0.729709968
 40
0.8016854373
 40
0.8712768176
 40
0.9376174766
 40
1.0
 40
1.0
 40
1.0
 40
1.0
 10
17.3786159582
 20
98.1599406841
 30
0.0
 10
17.2618980447
 20
98.0925542848
 30
0.0
 10
17.0356578034
 20
97.9418147873
 30
0.0
 10
16.7250998381
 20
97.672560788
 30
0.0
 10
16.4443138053
 20
97.3610977
 30
0.0
 10
16.1056962249
 20
96.8839863573
 30
0.0
 10
15.7667615728
 20
96.1828596974
 30
0.0
 10
15.5083918264
 20
95.2263098171
 30
0.0
 10
15.3932581266
 20
94.1592528936
 30
0.0
 10
15.4226834271
 20
93.0039107218
 30
0.0
 10
15.5953584263
 20
91.7840333727
 30
0.0
 10
15.9074375777
 20
90.5251365465
 30
0.0
 10
16.3522295917
 20
89.2537735169
 30
0.0
 10
16.9202609392
 20
87.9969370838
 30
0.0
 10
17.5994259203
 20
86.7814121281
 30
0.0
 10
18.3752282317
 20
85.6331200728
 30
0.0
 10
19.2311277557
 20
84.5765753165
 30
0.0
 10
20.148991608
 20
83.6341701348
 30
0.0
 10
21.1092154011
 20
82.8261046518
 30
0.0
 10
21.7872753776
 20
82.3729729543
 30
0.0
 10
22.1285925231
 20
82.1759178664
 30
0.0
  0
SPLINE
  5
2C7
100
AcDbEntity
  8
0
100
AcDbSpline
 62
7
  6
BYLAYER
 70
0
 71
3
 72
15
 73
11
 74
0
 42
0.0000001
 43
0.0000001
 44
0.0000000001
 40
0.0
 40
0.0
 40
0.0
 40
0.0
 40
0.1441775113
 40
0.2818255845
 40
0.4130728243
 40
0.5384444411
 40
0.65872241
 40
0.7749047788
 40
0.8881981736
 40
1.0
 40
1.0
 40
1.0
 40
1.0
 10
37.3369398875
 20
69.9560820796
 30
0.0
 10
37.3171991574
 20
69.7890399807
 30
0.0
 10
37.2655581528
 20
69.4638603493
 30
0.0
 10
37.1478251949
 20
68.9958544661
 30
0.0
 10
36.9920576502
 20
68.5621913552
 30
0.0
 10
36.7993299175
 20
68.1659334247
 30
0.0
 10
36.5706734562
 20
67.8098388762
 30
0.0
 10
36.3075928318
 20
67.4963634215
 30
0.0
 10
36.0117468271
 20
67.2280869128
 30
0.0
 10
35.793448433
 20
67.080233047
 30
0.0
 10
35.6804900952
 20
67.0150157009
 30
0.0
  0
SPLINE
  5
2C8
100
AcDbEntity
  8
0
100
AcDbSpline
 62
7
  6
BYLAYER
 70
0
 71
3
 72
11
 73
7
 74
0
 42
0.0000001
 43
0.0000001
 44
0.0000000001
 40
0.0
 40
0.0
 40
0.0
 40
0.0
 40
0.2615004663
 40
0.5178667321
 40
0.7651791587
 40
1.0
 40
1.0
 40
1.0
 40
1.0
 10
35.8225861324
 20
76.2596257683
 30
0.0
 10
36.0274911336
 20
75.8874641426
 30
0.0
 10
36.4006010373
 20
75.1318788395
 30
0.0
 10
36.8474502645
 20
73.9699259383
 30
0.0
 10
37.1685303571
 20
72.8119310684
 30
0.0
 10
37.2974814608
 20
72.0373313987
 30
0.0
 10
37.3369398875
 20
71.6578804698
 30
0.0
  0
SPLINE
  5
2C9
100
AcDbEntity
  8
0
100
AcDbSpline
 62
7
  6
BYLAYER
 70
0
 71
3
 72
9
 73
5
 74
0
 42
0.0000001
 43
0.0000001
 44
0.0000000001
 40
0.0
 40
0.0
 40
0.0
 40
0.0
 40
0.490466475
 40
1.0
 40
1.0
 40
1.0
 40
1.0
 10
35.0395744803
 20
80.5425374004
 30
0.0
 10
35.1134334439
 20
79.8340765723
 30
0.0
 10
35.3231283703
 20
78.3953426821
 30
0.0
 10
35.6379914125
 20
76.9762232673
 30
0.0
 10
35.8225861324
 20
76.2596257683
 30
0.0
  0
SPLINE
  5
2CA
100
AcDbEntity
  8
0
100
AcDbSpline
 62
7
  6
BYLAYER
 70
0
 71
3
 72
13
 73
9
 74
0
 42
0.0000001
 43
0.0000001
 44
0.0000000001
 40
0.0
 40
0.0
 40
0.0
 40
0.0
 40
0.2773738193
 40
0.5325444751
 40
0.6534786012
 40
0.770987325
 40
0.8861065989
 40
1.0
 40
1.0
 40
1.0
 40
1.0
 10
31.0685687758
 20
65.9602009871
 30
0.0
 10
31.3374376912
 20
65.8662848157
 30
0.0
 10
31.8684919875
 20
65.7242038752
 30
0.0
 10
32.5426455107
 20
65.6739702559
 30
0.0
 10
33.0482952444
 20
65.7209565625
 30
0.0
 10
33.4042779107
 20
65.7965857292
 30
0.0
 10
33.7414237835
 20
65.9130024177
 30
0.0
 10
33.9528764321
 20
66.017582362
 30
0.0
 10
34.0541512698
 20
66.0760541467
 30
0.0
  0
SPLINE
  5
2CB
100
AcDbEntity
  8
0
100
AcDbSpline
 62
7
  6
BYLAYER
 70
0
 71
3
 72
13
 73
9
 74
0
 42
0.0000001
 43
0.0000001
 44
0.0000000001
 40
0.0
 40
0.0
 40
0.0
 40
0.0
 40
0.1135432396
 40
0.2287776296
 40
0.3466065691
 40
0.4678907909
 40
0.7234277843
 40
1.0
 40
1.0
 40
1.0
 40
1.0
 10
25.6879325418
 20
80.2328309063
 30
0.0
 10
25.5956806867
 20
80.171798018
 30
0.0
 10
25.4170966778
 20
80.0374035735
 30
0.0
 10
25.1725730827
 20
79.80349844
 30
0.0
 10
24.9514562079
 20
79.537447997
 30
0.0
 10
24.6847743856
 20
79.1351048716
 30
0.0
 10
24.4172289957
 20
78.5529877403
 30
0.0
 10
24.2850725192
 20
78.0492088981
 30
0.0
 10
24.2352487484
 20
77.7844189767
 30
0.0
  0
SPLINE
  5
2CC
100
AcDbEntity
  8
0
100
AcDbSpline
 62
7
  6
BYLAYER
 70
0
 71
3
 72
9
 73
5
 74
0
 42
0.0000001
 43
0.0000001
 44
0.0000000001
 40
0.0
 40
0.0
 40
0.0
 40
0.0
 40
0.2540896837
 40
1.0
 40
1.0
 40
1.0
 40
1.0
 10
26.0476760963
 20
81.3737708461
 30
0.0
 10
26.0214882565
 20
81.2758704406
 30
0.0
 10
25.9142939882
 20
80.8916933052
 30
0.0
 10
25.790347354
 20
80.5121498859
 30
0.0
 10
25.6879325418
 20
80.2328309063
 30
0.0
  0
SPLINE
  5
2CD
100
AcDbEntity
  8
0
100
AcDbSpline
 62
7
  6
BYLAYER
 70
0
 71
3
 72
15
 73
11
 74
0
 42
0.0000001
 43
0.0000001
 44
0.0000000001
 40
0.0
 40
0.0
 40
0.0
 40
0.0
 40
0.1485246611
 40
0.289498162
 40
0.4227379429
 40
0.5486414326
 40
0.6679925786
 40
0.7819373112
 40
0.891986906
 40
1.0
 40
1.0
 40
1.0
 40
1.0
 10
21.3532938949
 20
86.2190649609
 30
0.0
 10
21.4434716562
 20
86.167001984
 30
0.0
 10
21.6235779961
 20
86.0727583722
 30
0.0
 10
21.8982766116
 20
85.9602660714
 30
0.0
 10
22.1681409308
 20
85.8816132623
 30
0.0
 10
22.4305106976
 20
85.8375832407
 30
0.0
 10
22.6829874462
 20
85.8288500721
 30
0.0
 10
22.9231647813
 20
85.8555842023
 30
0.0
 10
23.1484549476
 20
85.9179265507
 30
0.0
 10
23.2877047074
 20
85.9831044274
 30
0.0
 10
23.3532849413
 20
86.0209678447
 30
0.0
  0
SPLINE
  5
2CE
100
AcDbEntity
  8
0
100
AcDbSpline
 62
7
  6
BYLAYER
 70
0
 71
3
 72
16
 73
12
 74
0
 42
0.0000001
 43
0.0000001
 44
0.0000000001
 40
0.0
 40
0.0
 40
0.0
 40
0.0
 40
0.1485625208
 40
0.2894888276
 40
0.4226967419
 40
0.4865528474
 40
0.548664155
 40
0.6680184787
 40
0.7819484438
 40
0.8919909684
 40
1.0
 40
1.0
 40
1.0
 40
1.0
 10
22.1285925231
 20
82.1759178664
 30
0.0
 10
22.3428327313
 20
82.0522290228
 30
0.0
 10
22.7705816651
 20
81.8283325874
 30
0.0
 10
23.4229603727
 20
81.5612787526
 30
0.0
 10
23.9645279945
 20
81.4034113505
 30
0.0
 10
24.3882302965
 20
81.3200579754
 30
0.0
 10
24.793388385
 20
81.2662585425
 30
0.0
 10
25.2866427661
 20
81.2490590099
 30
0.0
 10
25.8570232162
 20
81.3126967276
 30
0.0
 10
26.3921050942
 20
81.4606763592
 30
0.0
 10
26.7228110395
 20
81.6155149832
 30
0.0
 10
26.878569088
 20
81.7054409742
 30
0.0
  0
SPLINE
  5
2CF
100
AcDbEntity
  8
0
100
AcDbSpline
 62
7
  6
BYLAYER
 70
0
 71
3
 72
25
 73
21
 74
0
 42
0.0000001
 43
0.0000001
 44
0.0000000001
 40
0.0
 40
0.0
 40
0.0
 40
0.0
 40
0.0616221831
 40
0.1270478905
 40
0.1956299756
 40
0.2665817327
 40
0.3390040702
 40
0.4119382139
 40
0.4844018598
 40
0.5554337189
 40
0.6241323301
 40
0.6897000798
 40
0.7514918212
 40
0.8090717043
 40
0.8622810349
 40
0.9113169569
 40
0.934478656
 40
0.9568734548
 40
0.9786545157
 40
1.0
 40
1.0
 40
1.0
 40
1.0
 10
25.946953244
 20
99.8939822228
 30
0.0
 10
26.2763187557
 20
99.7038272578
 30
0.0
 10
26.9309584201
 20
99.2684835972
 30
0.0
 10
27.8604894237
 20
98.4949610457
 30
0.0
 10
28.7517549482
 20
97.5947275992
 30
0.0
 10
29.5869791929
 20
96.585844124
 30
0.0
 10
30.3496248037
 20
95.4882614417
 30
0.0
 10
31.0245091689
 20
94.3238819467
 30
0.0
 10
31.5981677093
 20
93.1159002308
 30
0.0
 10
32.0591741155
 20
91.8883876298
 30
0.0
 10
32.3983516347
 20
90.6657287861
 30
0.0
 10
32.6089296689
 20
89.4720878239
 30
0.0
 10
32.6866309812
 20
88.33090277
 30
0.0
 10
32.6295028549
 20
87.2642328252
 30
0.0
 10
32.4380144085
 20
86.2928790385
 30
0.0
 10
32.1625859349
 20
85.5644443957
 30
0.0
 10
31.8764191439
 20
85.0545319789
 30
0.0
 10
31.6354078334
 20
84.7149166844
 30
0.0
 10
31.3653143966
 20
84.4128225613
 30
0.0
 10
31.1651270027
 20
84.2362551699
 30
0.0
 10
31.0611764923
 20
84.1553266595
 30
0.0
  0
SPLINE
  5
2D0
100
AcDbEntity
  8
0
100
AcDbSpline
 62
7
  6
BYLAYER
 70
0
 71
3
 72
15
 73
11
 74
0
 42
0.0000001
 43
0.0000001
 44
0.0000000001
 40
0.0
 40
0.0
 40
0.0
 40
0.0
 40
0.1080104988
 40
0.2180578172
 40
0.3320020996
 40
0.4513533898
 40
0.5772581072
 40
0.7105002395
 40
0.8514756142
 40
1.0
 40
1.0
 40
1.0
 40
1.0
 10
20.1286038364
 20
93.3967935276
 30
0.0
 10
20.1941824865
 20
93.4346558779
 30
0.0
 10
20.3334276136
 20
93.4998350791
 30
0.0
 10
20.5587143416
 20
93.5621755183
 30
0.0
 10
20.7988891237
 20
93.5889114042
 30
0.0
 10
21.0513664609
 20
93.5801824013
 30
0.0
 10
21.3137387379
 20
93.5361527985
 30
0.0
 10
21.5836067284
 20
93.4575000224
 30
0.0
 10
21.8583075556
 20
93.3450066679
 30
0.0
 10
22.0384150309
 20
93.2507633193
 30
0.0
 10
22.1285925231
 20
93.1987004977
 30
0.0
  0
SPLINE
  5
2D1
100
AcDbEntity
  8
0
100
AcDbSpline
 62
7
  6
BYLAYER
 70
0
 71
3
 72
25
 73
21
 74
0
 42
0.0000001
 43
0.0000001
 44
0.0000000001
 40
0.0
 40
0.0
 40
0.0
 40
0.0
 40
0.0213325929
 40
0.042893433
 40
0.0648993531
 40
0.0875443933
 40
0.1353203028
 40
0.1872217701
 40
0.2436596973
 40
0.3046075795
 40
0.369695107
 40
0.4382920168
 40
0.5095780777
 40
0.5826019709
 40
0.6563334784
 40
0.729709968
 40
0.8016854373
 40
0.8712768176
 40
0.9376174766
 40
1.0
 40
1.0
 40
1.0
 40
1.0
 10
26.878569088
 20
81.7054409742
 30
0.0
 10
26.9952870015
 20
81.7728273735
 30
0.0
 10
27.2215272427
 20
81.923566871
 30
0.0
 10
27.532085208
 20
82.1928208703
 30
0.0
 10
27.8128712408
 20
82.5042839584
 30
0.0
 10
28.1514888212
 20
82.9813953011
 30
0.0
 10
28.4904234733
 20
83.682521961
 30
0.0
 10
28.7487932197
 20
84.6390718412
 30
0.0
 10
28.8639269195
 20
85.7061287648
 30
0.0
 10
28.8345016191
 20
86.8614709365
 30
0.0
 10
28.6618266199
 20
88.0813482857
 30
0.0
 10
28.3497474684
 20
89.3402451119
 30
0.0
 10
27.9049554545
 20
90.6116081414
 30
0.0
 10
27.3369241069
 20
91.8684445745
 30
0.0
 10
26.6577591258
 20
93.0839695303
 30
0.0
 10
25.8819568144
 20
94.2322615855
 30
0.0
 10
25.0260572904
 20
95.2888063418
 30
0.0
 10
24.1081934381
 20
96.2312115235
 30
0.0
 10
23.1479696451
 20
97.0392770065
 30
0.0
 10
22.4699096685
 20
97.4924087041
 30
0.0
 10
22.1285925231
 20
97.6894637919
 30
0.0
  0
SPLINE
  5
2D2
100
AcDbEntity
  8
0
100
AcDbSpline
 62
7
  6
BYLAYER
 70
0
 71
3
 72
11
 73
7
 74
0
 42
0.0000001
 43
0.0000001
 44
0.0000000001
 40
0.0
 40
0.0
 40
0.0
 40
0.0
 40
0.2780336209
 40
0.5367156351
 40
0.7766214116
 40
1.0
 40
1.0
 40
1.0
 40
1.0
 10
29.4939083716
 20
83.1874937484
 30
0.0
 10
29.4939083716
 20
83.1186638355
 30
0.0
 10
29.5011645524
 20
82.9856225421
 30
0.0
 10
29.5363864877
 20
82.79598912
 30
0.0
 10
29.5952521339
 20
82.6264567652
 30
0.0
 10
29.6515760561
 20
82.5256214225
 30
0.0
 10
29.6833762737
 20
82.4803800226
 30
0.0
  0
SPLINE
  5
2D3
100
AcDbEntity
  8
0
100
AcDbSpline
 62
7
  6
BYLAYER
 70
0
 71
3
 72
15
 73
11
 74
0
 42
0.0000001
 43
0.0000001
 44
0.0000000001
 40
0.0
 40
0.0
 40
0.0
 40
0.0
 40
0.1118018295
 40
0.2250952265
 40
0.3412775967
 40
0.4615555679
 40
0.5869271849
 40
0.7181744197
 40
0.8558224873
 40
1.0
 40
1.0
 40
1.0
 40
1.0
 10
34.0541512698
 20
66.0760541467
 30
0.0
 10
34.1671096131
 20
66.1412714906
 30
0.0
 10
34.3854080083
 20
66.2891253667
 30
0.0
 10
34.6812540208
 20
66.5574018777
 30
0.0
 10
34.9443346485
 20
66.8708773396
 30
0.0
 10
35.1729911057
 20
67.2269718964
 30
0.0
 10
35.3657188351
 20
67.6232298252
 30
0.0
 10
35.5214863748
 20
68.0568929251
 30
0.0
 10
35.6392193324
 20
68.5248987977
 30
0.0
 10
35.6908603316
 20
68.8500784251
 30
0.0
 10
35.7106010619
 20
69.0171205257
 30
0.0
  0
SPLINE
  5
2D4
100
AcDbEntity
  8
0
100
AcDbSpline
 62
7
  6
BYLAYER
 70
0
 71
3
 72
23
 73
19
 74
0
 42
0.0000001
 43
0.0000001
 44
0.0000000001
 40
0.0
 40
0.0
 40
0.0
 40
0.0
 40
0.0428147452
 40
0.0873969745
 40
0.1351796187
 40
0.1870887444
 40
0.2435362
 40
0.3044941378
 40
0.369591932
 40
0.4382001608
 40
0.5094985314
 40
0.5825345471
 40
0.6562773538
 40
0.7296665417
 40
0.801655683
 40
0.8712521223
 40
0.9376170698
 40
1.0
 40
1.0
 40
1.0
 40
1.0
 10
23.3532849413
 20
86.0209678447
 30
0.0
 10
23.4519016687
 20
86.0779052187
 30
0.0
 10
23.6388372558
 20
86.2209967957
 30
0.0
 10
23.8637970664
 20
86.5054700004
 30
0.0
 10
24.0319082558
 20
86.8533590442
 30
0.0
 10
24.1407669623
 20
87.2561824742
 30
0.0
 10
24.1892177597
 20
87.7054493746
 30
0.0
 10
24.176830656
 20
88.1919161968
 30
0.0
 10
24.1041316864
 20
88.7055484115
 30
0.0
 10
23.9727389264
 20
89.2356156075
 30
0.0
 10
23.7854492963
 20
89.7709276052
 30
0.0
 10
23.5462713677
 20
90.3001201921
 30
0.0
 10
23.2603133324
 20
90.8119249927
 30
0.0
 10
22.9336619649
 20
91.2954266077
 30
0.0
 10
22.5732730945
 20
91.7402672757
 30
0.0
 10
22.1868030662
 20
92.1371047797
 30
0.0
 10
21.7824776689
 20
92.477308957
 30
0.0
 10
21.4969841508
 20
92.6681265668
 30
0.0
 10
21.3532938949
 20
92.751084298
 30
0.0
  0
SPLINE
  5
2D5
100
AcDbEntity
  8
0
100
AcDbSpline
 62
7
  6
BYLAYER
 70
0
 71
3
 72
29
 73
25
 74
0
 42
0.0000001
 43
0.0000001
 44
0.0000000001
 40
0.0
 40
0.0
 40
0.0
 40
0.0
 40
0.0603273013
 40
0.0881340735
 40
0.1144029684
 40
0.1393011663
 40
0.1630726054
 40
0.1860339839
 40
0.2085689735
 40
0.2311036904
 40
0.2540642018
 40
0.2778359172
 40
0.3027387399
 40
0.3290109083
 40
0.356805527
 40
0.4171387992
 40
0.4836745691
 40
0.5554656647
 40
0.6310328589
 40
0.7085650897
 40
0.7861004117
 40
0.8616650367
 40
0.9334687107
 40
1.0
 40
1.0
 40
1.0
 40
1.0
 10
20.7497400405
 20
91.1955030348
 30
0.0
 10
20.6390669908
 20
91.2593987043
 30
0.0
 10
20.4691184494
 20
91.3402618421
 30
0.0
 10
20.2360727256
 20
91.4082410841
 30
0.0
 10
20.070644335
 20
91.4359840838
 30
0.0
 10
19.91148947
 20
91.4415056544
 30
0.0
 10
19.760105711
 20
91.4245992023
 30
0.0
 10
19.6180352809
 20
91.385351386
 30
0.0
 10
19.486904241
 20
91.3239094519
 30
0.0
 10
19.36813295
 20
91.2410650986
 30
0.0
 10
19.2631063969
 20
91.1376571962
 30
0.0
 10
19.1727663735
 20
91.0150019932
 30
0.0
 10
19.0979831931
 20
90.8743795832
 30
0.0
 10
19.0393111211
 20
90.7172578931
 30
0.0
 10
18.9816215067
 20
90.4814077215
 30
0.0
 10
18.9554396108
 20
90.1526269752
 30
0.0
 10
18.9925166779
 20
89.7319222112
 30
0.0
 10
19.0954303509
 20
89.2892951719
 30
0.0
 10
19.2602974489
 20
88.8411560348
 30
0.0
 10
19.4809404043
 20
88.4040836028
 30
0.0
 10
19.749122804
 20
87.9944823928
 30
0.0
 10
20.0548232946
 20
87.6275687814
 30
0.0
 10
20.386585064
 20
87.3172182552
 30
0.0
 10
20.627685506
 20
87.1481930476
 30
0.0
 10
20.7497400405
 20
87.0777264235
 30
0.0
  0
SPLINE
  5
2D6
100
AcDbEntity
  8
0
100
AcDbSpline
 62
7
  6
BYLAYER
 70
0
 71
3
 72
29
 73
25
 74
0
 42
0.0000001
 43
0.0000001
 44
0.0000000001
 40
0.0
 40
0.0
 40
0.0
 40
0.0
 40
0.0603273013
 40
0.0881340735
 40
0.1144029684
 40
0.1393011663
 40
0.1630726054
 40
0.1860339839
 40
0.2085689735
 40
0.2311036904
 40
0.2540642018
 40
0.2778359172
 40
0.3027387399
 40
0.3290109083
 40
0.356805527
 40
0.4171387992
 40
0.4836745691
 40
0.5554656647
 40
0.6310328589
 40
0.7085650897
 40
0.7861004117
 40
0.8616650367
 40
0.9334687107
 40
1.0
 40
1.0
 40
1.0
 40
1.0
 10
20.7497400405
 20
87.0777264235
 30
0.0
 10
20.8604130902
 20
87.013830754
 30
0.0
 10
21.0303616316
 20
86.9329676161
 30
0.0
 10
21.2634073554
 20
86.8649883742
 30
0.0
 10
21.428835746
 20
86.8372453744
 30
0.0
 10
21.587990611
 20
86.8317238039
 30
0.0
 10
21.73937437
 20
86.848630256
 30
0.0
 10
21.8814448001
 20
86.8878780722
 30
0.0
 10
22.01257584
 20
86.9493200063
 30
0.0
 10
22.131347131
 20
87.0321643596
 30
0.0
 10
22.2363736841
 20
87.1355722621
 30
0.0
 10
22.3267137075
 20
87.258227465
 30
0.0
 10
22.4014968879
 20
87.3988498751
 30
0.0
 10
22.4601689599
 20
87.5559715652
 30
0.0
 10
22.5178585743
 20
87.7918217368
 30
0.0
 10
22.5440404702
 20
88.1206024831
 30
0.0
 10
22.5069634031
 20
88.5413072471
 30
0.0
 10
22.4040497301
 20
88.9839342864
 30
0.0
 10
22.2391826321
 20
89.4320734234
 30
0.0
 10
22.0185396767
 20
89.8691458555
 30
0.0
 10
21.750357277
 20
90.2787470655
 30
0.0
 10
21.4446567864
 20
90.6456606768
 30
0.0
 10
21.112895017
 20
90.9560112031
 30
0.0
 10
20.871794575
 20
91.1250364106
 30
0.0
 10
20.7497400405
 20
91.1955030348
 30
0.0
  0
SPLINE
  5
2D7
100
AcDbEntity
  8
0
100
AcDbSpline
 62
7
  6
BYLAYER
 70
0
 71
3
 72
15
 73
11
 74
0
 42
0.0000001
 43
0.0000001
 44
0.0000000001
 40
0.0
 40
0.0
 40
0.0
 40
0.0
 40
0.1485246611
 40
0.289498162
 40
0.4227379429
 40
0.5486414326
 40
0.6679925786
 40
0.7819373112
 40
0.891986906
 40
1.0
 40
1.0
 40
1.0
 40
1.0
 10
21.3532938949
 20
92.751084298
 30
0.0
 10
21.2631161337
 20
92.8031472749
 30
0.0
 10
21.0830097938
 20
92.8973908867
 30
0.0
 10
20.8083111783
 20
93.0098831874
 30
0.0
 10
20.5384468591
 20
93.0885359965
 30
0.0
 10
20.2760770923
 20
93.1325660182
 30
0.0
 10
20.0236003437
 20
93.1412991868
 30
0.0
 10
19.7834230086
 20
93.1145650566
 30
0.0
 10
19.5581328423
 20
93.0522227082
 30
0.0
 10
19.4188830825
 20
92.9870448315
 30
0.0
 10
19.3533028486
 20
92.9491814142
 30
0.0
  0
SPLINE
  5
2D8
100
AcDbEntity
  8
0
100
AcDbSpline
 62
7
  6
BYLAYER
 70
0
 71
3
 72
9
 73
5
 74
0
 42
0.0000001
 43
0.0000001
 44
0.0000000001
 40
0.0
 40
0.0
 40
0.0
 40
0.0
 40
0.509533525
 40
1.0
 40
1.0
 40
1.0
 40
1.0
 10
34.1962473068
 20
75.3206642144
 30
0.0
 10
34.011652587
 20
76.0372617134
 30
0.0
 10
33.6967895447
 20
77.4563811282
 30
0.0
 10
33.4870946183
 20
78.8951150184
 30
0.0
 10
33.4132356547
 20
79.6035758465
 30
0.0
  0
SPLINE
  5
2D9
100
AcDbEntity
  8
0
100
AcDbSpline
 62
7
  6
BYLAYER
 70
0
 71
3
 72
23
 73
19
 74
0
 42
0.0000001
 43
0.0000001
 44
0.0000000001
 40
0.0
 40
0.0
 40
0.0
 40
0.0
 40
0.0623830146
 40
0.1287483076
 40
0.198345386
 40
0.2703347058
 40
0.3437227736
 40
0.4174656368
 40
0.4905026786
 40
0.5618016735
 40
0.630410118
 40
0.6955077069
 40
0.7564651346
 40
0.8129120159
 40
0.8648206991
 40
0.9126030433
 40
0.9571852423
 40
1.0
 40
1.0
 40
1.0
 40
1.0
 10
22.1285925231
 20
93.1987004977
 30
0.0
 10
22.2722828169
 20
93.1157427446
 30
0.0
 10
22.557776974
 20
92.9249246791
 30
0.0
 10
22.9621036735
 20
92.5847184937
 30
0.0
 10
23.348574679
 20
92.1878784223
 30
0.0
 10
23.7089615052
 20
91.7430379949
 30
0.0
 10
24.0356116839
 20
91.259539162
 30
0.0
 10
24.3215671936
 20
90.747733787
 30
0.0
 10
24.5607470321
 20
90.218537799
 30
0.0
 10
24.7480365459
 20
89.6832210814
 30
0.0
 10
24.8794277361
 20
89.1531523893
 30
0.0
 10
24.9521251264
 20
88.6395218612
 30
0.0
 10
24.9645104659
 20
88.1530589611
 30
0.0
 10
24.9160589212
 20
87.7037967497
 30
0.0
 10
24.80720118
 20
87.3009773284
 30
0.0
 10
24.639091771
 20
86.9530899424
 30
0.0
 10
24.4141314353
 20
86.6686191306
 30
0.0
 10
24.2271979579
 20
86.5255252874
 30
0.0
 10
24.1285812097
 20
86.4685881308
 30
0.0
  0
SPLINE
  5
2DA
100
AcDbEntity
  8
0
100
AcDbSpline
 62
7
  6
BYLAYER
 70
0
 71
3
 72
11
 73
7
 74
0
 42
0.0000001
 43
0.0000001
 44
0.0000000001
 40
0.0
 40
0.0
 40
0.0
 40
0.0
 40
0.2348208413
 40
0.4821332679
 40
0.7384995337
 40
1.0
 40
1.0
 40
1.0
 40
1.0
 10
35.7106010619
 20
70.7189189159
 30
0.0
 10
35.6711426352
 20
71.0983698448
 30
0.0
 10
35.5421915315
 20
71.8729695145
 30
0.0
 10
35.221111439
 20
73.0309643844
 30
0.0
 10
34.7742622117
 20
74.1929172856
 30
0.0
 10
34.401152308
 20
74.9485025887
 30
0.0
 10
34.1962473068
 20
75.3206642144
 30
0.0
  0
SPLINE
  5
2DB
100
AcDbEntity
  8
0
100
AcDbSpline
 62
7
  6
BYLAYER
 70
0
 71
3
 72
16
 73
12
 74
0
 42
0.0000001
 43
0.0000001
 44
0.0000000001
 40
0.0
 40
0.0
 40
0.0
 40
0.0
 40
0.1485625208
 40
0.2894888276
 40
0.4226967419
 40
0.4865528474
 40
0.548664155
 40
0.6680184787
 40
0.7819484438
 40
0.8919909684
 40
1.0
 40
1.0
 40
1.0
 40
1.0
 10
22.1285925231
 20
97.6894637919
 30
0.0
 10
21.9143523149
 20
97.8131526356
 30
0.0
 10
21.486603381
 20
98.0370490709
 30
0.0
 10
20.8342246735
 20
98.3041029057
 30
0.0
 10
20.2926570516
 20
98.4619703079
 30
0.0
 10
19.8689547497
 20
98.5453236829
 30
0.0
 10
19.4637966611
 20
98.5991231159
 30
0.0
 10
18.97054228
 20
98.6163226485
 30
0.0
 10
18.4001618299
 20
98.5526849308
 30
0.0
 10
17.865079952
 20
98.4047052991
 30
0.0
 10
17.5343740067
 20
98.2498666752
 30
0.0
 10
17.3786159582
 20
98.1599406841
 30
0.0
  0
SPLINE
  5
2DC
100
AcDbEntity
  8
0
100
AcDbSpline
 62
7
  6
BYLAYER
 70
0
 71
3
 72
9
 73
5
 74
0
 42
0.0000001
 43
0.0000001
 44
0.0000000001
 40
0.0
 40
0.0
 40
0.0
 40
0.0
 40
0.2492942338
 40
1.0
 40
1.0
 40
1.0
 40
1.0
 10
31.1168187752
 20
62.3025398214
 30
0.0
 10
31.0878755336
 20
62.2969549083
 30
0.0
 10
30.9725589117
 20
62.2706231553
 30
0.0
 10
30.8608770526
 20
62.2286770687
 30
0.0
 10
30.7811629924
 20
62.1896265837
 30
0.0
  0
SPLINE
  5
2DD
100
AcDbEntity
  8
0
100
AcDbSpline
 62
7
  6
BYLAYER
 70
0
 71
3
 72
9
 73
5
 74
0
 42
0.0000001
 43
0.0000001
 44
0.0000000001
 40
0.0
 40
0.0
 40
0.0
 40
0.0
 40
0.2438657728
 40
1.0
 40
1.0
 40
1.0
 40
1.0
 10
33.3670097981
 20
58.7681815742
 30
0.0
 10
33.3752153758
 20
58.8120234466
 30
0.0
 10
33.4048532886
 20
58.9925396797
 30
0.0
 10
33.4190785186
 20
59.1755034521
 30
0.0
 10
33.4220042152
 20
59.3137697728
 30
0.0
  0
SPLINE
  5
2DE
100
AcDbEntity
  8
0
100
AcDbSpline
 62
7
  6
BYLAYER
 70
0
 71
3
 72
11
 73
7
 74
0
 42
0.0000001
 43
0.0000001
 44
0.0000000001
 40
0.0
 40
0.0
 40
0.0
 40
0.0
 40
0.2481359747
 40
0.5008146372
 40
0.7531977668
 40
1.0
 40
1.0
 40
1.0
 40
1.0
 10
33.4223911371
 20
59.3349719383
 30
0.0
 10
33.4249265115
 20
59.5002219293
 30
0.0
 10
33.4074804588
 20
59.8344329986
 30
0.0
 10
33.3179754838
 20
60.3293736829
 30
0.0
 10
33.1655408794
 20
60.807857272
 30
0.0
 10
33.021021327
 20
61.1088953614
 30
0.0
 10
32.9382871715
 20
61.2509383429
 30
0.0
  0
SPLINE
  5
2DF
100
AcDbEntity
  8
0
100
AcDbSpline
 62
7
  6
BYLAYER
 70
0
 71
3
 72
9
 73
5
 74
0
 42
0.0000001
 43
0.0000001
 44
0.0000000001
 40
0.0
 40
0.0
 40
0.0
 40
0.0
 40
0.5219547558
 40
1.0
 40
1.0
 40
1.0
 40
1.0
 10
28.0987127179
 20
67.2561696496
 30
0.0
 10
28.1561811967
 20
67.0997148656
 30
0.0
 10
28.2448128708
 20
66.7915013954
 30
0.0
 10
28.2803437986
 20
66.4718785083
 30
0.0
 10
28.2803437986
 20
66.3192245976
 30
0.0
  0
SPLINE
  5
2E0
100
AcDbEntity
  8
0
100
AcDbSpline
 62
7
  6
BYLAYER
 70
0
 71
3
 72
9
 73
5
 74
0
 42
0.0000001
 43
0.0000001
 44
0.0000000001
 40
0.0
 40
0.0
 40
0.0
 40
0.0
 40
0.5080400597
 40
1.0
 40
1.0
 40
1.0
 40
1.0
 10
29.8767438025
 20
60.9989538695
 30
0.0
 10
29.8658713811
 20
61.0191660225
 30
0.0
 10
29.8505195176
 20
61.0628520123
 30
0.0
 10
29.8533956537
 20
61.1093307155
 30
0.0
 10
29.859048883
 20
61.1308240941
 30
0.0
  0
SPLINE
  5
2E1
100
AcDbEntity
  8
0
100
AcDbSpline
 62
7
  6
BYLAYER
 70
0
 71
3
 72
10
 73
6
 74
0
 42
0.0000001
 43
0.0000001
 44
0.0000000001
 40
0.0
 40
0.0
 40
0.0
 40
0.0
 40
0.2334213357
 40
0.484988992
 40
1.0
 40
1.0
 40
1.0
 40
1.0
 10
33.3222331058
 20
59.3319218471
 30
0.0
 10
33.288774032
 20
59.3158022549
 30
0.0
 10
33.2155434389
 20
59.2897764021
 30
0.0
 10
33.0586404011
 20
59.2612932053
 30
0.0
 10
32.9345387142
 20
59.2656802626
 30
0.0
 10
32.8538816047
 20
59.2801416485
 30
0.0
  0
SPLINE
  5
2E2
100
AcDbEntity
  8
0
100
AcDbSpline
 62
7
  6
BYLAYER
 70
0
 71
3
 72
11
 73
7
 74
0
 42
0.0000001
 43
0.0000001
 44
0.0000000001
 40
0.0
 40
0.0
 40
0.0
 40
0.0
 40
0.2865322617
 40
0.5418742074
 40
0.7743014256
 40
1.0
 40
1.0
 40
1.0
 40
1.0
 10
29.9665149042
 20
60.289611409
 30
0.0
 10
29.9462885715
 20
60.2756171233
 30
0.0
 10
29.9103709145
 20
60.2453917788
 30
0.0
 10
29.8709203687
 20
60.1908688128
 30
0.0
 10
29.8514986737
 20
60.1315913856
 30
0.0
 10
29.8531120237
 20
60.0913582346
 30
0.0
 10
29.8570607324
 20
60.0723911888
 30
0.0
  0
SPLINE
  5
2E3
100
AcDbEntity
  8
0
100
AcDbSpline
 62
7
  6
BYLAYER
 70
0
 71
3
 72
19
 73
15
 74
0
 42
0.0000001
 43
0.0000001
 44
0.0000000001
 40
0.0
 40
0.0
 40
0.0
 40
0.0
 40
0.0428394104
 40
0.0874448899
 40
0.1352571039
 40
0.1871950253
 40
0.2436735499
 40
0.3046656819
 40
0.4382689093
 40
0.5825434307
 40
0.7296392143
 40
0.871166535
 40
0.9376088396
 40
1.0
 40
1.0
 40
1.0
 40
1.0
 10
41.2414803231
 20
60.0775966727
 30
0.0
 10
41.2944825416
 20
60.1082026754
 30
0.0
 10
41.4113348645
 20
60.1567233365
 30
0.0
 10
41.6041927666
 20
60.1850344697
 30
0.0
 10
41.8113027367
 20
60.1697591582
 30
0.0
 10
42.0280536458
 20
60.1121864487
 30
0.0
 10
42.2502137657
 20
60.0140275986
 30
0.0
 10
42.5568750856
 20
59.8263067776
 30
0.0
 10
42.922206127
 20
59.5027801466
 30
0.0
 10
43.2976957172
 20
59.0220490913
 30
0.0
 10
43.5933652851
 20
58.475682351
 30
0.0
 10
43.7569708597
 20
57.9921390014
 30
0.0
 10
43.824612403
 20
57.6112557604
 30
0.0
 10
43.8367577519
 20
57.4270656715
 30
0.0
 10
43.8367577519
 20
57.3379279982
 30
0.0
  0
SPLINE
  5
2E4
100
AcDbEntity
  8
0
100
AcDbSpline
 62
7
  6
BYLAYER
 70
0
 71
3
 72
9
 73
5
 74
0
 42
0.0000001
 43
0.0000001
 44
0.0000000001
 40
0.0
 40
0.0
 40
0.0
 40
0.0
 40
0.2462695469
 40
1.0
 40
1.0
 40
1.0
 40
1.0
 10
29.8767438025
 20
60.9989538695
 30
0.0
 10
29.8842884259
 20
60.9823847205
 30
0.0
 10
29.9160246891
 20
60.9156088739
 30
0.0
 10
29.952067081
 20
60.8508952563
 30
0.0
 10
29.981302326
 20
60.8034596082
 30
0.0
  0
SPLINE
  5
2E5
100
AcDbEntity
  8
0
100
AcDbSpline
 62
7
  6
BYLAYER
 70
0
 71
3
 72
9
 73
5
 74
0
 42
0.0000001
 43
0.0000001
 44
0.0000000001
 40
0.0
 40
0.0
 40
0.0
 40
0.0
 40
0.2425311197
 40
1.0
 40
1.0
 40
1.0
 40
1.0
 10
29.981302326
 20
60.8034596082
 30
0.0
 10
29.9988546073
 20
60.7749801536
 30
0.0
 10
30.0743449079
 20
60.6594931753
 30
0.0
 10
30.1615439447
 20
60.5517611511
 30
0.0
 10
30.2326090818
 20
60.4751690456
 30
0.0
  0
SPLINE
  5
2E6
100
AcDbEntity
  8
0
100
AcDbSpline
 62
7
  6
BYLAYER
 70
0
 71
3
 72
20
 73
16
 74
0
 42
0.0000001
 43
0.0000001
 44
0.0000000001
 40
0.0
 40
0.0
 40
0.0
 40
0.0
 40
0.0516198554
 40
0.1047139432
 40
0.1593994461
 40
0.2157936738
 40
0.273658345
 40
0.333099721
 40
0.3941032385
 40
0.4565163245
 40
0.520338597
 40
0.5856117964
 40
0.719686386
 40
0.858122323
 40
1.0
 40
1.0
 40
1.0
 40
1.0
 10
30.2326090818
 20
60.4751690456
 30
0.0
 10
30.2669211523
 20
60.4381884132
 30
0.0
 10
30.3390608092
 20
60.3655085222
 30
0.0
 10
30.4544216767
 20
60.2607325843
 30
0.0
 10
30.5791134062
 20
60.15961093
 30
0.0
 10
30.7132524897
 20
60.0632328304
 30
0.0
 10
30.8551405746
 20
59.9699527828
 30
0.0
 10
31.0052535472
 20
59.8813153223
 30
0.0
 10
31.1631871658
 20
59.7975898255
 30
0.0
 10
31.3280477311
 20
59.7180960041
 30
0.0
 10
31.4997715548
 20
59.6435217594
 30
0.0
 10
31.7399448903
 20
59.5513823427
 30
0.0
 10
32.0539597244
 20
59.448634431
 30
0.0
 10
32.4471581258
 20
59.350462977
 30
0.0
 10
32.7167977633
 20
59.3009470092
 30
0.0
 10
32.8538816047
 20
59.2801416485
 30
0.0
  0
SPLINE
  5
2E7
100
AcDbEntity
  8
0
100
AcDbSpline
 62
7
  6
BYLAYER
 70
0
 71
3
 72
11
 73
7
 74
0
 42
0.0000001
 43
0.0000001
 44
0.0000000001
 40
0.0
 40
0.0
 40
0.0
 40
0.0
 40
0.2708298928
 40
0.5258929718
 40
0.7675255043
 40
1.0
 40
1.0
 40
1.0
 40
1.0
 10
27.0459817209
 20
58.7862429248
 30
0.0
 10
26.990540081
 20
58.6680336943
 30
0.0
 10
26.8696762777
 20
58.4443015576
 30
0.0
 10
26.6511100215
 20
58.1441707391
 30
0.0
 10
26.4019135329
 20
57.8941337777
 30
0.0
 10
26.2141417712
 20
57.7613358365
 30
0.0
 10
26.1170656043
 20
57.705328524
 30
0.0
  0
SPLINE
  5
2E8
100
AcDbEntity
  8
0
100
AcDbSpline
 62
7
  6
BYLAYER
 70
0
 71
3
 72
11
 73
7
 74
0
 42
0.0000001
 43
0.0000001
 44
0.0000000001
 40
0.0
 40
0.0
 40
0.0
 40
0.0
 40
0.2375059763
 40
0.4803360316
 40
0.7332560175
 40
1.0
 40
1.0
 40
1.0
 40
1.0
 10
25.2564547066
 20
78.8647156863
 30
0.0
 10
25.1265558793
 20
78.7897202729
 30
0.0
 10
24.8775349883
 20
78.612913951
 30
0.0
 10
24.5534347573
 20
78.2788883302
 30
0.0
 10
24.280758956
 20
77.8794422611
 30
0.0
 10
24.1391374391
 20
77.5818837145
 30
0.0
 10
24.0770893204
 20
77.4252688891
 30
0.0
  0
SPLINE
  5
2E9
100
AcDbEntity
  8
0
100
AcDbSpline
 62
7
  6
BYLAYER
 70
0
 71
3
 72
9
 73
5
 74
0
 42
0.0000001
 43
0.0000001
 44
0.0000000001
 40
0.0
 40
0.0
 40
0.0
 40
0.0
 40
0.4749041177
 40
1.0
 40
1.0
 40
1.0
 40
1.0
 10
24.0770893204
 20
77.4252688891
 30
0.0
 10
23.9654145803
 20
77.1433921731
 30
0.0
 10
23.8012975956
 20
76.5208619985
 30
0.0
 10
23.7548886612
 20
75.881011517
 30
0.0
 10
23.7548886612
 20
75.5457750752
 30
0.0
  0
SPLINE
  5
2EA
100
AcDbEntity
  8
0
100
AcDbSpline
 62
7
  6
BYLAYER
 70
0
 71
3
 72
14
 73
10
 74
0
 42
0.0000001
 43
0.0000001
 44
0.0000000001
 40
0.0
 40
0.0
 40
0.0
 40
0.0
 40
0.1040342314
 40
0.2107725949
 40
0.3225899739
 40
0.4413040225
 40
0.568103074
 40
0.7035798002
 40
1.0
 40
1.0
 40
1.0
 40
1.0
 10
26.3171099545
 20
79.4770827891
 30
0.0
 10
26.4574068564
 20
79.5580785482
 30
0.0
 10
26.7591686415
 20
79.6936190923
 30
0.0
 10
27.2516522766
 20
79.8063228192
 30
0.0
 10
27.779021105
 20
79.828787957
 30
0.0
 10
28.3335307515
 20
79.7616885886
 30
0.0
 10
28.9081143818
 20
79.6068420773
 30
0.0
 10
29.7148576488
 20
79.2767971901
 30
0.0
 10
30.2910199413
 20
78.918625794
 30
0.0
 10
30.6618730634
 20
78.6438170513
 30
0.0
  0
SPLINE
  5
2EB
100
AcDbEntity
  8
0
100
AcDbSpline
 62
7
  6
BYLAYER
 70
0
 71
3
 72
11
 73
7
 74
0
 42
0.0000001
 43
0.0000001
 44
0.0000000001
 40
0.0
 40
0.0
 40
0.0
 40
0.0
 40
0.2897033281
 40
0.5490895198
 40
0.7822165953
 40
1.0
 40
1.0
 40
1.0
 40
1.0
 10
43.8367577519
 20
55.7049231639
 30
0.0
 10
43.8367577519
 20
55.5959866535
 30
0.0
 10
43.8202413741
 20
55.3888124986
 30
0.0
 10
43.736338327
 20
55.1041660666
 30
0.0
 10
43.595073461
 20
54.8731915842
 30
0.0
 10
43.4623828735
 20
54.7616387828
 30
0.0
 10
43.3914616661
 20
54.7206926804
 30
0.0
  0
SPLINE
  5
2EC
100
AcDbEntity
  8
0
100
AcDbSpline
 62
7
  6
BYLAYER
 70
0
 71
3
 72
11
 73
7
 74
0
 42
0.0000001
 43
0.0000001
 44
0.0000000001
 40
0.0
 40
0.0
 40
0.0
 40
0.0
 40
0.2897033281
 40
0.5490895198
 40
0.7822165953
 40
1.0
 40
1.0
 40
1.0
 40
1.0
 10
28.9874535238
 20
64.2779790089
 30
0.0
 10
28.9874535238
 20
64.1690424984
 30
0.0
 10
28.970937146
 20
63.9618683436
 30
0.0
 10
28.8870340989
 20
63.6772219116
 30
0.0
 10
28.7457692329
 20
63.4462474292
 30
0.0
 10
28.6130786454
 20
63.3346946278
 30
0.0
 10
28.542157438
 20
63.2937485253
 30
0.0
  0
SPLINE
  5
2ED
100
AcDbEntity
  8
0
100
AcDbSpline
 62
7
  6
BYLAYER
 70
0
 71
3
 72
11
 73
7
 74
0
 42
0.0000001
 43
0.0000001
 44
0.0000000001
 40
0.0
 40
0.0
 40
0.0
 40
0.0
 40
0.2623101792
 40
0.5232787045
 40
0.7721956439
 40
1.0
 40
1.0
 40
1.0
 40
1.0
 10
28.2803437986
 20
66.1694700628
 30
0.0
 10
28.389225981
 20
66.027016523
 30
0.0
 10
28.5853329696
 20
65.7261148576
 30
0.0
 10
28.8083537689
 20
65.2457126789
 30
0.0
 10
28.9504716968
 20
64.7599102927
 30
0.0
 10
28.9874535238
 20
64.433692471
 30
0.0
 10
28.9874535238
 20
64.2779790089
 30
0.0
  0
SPLINE
  5
2EE
100
AcDbEntity
  8
0
100
AcDbSpline
 62
7
  6
BYLAYER
 70
0
 71
3
 72
17
 73
13
 74
0
 42
0.0000001
 43
0.0000001
 44
0.0000000001
 40
0.0
 40
0.0
 40
0.0
 40
0.0
 40
0.0541170068
 40
0.1081779052
 40
0.1629710222
 40
0.2188880961
 40
0.3351888735
 40
0.4597280302
 40
0.5919986239
 40
0.7290382572
 40
0.8664893821
 40
1.0
 40
1.0
 40
1.0
 40
1.0
 10
32.7907111074
 20
57.651698768
 30
0.0
 10
32.7214222678
 20
57.6210344104
 30
0.0
 10
32.5764994511
 20
57.573264125
 30
0.0
 10
32.3490294754
 20
57.5437425158
 30
0.0
 10
32.1174944724
 20
57.5541935316
 30
0.0
 10
31.8049422075
 20
57.6176464415
 30
0.0
 10
31.4199612922
 20
57.7862495274
 30
0.0
 10
30.9950039923
 20
58.0951766526
 30
0.0
 10
30.6109264574
 20
58.4943684715
 30
0.0
 10
30.2829094389
 20
58.9625632134
 30
0.0
 10
30.0264318984
 20
59.4752028074
 30
0.0
 10
29.9097369209
 20
59.8382784839
 30
0.0
 10
29.8683329586
 20
60.0205681456
 30
0.0
  0
SPLINE
  5
2EF
100
AcDbEntity
  8
0
100
AcDbSpline
 62
7
  6
BYLAYER
 70
0
 71
3
 72
11
 73
7
 74
0
 42
0.0000001
 43
0.0000001
 44
0.0000000001
 40
0.0
 40
0.0
 40
0.0
 40
0.0
 40
0.2551129599
 40
0.505611459
 40
0.7532336443
 40
1.0
 40
1.0
 40
1.0
 40
1.0
 10
29.8590286015
 20
61.1308242677
 30
0.0
 10
29.8787609189
 20
61.2059919157
 30
0.0
 10
29.9281178858
 20
61.3525798559
 30
0.0
 10
30.0349978152
 20
61.5567737933
 30
0.0
 10
30.1737839987
 20
61.7377828234
 30
0.0
 10
30.2870331763
 20
61.8387366158
 30
0.0
 10
30.347750008
 20
61.8830567708
 30
0.0
  0
SPLINE
  5
2F0
100
AcDbEntity
  8
0
100
AcDbSpline
 62
7
  6
BYLAYER
 70
0
 71
3
 72
9
 73
5
 74
0
 42
0.0000001
 43
0.0000001
 44
0.0000000001
 40
0.0
 40
0.0
 40
0.0
 40
0.0
 40
0.4899290023
 40
1.0
 40
1.0
 40
1.0
 40
1.0
 10
32.5867036136
 20
57.4738390378
 30
0.0
 10
32.6504686735
 20
57.5106530545
 30
0.0
 10
32.7735892435
 20
57.5984937344
 30
0.0
 10
32.8794383833
 20
57.7062345807
 30
0.0
 10
32.9288210952
 20
57.7648649779
 30
0.0
  0
SPLINE
  5
2F1
100
AcDbEntity
  8
0
100
AcDbSpline
 62
7
  6
BYLAYER
 70
0
 71
3
 72
9
 73
5
 74
0
 42
0.0000001
 43
0.0000001
 44
0.0000000001
 40
0.0
 40
0.0
 40
0.0
 40
0.0
 40
0.2413387303
 40
1.0
 40
1.0
 40
1.0
 40
1.0
 10
32.9288210952
 20
57.7648649779
 30
0.0
 10
32.9513273865
 20
57.7915859242
 30
0.0
 10
33.0407036133
 20
57.9055582299
 30
0.0
 10
33.1146644342
 20
58.0312745308
 30
0.0
 10
33.1626451271
 20
58.1300630174
 30
0.0
  0
SPLINE
  5
2F2
100
AcDbEntity
  8
0
100
AcDbSpline
 62
7
  6
BYLAYER
 70
0
 71
3
 72
9
 73
5
 74
0
 42
0.0000001
 43
0.0000001
 44
0.0000000001
 40
0.0
 40
0.0
 40
0.0
 40
0.0
 40
0.24541025
 40
1.0
 40
1.0
 40
1.0
 40
1.0
 10
33.1626451271
 20
58.1300630174
 30
0.0
 10
33.1713916603
 20
58.1480714437
 30
0.0
 10
33.2059589811
 20
58.2219709178
 30
0.0
 10
33.2362825747
 20
58.2978376476
 30
0.0
 10
33.2569419686
 20
58.3558254387
 30
0.0
  0
SPLINE
  5
2F3
100
AcDbEntity
  8
0
100
AcDbSpline
 62
7
  6
BYLAYER
 70
0
 71
3
 72
9
 73
5
 74
0
 42
0.0000001
 43
0.0000001
 44
0.0000000001
 40
0.0
 40
0.0
 40
0.0
 40
0.0
 40
0.2438364003
 40
1.0
 40
1.0
 40
1.0
 40
1.0
 10
33.2569419686
 20
58.3558254387
 30
0.0
 10
33.2685908111
 20
58.3885219762
 30
0.0
 10
33.3134800227
 20
58.5236329241
 30
0.0
 10
33.3472077127
 20
58.6623803076
 30
0.0
 10
33.3670097981
 20
58.7681815742
 30
0.0
  0
SPLINE
  5
2F4
100
AcDbEntity
  8
0
100
AcDbSpline
 62
7
  6
BYLAYER
 70
0
 71
3
 72
15
 73
11
 74
0
 42
0.0000001
 43
0.0000001
 44
0.0000000001
 40
0.0
 40
0.0
 40
0.0
 40
0.0
 40
0.1485255267
 40
0.2894997478
 40
0.4227405112
 40
0.5486450398
 40
0.6679968258
 40
0.78194121
 40
0.8919888182
 40
1.0
 40
1.0
 40
1.0
 40
1.0
 10
35.0686354316
 20
70.2386503655
 30
0.0
 10
35.0686354316
 20
70.0499128838
 30
0.0
 10
35.0533486404
 20
69.6817851922
 30
0.0
 10
34.9809808146
 20
69.148634919
 30
0.0
 10
34.8598743359
 20
68.6537406634
 30
0.0
 10
34.6912110123
 20
68.20198841
 30
0.0
 10
34.4761043015
 20
67.7977572302
 30
0.0
 10
34.2164737792
 20
67.4449788494
 30
0.0
 10
33.9144442978
 20
67.1478404175
 30
0.0
 10
33.685937276
 20
66.9883330196
 30
0.0
 10
33.5670698941
 20
66.9197088824
 30
0.0
  0
SPLINE
  5
2F5
100
AcDbEntity
  8
0
100
AcDbSpline
 62
7
  6
BYLAYER
 70
0
 71
3
 72
10
 73
6
 74
0
 42
0.0000001
 43
0.0000001
 44
0.0000000001
 40
0.0
 40
0.0
 40
0.0
 40
0.0
 40
0.27282964
 40
0.5307210348
 40
1.0
 40
1.0
 40
1.0
 40
1.0
 10
28.4100643643
 20
66.9636366397
 30
0.0
 10
28.5935065067
 20
66.838167407
 30
0.0
 10
28.961182717
 20
66.6090418693
 30
0.0
 10
29.6913556501
 20
66.2471064763
 30
0.0
 10
30.2645725492
 20
66.0685311104
 30
0.0
 10
30.6423299495
 20
66.0099420108
 30
0.0
  0
SPLINE
  5
2F6
100
AcDbEntity
  8
0
100
AcDbSpline
 62
7
  6
BYLAYER
 70
0
 71
3
 72
11
 73
7
 74
0
 42
0.0000001
 43
0.0000001
 44
0.0000000001
 40
0.0
 40
0.0
 40
0.0
 40
0.0
 40
0.267136603
 40
0.5201204129
 40
0.7627861904
 40
1.0
 40
1.0
 40
1.0
 40
1.0
 10
30.6423299495
 20
66.0099420108
 30
0.0
 10
30.811509837
 20
65.9837026908
 30
0.0
 10
31.1449940144
 20
65.9547970459
 30
0.0
 10
31.6348307987
 20
65.9890432451
 30
0.0
 10
32.0930612227
 20
66.1026709992
 30
0.0
 10
32.3747547746
 20
66.2313319805
 30
0.0
 10
32.5064136303
 20
66.3073435235
 30
0.0
  0
SPLINE
  5
2F7
100
AcDbEntity
  8
0
100
AcDbSpline
 62
7
  6
BYLAYER
 70
0
 71
3
 72
15
 73
11
 74
0
 42
0.0000001
 43
0.0000001
 44
0.0000000001
 40
0.0
 40
0.0
 40
0.0
 40
0.0
 40
0.0971497212
 40
0.2016812908
 40
0.3146978106
 40
0.4366080424
 40
0.5671059618
 40
0.7053504668
 40
0.8501897924
 40
1.0
 40
1.0
 40
1.0
 40
1.0
 10
48.8200000593
 20
94.46084772
 30
0.0
 10
49.0815707722
 20
94.4930606479
 30
0.0
 10
49.6329990517
 20
94.5001903336
 30
0.0
 10
50.477785022
 20
94.3525175163
 30
0.0
 10
51.3516657703
 20
94.0516024206
 30
0.0
 10
52.2391381955
 20
93.6041384513
 30
0.0
 10
53.1249010469
 20
93.0184601609
 30
0.0
 10
53.9934435035
 20
92.3053898203
 30
0.0
 10
54.8288511428
 20
91.4779197674
 30
0.0
 10
55.3471154416
 20
90.8679484608
 30
0.0
 10
55.597579457
 20
90.547898953
 30
0.0
  0
SPLINE
  5
2F8
100
AcDbEntity
  8
0
100
AcDbSpline
 62
7
  6
BYLAYER
 70
0
 71
3
 72
11
 73
7
 74
0
 42
0.0000001
 43
0.0000001
 44
0.0000000001
 40
0.0
 40
0.0
 40
0.0
 40
0.0
 40
0.2177843137
 40
0.4509117637
 40
0.7102976701
 40
1.0
 40
1.0
 40
1.0
 40
1.0
 10
28.542157438
 20
63.2937485253
 30
0.0
 10
28.4712378306
 20
63.2528033466
 30
0.0
 10
28.3082890069
 20
63.1936678839
 30
0.0
 10
28.0376337876
 20
63.186814946
 30
0.0
 10
27.7491787547
 20
63.2564716941
 30
0.0
 10
27.5615070864
 20
63.345750747
 30
0.0
 10
27.4671676147
 20
63.4002164342
 30
0.0
  0
SPLINE
  5
2F9
100
AcDbEntity
  8
0
100
AcDbSpline
 62
7
  6
BYLAYER
 70
0
 71
3
 72
18
 73
14
 74
0
 42
0.0000001
 43
0.0000001
 44
0.0000000001
 40
0.0
 40
0.0
 40
0.0
 40
0.0
 40
0.2931546662
 40
0.3629704571
 40
0.4310277059
 40
0.4971390023
 40
0.5613354561
 40
0.6234017187
 40
0.6834331472
 40
0.7968388411
 40
0.8504703364
 40
0.9020945539
 40
1.0
 40
1.0
 40
1.0
 40
1.0
 10
32.8538739893
 20
58.3003400645
 30
0.0
 10
32.5101098836
 20
58.3525135094
 30
0.0
 10
32.0877318981
 20
58.4498025667
 30
0.0
 10
31.6060562109
 20
58.6212717015
 30
0.0
 10
31.3820091826
 20
58.7129118283
 30
0.0
 10
31.1694005038
 20
58.8138873471
 30
0.0
 10
30.9680623853
 20
58.9214802273
 30
0.0
 10
30.7799208486
 20
59.0376107119
 30
0.0
 10
30.5504962459
 20
59.1971322993
 30
0.0
 10
30.3454537723
 20
59.3733966592
 30
0.0
 10
30.1685024548
 20
59.5633569424
 30
0.0
 10
30.0198003556
 20
59.7531768894
 30
0.0
 10
29.9284975963
 20
59.9068040307
 30
0.0
 10
29.8798976093
 20
60.0122669819
 30
0.0
  0
SPLINE
  5
2FA
100
AcDbEntity
  8
0
100
AcDbSpline
 62
7
  6
BYLAYER
 70
0
 71
3
 72
15
 73
11
 74
0
 42
0.0000001
 43
0.0000001
 44
0.0000000001
 40
0.0
 40
0.0
 40
0.0
 40
0.0
 40
0.1080104552
 40
0.2180572448
 40
0.3319982549
 40
0.4513552924
 40
0.5772609365
 40
0.7104924289
 40
0.8514582675
 40
1.0
 40
1.0
 40
1.0
 40
1.0
 10
36.1883952014
 20
66.1352932233
 30
0.0
 10
36.3398949266
 20
66.2227421882
 30
0.0
 10
36.631145394
 20
66.4260022364
 30
0.0
 10
37.0160309086
 20
66.8047339517
 30
0.0
 10
37.3469785838
 20
67.2543065782
 30
0.0
 10
37.6210762376
 20
67.7695288717
 30
0.0
 10
37.8360629329
 20
68.3452608434
 30
0.0
 10
37.9904000127
 20
68.9759717957
 30
0.0
 10
38.082657229
 20
69.6554569345
 30
0.0
 10
38.1021226102
 20
70.1246437586
 30
0.0
 10
38.1021226102
 20
70.3652128179
 30
0.0
  0
SPLINE
  5
2FB
100
AcDbEntity
  8
0
100
AcDbSpline
 62
7
  6
BYLAYER
 70
0
 71
3
 72
9
 73
5
 74
0
 42
0.0000001
 43
0.0000001
 44
0.0000000001
 40
0.0
 40
0.0
 40
0.0
 40
0.0
 40
0.4919122991
 40
1.0
 40
1.0
 40
1.0
 40
1.0
 10
29.9058745798
 20
59.8967656476
 30
0.0
 10
29.9474996793
 20
59.7368798575
 30
0.0
 10
30.0577202121
 20
59.4181854822
 30
0.0
 10
30.2106243419
 20
59.1178724932
 30
0.0
 10
30.2980502285
 20
58.9713205119
 30
0.0
  0
SPLINE
  5
2FC
100
AcDbEntity
  8
0
100
AcDbSpline
 62
7
  6
BYLAYER
 70
0
 71
3
 72
9
 73
5
 74
0
 42
0.0000001
 43
0.0000001
 44
0.0000000001
 40
0.0
 40
0.0
 40
0.0
 40
0.0
 40
0.5117125503
 40
1.0
 40
1.0
 40
1.0
 40
1.0
 10
30.2980502285
 20
58.9713205119
 30
0.0
 10
30.3917581001
 20
58.8142380416
 30
0.0
 10
30.5971155922
 20
58.519967392
 30
0.0
 10
30.8447490565
 20
58.2596792985
 30
0.0
 10
30.9759343267
 20
58.1445554098
 30
0.0
  0
SPLINE
  5
2FD
100
AcDbEntity
  8
0
100
AcDbSpline
 62
7
  6
BYLAYER
 70
0
 71
3
 72
9
 73
5
 74
0
 42
0.0000001
 43
0.0000001
 44
0.0000000001
 40
0.0
 40
0.0
 40
0.0
 40
0.0
 40
0.5312128514
 40
1.0
 40
1.0
 40
1.0
 40
1.0
 10
30.9759343267
 20
58.1445554098
 30
0.0
 10
31.0954317234
 20
58.0396884154
 30
0.0
 10
31.3370794741
 20
57.8600881106
 30
0.0
 10
31.612948134
 20
57.7349006911
 30
0.0
 10
31.7479454005
 20
57.6966814149
 30
0.0
  0
SPLINE
  5
2FE
100
AcDbEntity
  8
0
100
AcDbSpline
 62
7
  6
BYLAYER
 70
0
 71
3
 72
15
 73
11
 74
0
 42
0.0000001
 43
0.0000001
 44
0.0000000001
 40
0.0
 40
0.0
 40
0.0
 40
0.0
 40
0.1370076446
 40
0.2646954239
 40
0.3852563502
 40
0.5018189196
 40
0.6180873817
 40
0.7378988161
 40
0.864537514
 40
1.0
 40
1.0
 40
1.0
 40
1.0
 10
31.7624229745
 20
57.6926691673
 30
0.0
 10
31.824497094
 20
57.6758382801
 30
0.0
 10
31.9470405167
 20
57.6518637929
 30
0.0
 10
32.1288482354
 20
57.6479217854
 30
0.0
 10
32.2986691906
 20
57.6782111351
 30
0.0
 10
32.4531603145
 20
57.7423638435
 30
0.0
 10
32.5889128411
 20
57.8395345717
 30
0.0
 10
32.7032778771
 20
57.9674051771
 30
0.0
 10
32.7941342169
 20
58.1231466091
 30
0.0
 10
32.8369641615
 20
58.2391611361
 30
0.0
 10
32.8545422973
 20
58.3002734002
 30
0.0
  0
SPLINE
  5
2FF
100
AcDbEntity
  8
0
100
AcDbSpline
 62
7
  6
BYLAYER
 70
0
 71
3
 72
9
 73
5
 74
0
 42
0.0000001
 43
0.0000001
 44
0.0000000001
 40
0.0
 40
0.0
 40
0.0
 40
0.0
 40
0.5012826211
 40
1.0
 40
1.0
 40
1.0
 40
1.0
 10
31.3608456499
 20
62.3307406153
 30
0.0
 10
31.3197395078
 20
62.3299039821
 30
0.0
 10
31.2377447588
 20
62.3246523094
 30
0.0
 10
31.1567033891
 20
62.3110844436
 30
0.0
 10
31.1167103562
 20
62.3024986675
 30
0.0
  0
SPLINE
  5
300
100
AcDbEntity
  8
0
100
AcDbSpline
 62
7
  6
BYLAYER
 70
0
 71
3
 72
20
 73
16
 74
0
 42
0.0000001
 43
0.0000001
 44
0.0000000001
 40
0.0
 40
0.0
 40
0.0
 40
0.0
 40
0.1489196748
 40
0.3039666089
 40
0.4551435458
 40
0.5263950559
 40
0.5934130763
 40
0.6555455738
 40
0.7125340546
 40
0.7646052136
 40
0.8126210492
 40
0.8581102997
 40
0.903110644
 40
0.9498141332
 40
1.0
 40
1.0
 40
1.0
 40
1.0
 10
32.8545422974
 20
59.2800590995
 30
0.0
 10
32.8082305444
 20
59.4945565706
 30
0.0
 10
32.6651305129
 20
59.9226766061
 30
0.0
 10
32.3400139322
 20
60.5127589668
 30
0.0
 10
31.9872165967
 20
60.9476939711
 30
0.0
 10
31.6702331197
 20
61.2341431441
 30
0.0
 10
31.4294982291
 20
61.4064438236
 30
0.0
 10
31.1868016836
 20
61.5361481767
 30
0.0
 10
30.9476845553
 20
61.620130079
 30
0.0
 10
30.71739556
 20
61.6557463588
 30
0.0
 10
30.5013233195
 20
61.6411203063
 30
0.0
 10
30.3055342925
 20
61.5752323912
 30
0.0
 10
30.1367967535
 20
61.4592413802
 30
0.0
 10
30.0007514623
 20
61.2975774435
 30
0.0
 10
29.9366147658
 20
61.1685529454
 30
0.0
 10
29.9101062975
 20
61.0995161258
 30
0.0
  0
SPLINE
  5
301
100
AcDbEntity
  8
0
100
AcDbSpline
 62
7
  6
BYLAYER
 70
0
 71
3
 72
10
 73
6
 74
0
 42
0.0000001
 43
0.0000001
 44
0.0000000001
 40
0.0
 40
0.0
 40
0.0
 40
0.0
 40
0.2503000933
 40
0.6250790492
 40
1.0
 40
1.0
 40
1.0
 40
1.0
 10
24.3569626513
 20
57.5923584389
 30
0.0
 10
24.3055382038
 20
57.6054638042
 30
0.0
 10
24.1770739979
 20
57.638031463
 30
0.0
 10
23.9717609534
 20
57.6909304738
 30
0.0
 10
23.8177383444
 20
57.7302001728
 30
0.0
 10
23.7407442029
 20
57.7499626961
 30
0.0
  0
SPLINE
  5
302
100
AcDbEntity
  8
0
100
AcDbSpline
 62
7
  6
BYLAYER
 70
0
 71
3
 72
9
 73
5
 74
0
 42
0.0000001
 43
0.0000001
 44
0.0000000001
 40
0.0
 40
0.0
 40
0.0
 40
0.0
 40
0.5289390246
 40
1.0
 40
1.0
 40
1.0
 40
1.0
 10
32.0634014359
 20
62.0934808542
 30
0.0
 10
31.9495545796
 20
62.1592088804
 30
0.0
 10
31.7234829355
 20
62.2664219381
 30
0.0
 10
31.4781100272
 20
62.3214853838
 30
0.0
 10
31.3614137849
 20
62.3308793359
 30
0.0
  0
SPLINE
  5
303
100
AcDbEntity
  8
0
100
AcDbSpline
 62
7
  6
BYLAYER
 70
0
 71
3
 72
13
 73
9
 74
0
 42
0.0000001
 43
0.0000001
 44
0.0000000001
 40
0.0
 40
0.0
 40
0.0
 40
0.0
 40
0.2910456551
 40
0.5492169409
 40
0.6677838738
 40
0.7810672258
 40
0.891049935
 40
1.0
 40
1.0
 40
1.0
 40
1.0
 10
31.6449436332
 20
61.809611144
 30
0.0
 10
31.5295844499
 20
61.8762122928
 30
0.0
 10
31.3004001703
 20
61.9837802552
 30
0.0
 10
30.9977653099
 20
62.0485216671
 30
0.0
 10
30.7726486422
 20
62.0452207124
 30
0.0
 10
30.6179280962
 20
62.0172870995
 30
0.0
 10
30.4745950115
 20
61.9642356596
 30
0.0
 10
30.3880214264
 20
61.9124617498
 30
0.0
 10
30.3477469384
 20
61.8830616623
 30
0.0
  0
SPLINE
  5
304
100
AcDbEntity
  8
0
100
AcDbSpline
 62
7
  6
BYLAYER
 70
0
 71
3
 72
11
 73
7
 74
0
 42
0.0000001
 43
0.0000001
 44
0.0000000001
 40
0.0
 40
0.0
 40
0.0
 40
0.0
 40
0.2352282791
 40
0.4749554977
 40
0.7279466671
 40
1.0
 40
1.0
 40
1.0
 40
1.0
 10
26.1170656043
 20
57.705328524
 30
0.0
 10
25.9938365898
 20
57.6342325366
 30
0.0
 10
25.7270010959
 20
57.5195103207
 30
0.0
 10
25.2892920173
 20
57.4451581356
 30
0.0
 10
24.8242127034
 20
57.4678376492
 30
0.0
 10
24.5136537828
 20
57.542157807
 30
0.0
 10
24.3569615385
 20
57.5923651488
 30
0.0
  0
SPLINE
  5
305
100
AcDbEntity
  8
0
100
AcDbSpline
 62
7
  6
BYLAYER
 70
0
 71
3
 72
9
 73
5
 74
0
 42
0.0000001
 43
0.0000001
 44
0.0000000001
 40
0.0
 40
0.0
 40
0.0
 40
0.0
 40
0.5017755661
 40
1.0
 40
1.0
 40
1.0
 40
1.0
 10
34.7716269495
 20
59.0929930301
 30
0.0
 10
34.6656357453
 20
59.8177144571
 30
0.0
 10
34.3980836954
 20
61.2543809374
 30
0.0
 10
34.0074674427
 20
62.6635110911
 30
0.0
 10
33.7763812438
 20
63.3530676076
 30
0.0
  0
SPLINE
  5
306
100
AcDbEntity
  8
0
100
AcDbSpline
 62
7
  6
BYLAYER
 70
0
 71
3
 72
11
 73
7
 74
0
 42
0.0000001
 43
0.0000001
 44
0.0000000001
 40
0.0
 40
0.0
 40
0.0
 40
0.0
 40
0.2401606895
 40
0.3658207483
 40
0.4935609918
 40
1.0
 40
1.0
 40
1.0
 40
1.0
 10
37.7261390663
 20
49.8738399319
 30
0.0
 10
37.4243901699
 20
50.1243973407
 30
0.0
 10
36.9998483325
 20
50.5501257398
 30
0.0
 10
36.5035264478
 20
51.1862766874
 30
0.0
 10
35.8229453865
 20
52.2234480213
 30
0.0
 10
35.4291744335
 20
53.2154776314
 30
0.0
 10
35.2844754063
 20
54.0298020236
 30
0.0
  0
SPLINE
  5
307
100
AcDbEntity
  8
0
100
AcDbSpline
 62
7
  6
BYLAYER
 70
0
 71
3
 72
13
 73
9
 74
0
 42
0.0000001
 43
0.0000001
 44
0.0000000001
 40
0.0
 40
0.0
 40
0.0
 40
0.0
 40
0.1228431396
 40
0.2509815511
 40
0.5132688547
 40
0.7684960275
 40
0.8882045524
 40
1.0
 40
1.0
 40
1.0
 40
1.0
 10
33.3229019984
 20
59.3322441254
 30
0.0
 10
33.2989083423
 20
59.4556750538
 30
0.0
 10
33.2348889221
 20
59.7051214495
 30
0.0
 10
33.0521989705
 20
60.1984797155
 30
0.0
 10
32.7329201032
 20
60.7818300718
 30
0.0
 10
32.3161679003
 20
61.2897931517
 30
0.0
 10
31.9406385448
 20
61.6185928765
 30
0.0
 10
31.7440460973
 20
61.7523956041
 30
0.0
 10
31.6449436332
 20
61.809611144
 30
0.0
  0
SPLINE
  5
308
100
AcDbEntity
  8
0
100
AcDbSpline
 62
7
  6
BYLAYER
 70
0
 71
3
 72
9
 73
5
 74
0
 42
0.0000001
 43
0.0000001
 44
0.0000000001
 40
0.0
 40
0.0
 40
0.0
 40
0.0
 40
0.2466431529
 40
1.0
 40
1.0
 40
1.0
 40
1.0
 10
30.6233431585
 20
62.0992003833
 30
0.0
 10
30.5993630255
 20
62.0833484799
 30
0.0
 10
30.5040507
 20
62.0162109534
 30
0.0
 10
30.4166556628
 20
61.9379748654
 30
0.0
 10
30.3560842353
 20
61.8744104662
 30
0.0
  0
SPLINE
  5
309
100
AcDbEntity
  8
0
100
AcDbSpline
 62
7
  6
BYLAYER
 70
0
 71
3
 72
9
 73
5
 74
0
 42
0.0000001
 43
0.0000001
 44
0.0000000001
 40
0.0
 40
0.0
 40
0.0
 40
0.0
 40
0.5136923904
 40
1.0
 40
1.0
 40
1.0
 40
1.0
 10
32.111558221
 20
62.1212840211
 30
0.0
 10
31.9950381342
 20
62.1885554027
 30
0.0
 10
31.7519280008
 20
62.2940446125
 30
0.0
 10
31.4887854754
 20
62.3313311083
 30
0.0
 10
31.3614137849
 20
62.3308793359
 30
0.0
  0
SPLINE
  5
30A
100
AcDbEntity
  8
0
100
AcDbSpline
 62
7
  6
BYLAYER
 70
0
 71
3
 72
9
 73
5
 74
0
 42
0.0000001
 43
0.0000001
 44
0.0000000001
 40
0.0
 40
0.0
 40
0.0
 40
0.0
 40
0.516351552
 40
1.0
 40
1.0
 40
1.0
 40
1.0
 10
32.7653890909
 20
61.5203121505
 30
0.0
 10
32.6739124693
 20
61.6437637205
 30
0.0
 10
32.4760924454
 20
61.8685460211
 30
0.0
 10
32.2361959169
 20
62.0493260417
 30
0.0
 10
32.111558221
 20
62.1212840211
 30
0.0
  0
SPLINE
  5
30B
100
AcDbEntity
  8
0
100
AcDbSpline
 62
7
  6
BYLAYER
 70
0
 71
3
 72
11
 73
7
 74
0
 42
0.0000001
 43
0.0000001
 44
0.0000000001
 40
0.0
 40
0.0
 40
0.0
 40
0.0
 40
0.2490027254
 40
0.5057065443
 40
0.7594625788
 40
1.0
 40
1.0
 40
1.0
 40
1.0
 10
38.6922043632
 20
55.9969516611
 30
0.0
 10
38.7974523483
 20
55.6048876605
 30
0.0
 10
39.0781669957
 20
54.8255749076
 30
0.0
 10
39.6645375522
 20
53.7305126243
 30
0.0
 10
40.3926290831
 20
52.7411116419
 30
0.0
 10
40.966437238
 20
52.1690829398
 30
0.0
 10
41.2684913446
 20
51.9190022871
 30
0.0
  0
SPLINE
  5
30C
100
AcDbEntity
  8
0
100
AcDbSpline
 62
7
  6
BYLAYER
 70
0
 71
3
 72
9
 73
5
 74
0
 42
0.0000001
 43
0.0000001
 44
0.0000000001
 40
0.0
 40
0.0
 40
0.0
 40
0.0
 40
0.5038473318
 40
1.0
 40
1.0
 40
1.0
 40
1.0
 10
35.687112957
 20
64.4562111154
 30
0.0
 10
36.0553256469
 20
63.8536284699
 30
0.0
 10
36.7263924437
 20
62.6201427082
 30
0.0
 10
37.2692198079
 20
61.3248408913
 30
0.0
 10
37.5028343764
 20
60.6698635817
 30
0.0
  0
SPLINE
  5
30D
100
AcDbEntity
  8
0
100
AcDbSpline
 62
7
  6
BYLAYER
 70
0
 71
3
 72
14
 73
10
 74
0
 42
0.0000001
 43
0.0000001
 44
0.0000000001
 40
0.0
 40
0.0
 40
0.0
 40
0.0
 40
0.261651518
 40
0.392995972
 40
0.5227433647
 40
0.6495038257
 40
0.7719952982
 40
0.889148633
 40
1.0
 40
1.0
 40
1.0
 40
1.0
 10
37.9341256034
 20
80.3499599893
 30
0.0
 10
38.4174389106
 20
79.7323695309
 30
0.0
 10
39.0731285296
 20
78.7468676329
 30
0.0
 10
39.793423819
 20
77.354466095
 30
0.0
 10
40.2495034886
 20
76.2838651228
 30
0.0
 10
40.612897025
 20
75.2063950841
 30
0.0
 10
40.8779211259
 20
74.1392571501
 30
0.0
 10
41.0400512914
 20
73.0999182578
 30
0.0
 10
41.0790297649
 20
72.4161659603
 30
0.0
 10
41.0790297649
 20
72.0839207057
 30
0.0
  0
SPLINE
  5
30E
100
AcDbEntity
  8
0
100
AcDbSpline
 62
7
  6
BYLAYER
 70
0
 71
3
 72
11
 73
7
 74
0
 42
0.0000001
 43
0.0000001
 44
0.0000000001
 40
0.0
 40
0.0
 40
0.0
 40
0.0
 40
0.2148156911
 40
0.4577321487
 40
0.7226500227
 40
1.0
 40
1.0
 40
1.0
 40
1.0
 10
34.189555152
 20
65.7806001983
 30
0.0
 10
34.3295782316
 20
65.739232064
 30
0.0
 10
34.6151949884
 20
65.6067782944
 30
0.0
 10
35.0100859683
 20
65.3105398431
 30
0.0
 10
35.3786296591
 20
64.9215107373
 30
0.0
 10
35.590413113
 20
64.6180287939
 30
0.0
 10
35.687112957
 20
64.4562111154
 30
0.0
  0
SPLINE
  5
30F
100
AcDbEntity
  8
0
100
AcDbSpline
 62
7
  6
BYLAYER
 70
0
 71
3
 72
15
 73
11
 74
0
 42
0.0000001
 43
0.0000001
 44
0.0000000001
 40
0.0
 40
0.0
 40
0.0
 40
0.0
 40
0.1485417064
 40
0.2895055083
 40
0.4227356705
 40
0.5486413265
 40
0.6679989727
 40
0.7819403564
 40
0.8919881325
 40
1.0
 40
1.0
 40
1.0
 40
1.0
 10
41.0790297649
 20
72.0839207057
 30
0.0
 10
41.0790297649
 20
71.843351655
 30
0.0
 10
41.0595665737
 20
71.3741679622
 30
0.0
 10
40.9673083357
 20
70.6946884764
 30
0.0
 10
40.8129751387
 20
70.0639820168
 30
0.0
 10
40.5979882315
 20
69.4882515372
 30
0.0
 10
40.3238963107
 20
68.9730240235
 30
0.0
 10
39.9929439754
 20
68.5234508546
 30
0.0
 10
39.6080597282
 20
68.1447112735
 30
0.0
 10
39.316803925
 20
67.9414515575
 30
0.0
 10
39.1653022079
 20
67.8540014189
 30
0.0
  0
SPLINE
  5
310
100
AcDbEntity
  8
0
100
AcDbSpline
 62
7
  6
BYLAYER
 70
0
 71
3
 72
9
 73
5
 74
0
 42
0.0000001
 43
0.0000001
 44
0.0000000001
 40
0.0
 40
0.0
 40
0.0
 40
0.0
 40
0.5194889986
 40
1.0
 40
1.0
 40
1.0
 40
1.0
 10
32.7653890909
 20
61.5203121505
 30
0.0
 10
32.6579281659
 20
61.6352687787
 30
0.0
 10
32.4383625343
 20
61.8453184868
 30
0.0
 10
32.1894565927
 20
62.020704522
 30
0.0
 10
32.0634014359
 20
62.0934808542
 30
0.0
  0
SPLINE
  5
311
100
AcDbEntity
  8
0
100
AcDbSpline
 62
7
  6
BYLAYER
 70
0
 71
3
 72
23
 73
19
 74
0
 42
0.0000001
 43
0.0000001
 44
0.0000000001
 40
0.0
 40
0.0
 40
0.0
 40
0.0
 40
0.0623835031
 40
0.1287491782
 40
0.1983465491
 40
0.2703360908
 40
0.3437242284
 40
0.4174669833
 40
0.4905038579
 40
0.5618027144
 40
0.6304109722
 40
0.6955083381
 40
0.7564655429
 40
0.8129122412
 40
0.8648208069
 40
0.9126030984
 40
0.9571852704
 40
1.0
 40
1.0
 40
1.0
 40
1.0
 10
34.0079796758
 20
69.6262841347
 30
0.0
 10
34.0079796758
 20
69.9270113235
 30
0.0
 10
33.9671820597
 20
70.5480715041
 30
0.0
 10
33.7995860996
 20
71.4910411211
 30
0.0
 10
33.5269136195
 20
72.4573058919
 30
0.0
 10
33.1552597754
 20
73.4261259504
 30
0.0
 10
32.6923531188
 20
74.377023103
 30
0.0
 10
32.1481374551
 20
75.2896948249
 30
0.0
 10
31.5342351203
 20
76.1447040046
 30
0.0
 10
30.8637010815
 20
76.9238101311
 30
0.0
 10
30.1507476387
 20
77.6104189653
 30
0.0
 10
29.410406284
 20
78.1900015966
 30
0.0
 10
28.6580517078
 20
78.6502947197
 30
0.0
 10
27.9089563736
 20
78.9813825433
 30
0.0
 10
27.178017082
 20
79.1755657342
 30
0.0
 10
26.4796051364
 20
79.2269624841
 30
0.0
 10
25.829214219
 20
79.1316528764
 30
0.0
 10
25.4351977914
 20
78.9679107021
 30
0.0
 10
25.2564547066
 20
78.8647156863
 30
0.0
  0
SPLINE
  5
312
100
AcDbEntity
  8
0
100
AcDbSpline
 62
7
  6
BYLAYER
 70
0
 71
3
 72
11
 73
7
 74
0
 42
0.0000001
 43
0.0000001
 44
0.0000000001
 40
0.0
 40
0.0
 40
0.0
 40
0.0
 40
0.28971405
 40
0.5490665074
 40
0.7821758043
 40
1.0
 40
1.0
 40
1.0
 40
1.0
 10
40.0890762086
 20
57.8685991629
 30
0.0
 10
40.0890762086
 20
57.9775399773
 30
0.0
 10
40.1055682995
 20
58.1847107745
 30
0.0
 10
40.1895124182
 20
58.4693287377
 30
0.0
 10
40.3307266869
 20
58.7003187043
 30
0.0
 10
40.4634233078
 20
58.8119005789
 30
0.0
 10
40.5343758993
 20
58.8528233932
 30
0.0
  0
SPLINE
  5
313
100
AcDbEntity
  8
0
100
AcDbSpline
 62
7
  6
BYLAYER
 70
0
 71
3
 72
15
 73
11
 74
0
 42
0.0000001
 43
0.0000001
 44
0.0000000001
 40
0.0
 40
0.0
 40
0.0
 40
0.0
 40
0.1141232787
 40
0.2373467935
 40
0.3669716251
 40
0.4999988493
 40
0.6330262331
 40
0.7626515288
 40
0.885875802
 40
1.0
 40
1.0
 40
1.0
 40
1.0
 10
41.6093621176
 20
55.2354013438
 30
0.0
 10
41.5053154333
 20
55.2954713661
 30
0.0
 10
41.2997584674
 20
55.439619807
 30
0.0
 10
41.016864203
 20
55.7041914232
 30
0.0
 10
40.7562201702
 20
56.0170574153
 30
0.0
 10
40.5275401645
 20
56.3662735198
 30
0.0
 10
40.3394481195
 20
56.7389237855
 30
0.0
 10
40.1988176872
 20
57.1210817381
 30
0.0
 10
40.1111361816
 20
57.4983627911
 30
0.0
 10
40.0890762086
 20
57.7484561121
 30
0.0
 10
40.0890762086
 20
57.8685991629
 30
0.0
  0
SPLINE
  5
314
100
AcDbEntity
  8
0
100
AcDbSpline
 62
7
  6
BYLAYER
 70
0
 71
3
 72
11
 73
7
 74
0
 42
0.0000001
 43
0.0000001
 44
0.0000000001
 40
0.0
 40
0.0
 40
0.0
 40
0.0
 40
0.2897016594
 40
0.5490895814
 40
0.7822189142
 40
1.0
 40
1.0
 40
1.0
 40
1.0
 10
40.7961859337
 20
59.0933632426
 30
0.0
 10
40.7961859337
 20
59.2022993694
 30
0.0
 10
40.8127021368
 20
59.4094738581
 30
0.0
 10
40.89660093
 20
59.6941228473
 30
0.0
 10
41.0378689262
 20
59.9250992045
 30
0.0
 10
41.1705628198
 20
60.0366455322
 30
0.0
 10
41.2414803231
 20
60.0775966727
 30
0.0
  0
SPLINE
  5
315
100
AcDbEntity
  8
0
100
AcDbSpline
 62
7
  6
BYLAYER
 70
0
 71
3
 72
9
 73
5
 74
0
 42
0.0000001
 43
0.0000001
 44
0.0000000001
 40
0.0
 40
0.0
 40
0.0
 40
0.0
 40
0.2776615874
 40
1.0
 40
1.0
 40
1.0
 40
1.0
 10
25.2397719805
 20
68.0746598421
 30
0.0
 10
25.2397719805
 20
68.144463479
 30
0.0
 10
25.2525153258
 20
68.3948741938
 30
0.0
 10
25.3235398388
 20
68.648249245
 30
0.0
 10
25.4211021709
 20
68.801409927
 30
0.0
  0
SPLINE
  5
316
100
AcDbEntity
  8
0
100
AcDbSpline
 62
7
  6
BYLAYER
 70
0
 71
3
 72
15
 73
11
 74
0
 42
0.0000001
 43
0.0000001
 44
0.0000000001
 40
0.0
 40
0.0
 40
0.0
 40
0.0
 40
0.1141232787
 40
0.2373467935
 40
0.3669716251
 40
0.4999988493
 40
0.6330262331
 40
0.7626515288
 40
0.885875802
 40
1.0
 40
1.0
 40
1.0
 40
1.0
 10
26.7600578896
 20
63.8084571888
 30
0.0
 10
26.6560112052
 20
63.868527211
 30
0.0
 10
26.4504542393
 20
64.0126756519
 30
0.0
 10
26.1675599749
 20
64.2772472682
 30
0.0
 10
25.9069159421
 20
64.5901132602
 30
0.0
 10
25.6782359364
 20
64.9393293647
 30
0.0
 10
25.4901438914
 20
65.3119796304
 30
0.0
 10
25.3495134591
 20
65.694137583
 30
0.0
 10
25.2618319535
 20
66.071418636
 30
0.0
 10
25.2397719805
 20
66.321511957
 30
0.0
 10
25.2397719805
 20
66.4416550078
 30
0.0
  0
SPLINE
  5
317
100
AcDbEntity
  8
0
100
AcDbSpline
 62
7
  6
BYLAYER
 70
0
 71
3
 72
11
 73
7
 74
0
 42
0.0000001
 43
0.0000001
 44
0.0000000001
 40
0.0
 40
0.0
 40
0.0
 40
0.0
 40
0.2744163437
 40
0.5274811635
 40
0.765611037
 40
1.0
 40
1.0
 40
1.0
 40
1.0
 10
31.2523427067
 20
57.5472500446
 30
0.0
 10
31.3631118075
 20
57.4832989212
 30
0.0
 10
31.5885346639
 20
57.3799071166
 30
0.0
 10
31.9422067146
 20
57.3093171212
 30
0.0
 10
32.2839846598
 20
57.3361452773
 30
0.0
 10
32.4920917509
 20
57.4192159778
 30
0.0
 10
32.5867036136
 20
57.4738390378
 30
0.0
  0
SPLINE
  5
318
100
AcDbEntity
  8
0
100
AcDbSpline
 62
7
  6
BYLAYER
 70
0
 71
3
 72
11
 73
7
 74
0
 42
0.0000001
 43
0.0000001
 44
0.0000000001
 40
0.0
 40
0.0
 40
0.0
 40
0.0
 40
0.2177843137
 40
0.4509117637
 40
0.7102976701
 40
1.0
 40
1.0
 40
1.0
 40
1.0
 10
43.3914616661
 20
54.7206926804
 30
0.0
 10
43.3205420587
 20
54.6797475017
 30
0.0
 10
43.157593235
 20
54.620612039
 30
0.0
 10
42.8869380156
 20
54.613759101
 30
0.0
 10
42.5984829828
 20
54.6834158491
 30
0.0
 10
42.4108113145
 20
54.7726949021
 30
0.0
 10
42.3164718428
 20
54.8271605893
 30
0.0
  0
SPLINE
  5
319
100
AcDbEntity
  8
0
100
AcDbSpline
 62
7
  6
BYLAYER
 70
0
 71
3
 72
15
 73
11
 74
0
 42
0.0000001
 43
0.0000001
 44
0.0000000001
 40
0.0
 40
0.0
 40
0.0
 40
0.0
 40
0.1080099689
 40
0.2180569165
 40
0.3320010255
 40
0.4513522844
 40
0.577257095
 40
0.7104994479
 40
0.8514751684
 40
1.0
 40
1.0
 40
1.0
 40
1.0
 10
32.5064136303
 20
66.3073435235
 30
0.0
 10
32.6252786027
 20
66.375968683
 30
0.0
 10
32.8537852131
 20
66.535471862
 30
0.0
 10
33.155812386
 20
66.8326090486
 30
0.0
 10
33.4154425368
 20
67.1853849376
 30
0.0
 10
33.630551971
 20
67.5896138663
 30
0.0
 10
33.7992160842
 20
68.0413676069
 30
0.0
 10
33.9203241635
 20
68.5362657757
 30
0.0
 10
33.9926914296
 20
69.0694190428
 30
0.0
 10
34.0079796758
 20
69.4375475835
 30
0.0
 10
34.0079796758
 20
69.6262841347
 30
0.0
  0
SPLINE
  5
31A
100
AcDbEntity
  8
0
100
AcDbSpline
 62
7
  6
BYLAYER
 70
0
 71
3
 72
16
 73
12
 74
0
 42
0.0000001
 43
0.0000001
 44
0.0000000001
 40
0.0
 40
0.0
 40
0.0
 40
0.0
 40
0.1401662943
 40
0.2075147546
 40
0.2728292587
 40
0.3979394553
 40
0.518740882
 40
0.6396770279
 40
0.7618785765
 40
0.8832267539
 40
1.0
 40
1.0
 40
1.0
 40
1.0
 10
33.7133142473
 20
63.5309814448
 30
0.0
 10
33.667462828
 20
63.6485289662
 30
0.0
 10
33.5969020657
 20
63.8216349418
 30
0.0
 10
33.4902210507
 20
64.0429820576
 30
0.0
 10
33.3777878061
 20
64.2460260247
 30
0.0
 10
33.2124429598
 20
64.4747092387
 30
0.0
 10
32.9529984743
 20
64.6872273763
 30
0.0
 10
32.6418421064
 20
64.8050493761
 30
0.0
 10
32.3125594992
 20
64.838283993
 30
0.0
 10
31.9882445694
 20
64.8034660406
 30
0.0
 10
31.781245185
 20
64.7424124027
 30
0.0
 10
31.6839589368
 20
64.702603774
 30
0.0
  0
SPLINE
  5
31B
100
AcDbEntity
  8
0
100
AcDbSpline
 62
7
  6
BYLAYER
 70
0
 71
3
 72
9
 73
5
 74
0
 42
0.0000001
 43
0.0000001
 44
0.0000000001
 40
0.0
 40
0.0
 40
0.0
 40
0.0
 40
0.2484935276
 40
1.0
 40
1.0
 40
1.0
 40
1.0
 10
32.8538739893
 20
58.3003400645
 30
0.0
 10
32.8792946429
 20
58.2957822779
 30
0.0
 10
32.9823754074
 20
58.2822684055
 30
0.0
 10
33.0880242557
 20
58.2868002944
 30
0.0
 10
33.1647188722
 20
58.3015725746
 30
0.0
  0
SPLINE
  5
31C
100
AcDbEntity
  8
0
100
AcDbSpline
 62
7
  6
BYLAYER
 70
0
 71
3
 72
9
 73
5
 74
0
 42
0.0000001
 43
0.0000001
 44
0.0000000001
 40
0.0
 40
0.0
 40
0.0
 40
0.0
 40
0.2449793906
 40
1.0
 40
1.0
 40
1.0
 40
1.0
 10
29.8385322697
 20
60.8053029393
 30
0.0
 10
29.8309419194
 20
60.764748187
 30
0.0
 10
29.8039137065
 20
60.5984797239
 30
0.0
 10
29.7923076918
 20
60.4297780217
 30
0.0
 10
29.7915649132
 20
60.3026210815
 30
0.0
  0
SPLINE
  5
31D
100
AcDbEntity
  8
0
100
AcDbSpline
 62
7
  6
BYLAYER
 70
0
 71
3
 72
13
 73
9
 74
0
 42
0.0000001
 43
0.0000001
 44
0.0000000001
 40
0.0
 40
0.0
 40
0.0
 40
0.0
 40
0.1287829179
 40
0.2595647877
 40
0.45620839
 40
0.6486065637
 40
0.8313516551
 40
1.0
 40
1.0
 40
1.0
 40
1.0
 10
29.8000394733
 20
60.0565512064
 30
0.0
 10
29.8095761719
 20
59.9279973222
 30
0.0
 10
29.8445676919
 20
59.6698159337
 30
0.0
 10
29.957586974
 20
59.2265104105
 30
0.0
 10
30.1557403371
 20
58.7426435404
 30
0.0
 10
30.4585702577
 20
58.2537577216
 30
0.0
 10
30.8227540059
 20
57.8454828723
 30
0.0
 10
31.1061472519
 20
57.6316541203
 30
0.0
 10
31.2523427067
 20
57.5472500446
 30
0.0
  0
ELLIPSE
  5
31E
100
AcDbEntity
  8
0
100
AcDbEllipse
 62
7
  6
BYLAYER
 10
47.6809126363
 20
68.873010915
 30
0.0
 11
21.3039755961
 21
22.8557691574
 31
0.0
 40
0.3616549068
 41
-4.118797571
 42
-3.9557780713
  0
ELLIPSE
  5
31F
100
AcDbEntity
  8
0
100
AcDbEllipse
 62
7
  6
BYLAYER
 10
57.5839742764
 20
63.1556049563
 30
0.0
 11
3.3237895269
 21
31.7025986536
 31
0.0
 40
0.7130685124
 41
-4.5096268252
 42
-4.3466073255
  0
ELLIPSE
  5
320
100
AcDbEntity
  8
0
100
AcDbEllipse
 62
7
  6
BYLAYER
 10
59.957013312
 20
61.7855612249
 30
0.0
 11
80.871298258
 21
-69.6368352819
 31
0.0
 40
0.2213038987
 41
-1.6480076218
 42
-1.6216383784
  0
ELLIPSE
  5
321
100
AcDbEntity
  8
0
100
AcDbEllipse
 62
7
  6
BYLAYER
 10
45.3437087838
 20
70.222365662
 30
0.0
 11
80.6637608157
 21
-16.6265911261
 31
0.0
 40
0.2066353302
 41
-1.8254718555
 42
-1.799102612
  0
ENDSEC
  0
SECTION
  2
OBJECTS
  0
DICTIONARY
  5
C
100
AcDbDictionary
280
0
281
1
  3
ACAD_GROUP
350
D
  3
ACAD_MLINESTYLE
350
17
  3
ACAD_LAYOUT
350
1A
  3
ACAD_PLOTSETTINGS
350
19
  3
ACAD_PLOTSTYLENAME
350
E
  0
DICTIONARY
  5
D
102
{ACAD_REACTORS
330
C
102
}
100
AcDbDictionary
280
0
281
1
  0
ACDBDICTIONARYWDFLT
  5
E
102
{ACAD_REACTORS
330
C
102
}
100
AcDbDictionary
281
1
  3
Normal
350
F
100
AcDbDictionaryWithDefault
340
F
  0
DICTIONARY
  5
17
102
{ACAD_REACTORS
330
C
102
}
100
AcDbDictionary
280
0
281
1
  3
Standard
350
18
  0
DICTIONARY
  5
19
102
{ACAD_REACTORS
330
C
102
}
100
AcDbDictionary
281
1
  0
DICTIONARY
  5
1A
102
{ACAD_REACTORS
330
C
102
}
100
AcDbDictionary
281
1
  3
Model
350
322
  3
Layout1
350
323
  0
ACDBPLACEHOLDER
  5
F
102
{ACAD_REACTORS
330
E
102
}
  0
MLINESTYLE
  5
18
102
{ACAD_REACTORS
330
17
102
}
100
AcDbMlineStyle
  2
STANDARD
 70
0
  3

 62
256
 51
90.0
 52
90.0
 71
2
 49
0.5
 62
256
  6
BYLAYER
 49
-0.5
 62
256
  6
BYLAYER
  0
LAYOUT
  5
322
102
{ACAD_REACTORS
330
1A
102
}
100
AcDbPlotSettings
  1

  2
none_device
  4

  6

 40
0.0
 41
0.0
 42
0.0
 43
0.0
 44
210.0
 45
297.0
 46
0.0
 47
0.0
 48
0.0
 49
0.0
140
0.0
141
0.0
142
1.0
143
1.0
 70
1024
 72
1
 73
0
 74
0
  7

 75
0
147
1.0
148
0.0
149
0.0
100
AcDbLayout
  1
Model
 70
0
 71
0
 10
0.0
 20
0.0
 11
210.0
 21
297.0
 12
0.0
 22
0.0
 32
0.0
 14
0.0
 24
0.0
 34
0.0
 15
0.0
 25
0.0
 35
0.0
146
0.0
 13
0.0
 23
0.0
 33
0.0
 16
1.0
 26
0.0
 36
0.0
 17
0.0
 27
1.0
 37
0.0
 76
0
330
210
345
0
346
0
  0
LAYOUT
  5
323
102
{ACAD_REACTORS
330
1A
102
}
100
AcDbPlotSettings
  1

  2
none_device
  4

  6

 40
0.0
 41
0.0
 42
0.0
 43
0.0
 44
210.0
 45
297.0
 46
0.0
 47
0.0
 48
0.0
 49
0.0
140
0.0
141
0.0
142
1.0
143
1.0
 70
0
 72
1
 73
0
 74
0
  7

 75
0
147
1.0
148
0.0
149
0.0
100
AcDbLayout
  1
Layout1
 70
0
 71
1
 10
0.0
 20
0.0
 11
210.0
 21
297.0
 12
0.0
 22
0.0
 32
0.0
 14
0.0
 24
0.0
 34
0.0
 15
0.0
 25
0.0
 35
0.0
146
0.0
 13
0.0
 23
0.0
 33
0.0
 16
1.0
 26
0.0
 36
0.0
 17
0.0
 27
1.0
 37
0.0
 76
0
330
211
345
0
346
0
  0
ENDSEC
  0
EOF
