999
DXF file: C:\Users\sesa63760\Dev\_Creo\CAD\MCADPD0004089_3D-CAD\drw0001_1.dxf
999
Pro/ENGINEER 2019471 by Parametric Technology Corporation
  0
SECTION
  2
HEADER
  9
$ACADVER
  1
AC1024
  9
$DWGCODEPAGE
  3
ANSI_1252
  9
$EXTMAX
 10
48.7431200066
 20
68.936698295
 30
0.0
  9
$EXTMIN
 10
0.0
 20
0.0
 30
0.0
  9
$LIMMIN
 10
0.0
 20
0.0
  9
$LIMMAX
 10
48.7431200066
 20
68.936698295
  9
$VIEWCTR
 10
24.3715600033
 20
34.4683491475
  9
$VIEWSIZE
 40
68.936698295
  9
$CLAYER
  8
0
  9
$LTSCALE
 40
4.4936514444
  9
$CELTYPE
  6
BYLAYER
  9
$DIMSCALE
 40
1.0
  9
$DIMASZ
 40
0.5802752382
  9
$DIMEXO
 40
1.0
  9
$DIMDLI
 40
3.1047046343
  9
$DIMEXE
 40
1.0
  9
$DIMCEN
 40
0.7353247818
  9
$DIMLFAC
 40
1.0
  9
$DIMBLK
  1
_FILLED
  9
$DIMALT
 70
0
  9
$DIMALTF
 40
0.0393700787
  9
$DIMTXT
 40
0.8123853334
  9
$DIMTOL
 70
1
  9
$DIMLIM
 70
0
  9
$DIMTFAC
 40
1.0
  9
$DIMTP
 40
0.01
  9
$DIMTM
 40
0.01
  9
$DIMGAP
 40
0.625
  9
$DIMDSEP
 70
46
  9
$AUNITS
 70
0
  9
$PDMODE
 70
3
  9
$PDSIZE
 40
0.3125
  9
$HANDSEED
  5
2F5
  9
$TILEMODE
 70
1
  9
$MEASUREMENT
 70
1
  9
$INSUNITS
 70
4
  0
ENDSEC
  0
SECTION
  2
CLASSES
  0
CLASS
  1
ACDBDICTIONARYWDFLT
  2
AcDbDictionaryWithDefault
  3
AutoCAD 2000
 90
0
 91
1
280
0
281
0
  0
CLASS
  1
ACDBPLACEHOLDER
  2
AcDbPlaceHolder
  3
AutoCAD 2000
 90
0
 91
1
280
0
281
0
  0
CLASS
  1
LAYOUT
  2
AcDbLayout
  3
AutoCAD 2000
 90
0
 91
0
280
0
281
0
  0
ENDSEC
  0
SECTION
  2
TABLES
  0
TABLE
  2
VPORT
  5
8
100
AcDbSymbolTable
 70
2
  0
VPORT
  5
1F4
100
AcDbSymbolTableRecord
100
AcDbViewportTableRecord
  2
*ACTIVE
 70
0
 10
0.0
 20
0.0
 11
1.0
 21
1.0
 12
24.3715600033
 22
34.4683491475
 13
0.0
 23
0.0
 14
1.0
 24
1.0
 15
0.0
 25
0.0
 16
0.0
 26
0.0
 36
1.0
 17
0.0
 27
0.0
 37
0.0
 40
68.936698295
 41
0.7070707071
 42
50.0
 43
0.0
 44
0.0
 50
0.0
 51
0.0
 71
0
 72
100
 73
1
 74
1
 75
0
 76
0
 77
0
 78
0
  0
ENDTAB
  0
TABLE
  2
LTYPE
  5
5
100
AcDbSymbolTable
 70
6
  0
LTYPE
  5
14
100
AcDbSymbolTableRecord
100
AcDbLinetypeTableRecord
  2
BYBLOCK
 70
0
  3

 72
65
 73
0
 40
0.0
  0
LTYPE
  5
15
100
AcDbSymbolTableRecord
100
AcDbLinetypeTableRecord
  2
BYLAYER
 70
0
  3

 72
65
 73
0
 40
0.0
  0
LTYPE
  5
16
100
AcDbSymbolTableRecord
100
AcDbLinetypeTableRecord
  2
CONTINUOUS
 70
64
  3
Solid line
 72
65
 73
0
 40
0.0
  0
LTYPE
  5
1F5
100
AcDbSymbolTableRecord
100
AcDbLinetypeTableRecord
  2
CENTER
 70
64
  3
____ _ ____ _ ____ _ ____ _ ____ _ ____ _ ____
 72
65
 73
4
 40
0.6
 49
0.375
 74
0
 49
-0.075
 74
0
 49
0.075
 74
0
 49
-0.075
 74
0
  0
LTYPE
  5
1F6
100
AcDbSymbolTableRecord
100
AcDbLinetypeTableRecord
  2
HIDDEN
 70
64
  3
- - - - - - - - - - - - - - - - - - - -
 72
65
 73
2
 40
0.2
 49
0.1
 74
0
 49
-0.1
 74
0
  0
LTYPE
  5
1F7
100
AcDbSymbolTableRecord
100
AcDbLinetypeTableRecord
  2
PHANTOM
 70
64
  3
_____ _ _ _____ _ _ _____ _ _ _____
 72
65
 73
6
 40
0.8
 49
0.45
 74
0
 49
-0.05
 74
0
 49
0.1
 74
0
 49
-0.05
 74
0
 49
0.1
 74
0
 49
-0.05
 74
0
  0
LTYPE
  5
1F8
100
AcDbSymbolTableRecord
100
AcDbLinetypeTableRecord
  2
DOT
 70
64
  3
. . . . . . . . . . . . . . . . . . . .
 72
65
 73
2
 40
0.2
 49
0.1
 74
0
 49
-0.1
 74
0
  0
LTYPE
  5
1F9
100
AcDbSymbolTableRecord
100
AcDbLinetypeTableRecord
  2
DASHED
 70
64
  3
- - - - - - - - - - - - - - - - - - - -
 72
65
 73
2
 40
0.2
 49
0.1
 74
0
 49
-0.1
 74
0
  0
ENDTAB
  0
TABLE
  2
LAYER
  5
2
100
AcDbSymbolTable
 70
36
  0
LAYER
  5
10
100
AcDbSymbolTableRecord
100
AcDbLayerTableRecord
  2
0
 70
0
 62
7
  6
CONTINUOUS
370
-3
390
F
  0
LAYER
  5
1FA
100
AcDbSymbolTableRecord
100
AcDbLayerTableRecord
  2
DEFAULT_1
 70
0
 62
7
  6
CENTER
370
-3
390
F
  0
LAYER
  5
1FB
100
AcDbSymbolTableRecord
100
AcDbLayerTableRecord
  2
DEFAULT_2
 70
0
 62
7
  6
HIDDEN
370
-3
390
F
  0
LAYER
  5
1FC
100
AcDbSymbolTableRecord
100
AcDbLayerTableRecord
  2
DEFAULT_3
 70
0
 62
7
  6
PHANTOM
370
-3
390
F
  0
LAYER
  5
1FD
100
AcDbSymbolTableRecord
100
AcDbLayerTableRecord
  2
00_COMPONENTS
 70
0
 62
7
  6
CONTINUOUS
370
-3
390
F
  0
LAYER
  5
1FE
100
AcDbSymbolTableRecord
100
AcDbLayerTableRecord
  2
00_COMPONENTS_1
 70
0
 62
7
  6
CONTINUOUS
370
-3
390
F
  0
LAYER
  5
1FF
100
AcDbSymbolTableRecord
100
AcDbLayerTableRecord
  2
01_1_DEFAULT_DATUMS
 70
0
 62
7
  6
CONTINUOUS
370
-3
390
F
  0
LAYER
  5
200
100
AcDbSymbolTableRecord
100
AcDbLayerTableRecord
  2
01_PLANES
 70
0
 62
7
  6
CONTINUOUS
370
-3
390
F
  0
LAYER
  5
201
100
AcDbSymbolTableRecord
100
AcDbLayerTableRecord
  2
02_COORD_SYS
 70
0
 62
7
  6
CONTINUOUS
370
-3
390
F
  0
LAYER
  5
202
100
AcDbSymbolTableRecord
100
AcDbLayerTableRecord
  2
03_AXES
 70
0
 62
7
  6
CONTINUOUS
370
-3
390
F
  0
LAYER
  5
203
100
AcDbSymbolTableRecord
100
AcDbLayerTableRecord
  2
03_AXES_1
 70
0
 62
7
  6
CONTINUOUS
370
-3
390
F
  0
LAYER
  5
204
100
AcDbSymbolTableRecord
100
AcDbLayerTableRecord
  2
04_POINTS
 70
0
 62
7
  6
CONTINUOUS
370
-3
390
F
  0
LAYER
  5
205
100
AcDbSymbolTableRecord
100
AcDbLayerTableRecord
  2
05_CURVES
 70
0
 62
7
  6
CONTINUOUS
370
-3
390
F
  0
LAYER
  5
206
100
AcDbSymbolTableRecord
100
AcDbLayerTableRecord
  2
06_SURFS
 70
0
 62
7
  6
CONTINUOUS
370
-3
390
F
  0
LAYER
  5
207
100
AcDbSymbolTableRecord
100
AcDbLayerTableRecord
  2
07_COSMETICS
 70
0
 62
7
  6
CONTINUOUS
370
-3
390
F
  0
LAYER
  5
208
100
AcDbSymbolTableRecord
100
AcDbLayerTableRecord
  2
10_NOTES
 70
0
 62
7
  6
CONTINUOUS
370
-3
390
F
  0
LAYER
  5
209
100
AcDbSymbolTableRecord
100
AcDbLayerTableRecord
  2
11_NOTES_PUB
 70
0
 62
7
  6
CONTINUOUS
370
-3
390
F
  0
LAYER
  5
20A
100
AcDbSymbolTableRecord
100
AcDbLayerTableRecord
  2
13_REF_GTOL
 70
0
 62
7
  6
CONTINUOUS
370
-3
390
F
  0
LAYER
  5
20B
100
AcDbSymbolTableRecord
100
AcDbLayerTableRecord
  2
16_MISC
 70
0
 62
7
  6
CONTINUOUS
370
-3
390
F
  0
LAYER
  5
20C
100
AcDbSymbolTableRecord
100
AcDbLayerTableRecord
  2
17_NO_PRINT
 70
0
 62
7
  6
CONTINUOUS
370
-3
390
F
  0
LAYER
  5
20D
100
AcDbSymbolTableRecord
100
AcDbLayerTableRecord
  2
18_DATUM_CAMS_JOINTS
 70
0
 62
7
  6
CONTINUOUS
370
-3
390
F
  0
LAYER
  5
20E
100
AcDbSymbolTableRecord
100
AcDbLayerTableRecord
  2
19_DATUM_FUNCTIONAL
 70
0
 62
7
  6
CONTINUOUS
370
-3
390
F
  0
LAYER
  5
20F
100
AcDbSymbolTableRecord
100
AcDbLayerTableRecord
  2
20_DATUM_KINEMATIC_SCHEME
 70
0
 62
7
  6
CONTINUOUS
370
-3
390
F
  0
LAYER
  5
210
100
AcDbSymbolTableRecord
100
AcDbLayerTableRecord
  2
INTFCLR_31
 70
0
 62
7
  6
CONTINUOUS
370
-3
390
F
  0
LAYER
  5
211
100
AcDbSymbolTableRecord
100
AcDbLayerTableRecord
  2
INTFCLR_89
 70
0
 62
7
  6
CONTINUOUS
370
-3
390
F
  0
LAYER
  5
212
100
AcDbSymbolTableRecord
100
AcDbLayerTableRecord
  2
INTF_BLANK
 70
0
 62
7
  6
CONTINUOUS
370
-3
390
F
  0
LAYER
  5
213
100
AcDbSymbolTableRecord
100
AcDbLayerTableRecord
  2
_BLACK_HOLE
 70
0
 62
7
  6
CONTINUOUS
370
-3
390
F
  0
ENDTAB
  0
TABLE
  2
STYLE
  5
3
100
AcDbSymbolTable
 70
1
  0
STYLE
  5
11
100
AcDbSymbolTableRecord
100
AcDbTextStyleTableRecord
  2
STANDARD
 70
0
 40
0.0
 41
1.0
 50
0.0
 71
0
 42
0.2
  3
ARIAL.TTF
  4

  0
STYLE
  5
214
100
AcDbSymbolTableRecord
100
AcDbTextStyleTableRecord
  2
TEXTSTYLE_1
 70
0
 40
0.0
 41
0.8
 50
0.0
 71
0
 42
0.2
  3
gdt
  4

  0
ENDTAB
  0
TABLE
  2
VIEW
  5
6
100
AcDbSymbolTable
 70
0
  0
ENDTAB
  0
TABLE
  2
UCS
  5
7
100
AcDbSymbolTable
 70
0
  0
ENDTAB
  0
TABLE
  2
APPID
  5
9
100
AcDbSymbolTable
 70
1
  0
APPID
  5
215
100
AcDbSymbolTableRecord
100
AcDbRegAppTableRecord
  2
ACAD
 70
0
  0
ENDTAB
  0
TABLE
  2
BLOCK_RECORD
  5
1
100
AcDbSymbolTable
 70
0
  0
BLOCK_RECORD
  5
216
100
AcDbSymbolTableRecord
100
AcDbBlockTableRecord
  2
*Model_Space
  0
BLOCK_RECORD
  5
217
100
AcDbSymbolTableRecord
100
AcDbBlockTableRecord
  2
*Paper_Space
  0
BLOCK_RECORD
  5
218
100
AcDbSymbolTableRecord
100
AcDbBlockTableRecord
  2
_FILLED
  0
ENDTAB
  0
TABLE
  2
DIMSTYLE
  5
A
100
AcDbSymbolTable
 70
1
100
AcDbDimStyleTable
 71
0
  0
DIMSTYLE
105
219
100
AcDbSymbolTableRecord
100
AcDbDimStyleTableRecord
  2
STANDARD
 70
0
  3

  4

 40
1.0
 41
0.5802752382
 42
1.0
 43
0.38
 44
1.0
 45
0.0
 46
0.0
 47
0.01
 48
0.01
140
0.8123853334
141
0.09
142
0.0
143
25.4
144
1.0
145
0.0
146
1.0
147
0.625
 71
1
 72
0
 73
0
 74
0
 75
0
 76
0
 77
1
 78
8
 79
2
170
0
171
1
172
0
173
0
174
0
175
0
176
0
177
0
178
0
270
2
179
2
271
2
272
2
273
2
274
2
275
0
280
0
281
0
282
0
283
1
284
8
285
0
286
0
287
3
288
0
340
11
278
46
341
218
342
218
343
218
344
218
  0
ENDTAB
  0
ENDSEC
  0
SECTION
  2
BLOCKS
  0
BLOCK
  5
20
100
AcDbEntity
  8
0
100
AcDbBlockBegin
  2
*Model_Space
 70
0
 10
0.0
 20
0.0
 30
0.0
  3
*Model_Space
  1

  0
ENDBLK
  5
21
100
AcDbEntity
  8
0
100
AcDbBlockEnd
  0
BLOCK
  5
1C
100
AcDbEntity
  8
0
100
AcDbBlockBegin
  2
*Paper_Space
 70
0
 10
0.0
 20
0.0
 30
0.0
  3
*Paper_Space
  1

  0
ENDBLK
  5
1D
100
AcDbEntity
  8
0
100
AcDbBlockEnd
  0
BLOCK
  5
21A
100
AcDbEntity
  8
0
100
AcDbBlockBegin
  2
_FILLED
 70
64
 10
0.0
 20
0.0
  3
_FILLED
  1

  0
SOLID
  5
21B
100
AcDbEntity
  8
0
  6
BYBLOCK
 62
0
100
AcDbTrace
 10
0.0
 20
0.0
 11
-1.0
 21
0.25
 12
-1.0
 22
-0.25
 13
-1.0
 23
-0.25
  0
ENDBLK
  5
21C
100
AcDbEntity
  8
0
  6
BYBLOCK
 62
0
100
AcDbBlockEnd
  0
ENDSEC
  0
SECTION
  2
ENTITIES
  0
LINE
  5
21D
100
AcDbEntity
  8
00_COMPONENTS_1
100
AcDbLine
 62
7
  6
BYLAYER
 10
7.7053638516
 20
54.5954187183
 11
12.3790584487
 21
57.2937614451
  0
LINE
  5
21E
100
AcDbEntity
  8
00_COMPONENTS_1
100
AcDbLine
 62
7
  6
BYLAYER
 10
10.0388381638
 20
51.8193379438
 11
9.3317162194
 21
51.4110833358
  0
LINE
  5
21F
100
AcDbEntity
  8
00_COMPONENTS_1
100
AcDbLine
 62
7
  6
BYLAYER
 10
6.7861288632
 20
49.7372385075
 11
7.7053638516
 21
50.2679559075
  0
LINE
  5
220
100
AcDbEntity
  8
00_COMPONENTS_1
100
AcDbLine
 62
7
  6
BYLAYER
 10
12.1955106063
 20
52.0030899271
 11
16.8692052034
 21
54.7014326539
  0
LINE
  5
221
100
AcDbEntity
  8
00_COMPONENTS_1
100
AcDbLine
 62
7
  6
BYLAYER
 10
14.8522622058
 20
52.3459195228
 11
15.4344001411
 21
52.635330919
  0
LINE
  5
222
100
AcDbEntity
  8
00_COMPONENTS_1
100
AcDbLine
 62
7
  6
BYLAYER
 10
5.6547627237
 20
29.9778913004
 11
5.6547627237
 21
40.8139245539
  0
LINE
  5
223
100
AcDbEntity
  8
00_COMPONENTS_1
100
AcDbLine
 62
7
  6
BYLAYER
 10
6.2204505038
 20
38.6164952369
 11
6.2204505038
 21
40.4873319502
  0
LINE
  5
224
100
AcDbEntity
  8
00_COMPONENTS_1
100
AcDbLine
 62
7
  6
BYLAYER
 10
6.7861288632
 20
41.8171650613
 11
6.7861288632
 21
49.7372385075
  0
LINE
  5
225
100
AcDbEntity
  8
00_COMPONENTS_1
100
AcDbLine
 62
7
  6
BYLAYER
 10
7.1184798547
 20
38.0980294787
 11
7.1184798547
 21
39.968866192
  0
LINE
  5
226
100
AcDbEntity
  8
00_COMPONENTS_1
100
AcDbLine
 62
7
  6
BYLAYER
 10
16.8692052034
 20
51.8028490731
 11
16.2620546276
 21
51.4523126172
  0
LINE
  5
227
100
AcDbEntity
  8
00_COMPONENTS_1
100
AcDbLine
 62
7
  6
BYLAYER
 10
14.691496003
 20
50.5455555851
 11
12.1955106063
 21
49.1045063463
  0
LINE
  5
228
100
AcDbEntity
  8
00_COMPONENTS_1
100
AcDbLine
 62
7
  6
BYLAYER
 10
15.7664147183
 20
49.9414741168
 11
16.2664126366
 21
50.2301463263
  0
LINE
  5
229
100
AcDbEntity
  8
00_COMPONENTS_1
100
AcDbLine
 62
7
  6
BYLAYER
 10
7.3518166433
 20
42.0049689805
 11
7.3518166433
 21
41.4905724577
  0
LINE
  5
22A
100
AcDbEntity
  8
00_COMPONENTS_1
100
AcDbLine
 62
7
  6
BYLAYER
 10
7.7053638516
 20
50.2679559075
 11
7.7053638516
 21
54.5954187183
  0
LINE
  5
22B
100
AcDbEntity
  8
00_COMPONENTS_1
100
AcDbLine
 62
7
  6
BYLAYER
 10
7.9882100968
 20
40.7401007013
 11
7.9882100968
 21
41.6375553608
  0
LINE
  5
22C
100
AcDbEntity
  8
00_COMPONENTS_1
100
AcDbLine
 62
7
  6
BYLAYER
 10
8.2003577342
 20
34.8361183169
 11
8.2003577342
 21
37.2856255683
  0
LINE
  5
22D
100
AcDbEntity
  8
00_COMPONENTS_1
100
AcDbLine
 62
7
  6
BYLAYER
 10
8.2498459943
 20
41.4865032222
 11
8.2498459943
 21
40.9721066995
  0
LINE
  5
22E
100
AcDbEntity
  8
00_COMPONENTS_1
100
AcDbLine
 62
7
  6
BYLAYER
 10
6.7861288632
 20
41.8171650613
 11
5.6547627237
 21
40.8139245539
  0
LINE
  5
22F
100
AcDbEntity
  8
00_COMPONENTS_1
100
AcDbLine
 62
7
  6
BYLAYER
 10
6.2204505038
 20
40.4873319502
 11
7.3518166433
 21
41.4905724577
  0
LINE
  5
230
100
AcDbEntity
  8
00_COMPONENTS_1
100
AcDbLine
 62
7
  6
BYLAYER
 10
8.2498459943
 20
40.9721066995
 11
7.1184798547
 21
39.968866192
  0
LINE
  5
231
100
AcDbEntity
  8
00_COMPONENTS_1
100
AcDbLine
 62
7
  6
BYLAYER
 10
16.827079306
 20
49.329112985
 11
17.3270772243
 21
49.6177851946
  0
LINE
  5
232
100
AcDbEntity
  8
00_COMPONENTS_1
100
AcDbLine
 62
7
  6
BYLAYER
 10
9.3317162194
 20
51.4110833358
 11
9.3317162194
 21
52.2275857529
  0
LINE
  5
233
100
AcDbEntity
  8
00_COMPONENTS_1
100
AcDbLine
 62
7
  6
BYLAYER
 10
18.347352556
 20
48.7779586858
 11
17.5341831432
 21
48.3084779089
  0
LINE
  5
234
100
AcDbEntity
  8
00_COMPONENTS_1
100
AcDbLine
 62
7
  6
BYLAYER
 10
18.7009044746
 20
47.5123764119
 11
16.827079306
 21
46.4305294042
  0
LINE
  5
235
100
AcDbEntity
  8
00_COMPONENTS_1
100
AcDbLine
 62
7
  6
BYLAYER
 10
29.1308055986
 20
19.6812605678
 11
28.0701498427
 21
19.4771455455
  0
LINE
  5
236
100
AcDbEntity
  8
00_COMPONENTS_1
100
AcDbLine
 62
7
  6
BYLAYER
 10
11.6298228262
 20
50.9008033007
 11
11.6298228262
 21
50.0843008836
  0
LINE
  5
237
100
AcDbEntity
  8
00_COMPONENTS_1
100
AcDbLine
 62
7
  6
BYLAYER
 10
12.1955106063
 20
49.1045063463
 11
12.1955106063
 21
52.0030899271
  0
LINE
  5
238
100
AcDbEntity
  8
00_COMPONENTS_1
100
AcDbLine
 62
7
  6
BYLAYER
 10
12.584446862
 20
28.4176180695
 11
12.584446862
 21
35.1801865884
  0
LINE
  5
239
100
AcDbEntity
  8
00_COMPONENTS_1
100
AcDbLine
 62
7
  6
BYLAYER
 10
7.1184798547
 20
39.1349696295
 11
6.2204505038
 21
38.6164952369
  0
LINE
  5
23A
100
AcDbEntity
  8
00_COMPONENTS_1
100
AcDbLine
 62
7
  6
BYLAYER
 10
37.1211454927
 20
11.8111777243
 11
5.6547627237
 21
29.9778913004
  0
LINE
  5
23B
100
AcDbEntity
  8
00_COMPONENTS_1
100
AcDbLine
 62
7
  6
BYLAYER
 10
13.1501346421
 20
34.8535939848
 11
13.1501346421
 21
28.0910254659
  0
LINE
  5
23C
100
AcDbEntity
  8
00_COMPONENTS_1
100
AcDbLine
 62
7
  6
BYLAYER
 10
13.7865316284
 20
33.8155938929
 11
13.7865316284
 21
34.6320963101
  0
LINE
  5
23D
100
AcDbEntity
  8
00_COMPONENTS_1
100
AcDbLine
 62
7
  6
BYLAYER
 10
14.210790398
 20
28.2951404881
 11
14.210790398
 21
31.3660719035
  0
LINE
  5
23E
100
AcDbEntity
  8
00_COMPONENTS_1
100
AcDbLine
 62
7
  6
BYLAYER
 10
14.210790398
 20
34.8770407628
 11
14.210790398
 21
35.8742114242
  0
LINE
  5
23F
100
AcDbEntity
  8
00_COMPONENTS_1
100
AcDbLine
 62
7
  6
BYLAYER
 10
14.691496003
 20
49.8476462769
 11
14.691496003
 21
52.1338530449
  0
LINE
  5
240
100
AcDbEntity
  8
00_COMPONENTS_1
100
AcDbLine
 62
7
  6
BYLAYER
 10
28.0701498427
 20
19.4771455455
 11
27.5044620626
 21
19.8037381491
  0
LINE
  5
241
100
AcDbEntity
  8
00_COMPONENTS_1
100
AcDbLine
 62
7
  6
BYLAYER
 10
13.1501346421
 20
28.0910254659
 11
12.584446862
 21
28.4176180695
  0
LINE
  5
242
100
AcDbEntity
  8
00_COMPONENTS_1
100
AcDbLine
 62
7
  6
BYLAYER
 10
15.5307298003
 20
51.9217865669
 11
15.5307298003
 21
49.635579799
  0
LINE
  5
243
100
AcDbEntity
  8
00_COMPONENTS_1
100
AcDbLine
 62
7
  6
BYLAYER
 10
15.7664147183
 20
47.0428905359
 11
15.7664147183
 21
49.9414741168
  0
LINE
  5
244
100
AcDbEntity
  8
00_COMPONENTS_1
100
AcDbLine
 62
7
  6
BYLAYER
 10
16.0742477318
 20
52.1915084995
 11
16.0742477318
 21
50.1192005291
  0
LINE
  5
245
100
AcDbEntity
  8
00_COMPONENTS_1
100
AcDbLine
 62
7
  6
BYLAYER
 10
16.2620546276
 20
50.2301463263
 11
16.2620546276
 21
52.4169939791
  0
LINE
  5
246
100
AcDbEntity
  8
00_COMPONENTS_1
100
AcDbLine
 62
7
  6
BYLAYER
 10
16.827079306
 20
46.4305294042
 11
16.827079306
 21
49.329112985
  0
LINE
  5
247
100
AcDbEntity
  8
00_COMPONENTS_1
100
AcDbLine
 62
7
  6
BYLAYER
 10
16.8692052034
 20
51.8028490731
 11
16.8692052034
 21
54.7014326539
  0
LINE
  5
248
100
AcDbEntity
  8
00_COMPONENTS_1
100
AcDbLine
 62
7
  6
BYLAYER
 10
13.6451026178
 20
36.2008040278
 11
12.584446862
 21
35.1801865884
  0
LINE
  5
249
100
AcDbEntity
  8
00_COMPONENTS_1
100
AcDbLine
 62
7
  6
BYLAYER
 10
13.1501346421
 20
34.8535939848
 11
14.210790398
 21
35.8742114242
  0
LINE
  5
24A
100
AcDbEntity
  8
00_COMPONENTS_1
100
AcDbLine
 62
7
  6
BYLAYER
 10
10.3217235674
 20
36.0608821409
 11
8.2003577342
 21
34.8361183169
  0
LINE
  5
24B
100
AcDbEntity
  8
00_COMPONENTS_1
100
AcDbLine
 62
7
  6
BYLAYER
 10
34.5755504822
 20
19.6087381733
 11
29.1308055986
 21
22.7521919831
  0
LINE
  5
24C
100
AcDbEntity
  8
00_COMPONENTS_1
100
AcDbLine
 62
7
  6
BYLAYER
 10
27.5044620626
 20
23.6911406195
 11
23.1203729348
 21
26.2222383965
  0
LINE
  5
24D
100
AcDbEntity
  8
00_COMPONENTS_1
100
AcDbLine
 62
7
  6
BYLAYER
 10
19.6555352816
 20
28.2226180937
 11
14.210790398
 21
31.3660719035
  0
LINE
  5
24E
100
AcDbEntity
  8
00_COMPONENTS_1
100
AcDbLine
 62
7
  6
BYLAYER
 10
12.584446862
 20
32.3050205399
 11
8.2003577342
 21
34.8361183169
  0
LINE
  5
24F
100
AcDbEntity
  8
00_COMPONENTS_1
100
AcDbLine
 62
7
  6
BYLAYER
 10
17.5341831432
 20
48.3084779089
 11
17.5341831432
 21
48.709986792
  0
LINE
  5
250
100
AcDbEntity
  8
00_COMPONENTS_1
100
AcDbLine
 62
7
  6
BYLAYER
 10
18.4534558144
 20
31.9377073302
 11
18.4534558144
 21
31.1212049131
  0
LINE
  5
251
100
AcDbEntity
  8
00_COMPONENTS_1
100
AcDbLine
 62
7
  6
BYLAYER
 10
18.6901363999
 20
31.2294860401
 11
18.6901363999
 21
30.9981182661
  0
LINE
  5
252
100
AcDbEntity
  8
00_COMPONENTS_1
100
AcDbLine
 62
7
  6
BYLAYER
 10
18.7009044746
 20
48.5738295542
 11
18.7009044746
 21
47.5123764119
  0
LINE
  5
253
100
AcDbEntity
  8
00_COMPONENTS_1
100
AcDbLine
 62
7
  6
BYLAYER
 10
21.9182763926
 20
39.531180259
 11
22.0526313727
 21
39.60874968
  0
LINE
  5
254
100
AcDbEntity
  8
00_COMPONENTS_1
100
AcDbLine
 62
7
  6
BYLAYER
 10
29.7722774065
 20
43.7320396025
 11
30.3544153416
 21
44.0214509986
  0
LINE
  5
255
100
AcDbEntity
  8
00_COMPONENTS_1
100
AcDbLine
 62
7
  6
BYLAYER
 10
27.2923273787
 20
26.0181954816
 11
22.6254031927
 21
28.7125844614
  0
LINE
  5
256
100
AcDbEntity
  8
00_COMPONENTS_1
100
AcDbLine
 62
7
  6
BYLAYER
 10
18.4534558144
 20
31.1212049131
 11
13.7865316284
 21
33.8155938929
  0
LINE
  5
257
100
AcDbEntity
  8
00_COMPONENTS_1
100
AcDbLine
 62
7
  6
BYLAYER
 10
8.2003577342
 20
37.2856255683
 11
12.584446862
 21
34.7545277913
  0
LINE
  5
258
100
AcDbEntity
  8
00_COMPONENTS_1
100
AcDbLine
 62
7
  6
BYLAYER
 10
18.6655706691
 20
31.2436687506
 11
19.6555352816
 21
30.6721253451
  0
LINE
  5
259
100
AcDbEntity
  8
00_COMPONENTS_1
100
AcDbLine
 62
7
  6
BYLAYER
 10
29.1308055986
 20
25.2016992345
 11
34.5755504822
 21
22.0582454247
  0
LINE
  5
25A
100
AcDbEntity
  8
00_COMPONENTS_1
100
AcDbLine
 62
7
  6
BYLAYER
 10
36.5554577126
 20
21.102966868
 11
35.6574283617
 21
21.6214326262
  0
LINE
  5
25B
100
AcDbEntity
  8
00_COMPONENTS_1
100
AcDbLine
 62
7
  6
BYLAYER
 10
7.1184798547
 20
38.0980294787
 11
6.2204505038
 21
38.6164952369
  0
LINE
  5
25C
100
AcDbEntity
  8
00_COMPONENTS_1
100
AcDbLine
 62
7
  6
BYLAYER
 10
19.301980419
 20
32.4276003149
 11
19.301980419
 21
31.6110978978
  0
LINE
  5
25D
100
AcDbEntity
  8
00_COMPONENTS_1
100
AcDbLine
 62
7
  6
BYLAYER
 10
19.6555352816
 20
30.6721253451
 11
19.6555352816
 21
28.2226180937
  0
LINE
  5
25E
100
AcDbEntity
  8
00_COMPONENTS_1
100
AcDbLine
 62
7
  6
BYLAYER
 10
13.7865316284
 20
34.6320963101
 11
14.635056233
 21
35.1219892947
  0
LINE
  5
25F
100
AcDbEntity
  8
00_COMPONENTS_1
100
AcDbLine
 62
7
  6
BYLAYER
 10
22.2364757689
 20
39.3474719195
 11
22.3743645869
 21
39.4270815905
  0
LINE
  5
260
100
AcDbEntity
  8
00_COMPONENTS_1
100
AcDbLine
 62
7
  6
BYLAYER
 10
22.943585494
 20
38.939231165
 11
23.0779404742
 21
39.0168005859
  0
LINE
  5
261
100
AcDbEntity
  8
00_COMPONENTS_1
100
AcDbLine
 62
7
  6
BYLAYER
 10
21.9182763926
 20
38.2819308553
 11
21.8122105226
 21
38.2206940623
  0
LINE
  5
262
100
AcDbEntity
  8
00_COMPONENTS_1
100
AcDbLine
 62
7
  6
BYLAYER
 10
22.2364757689
 20
38.0573981004
 11
22.3778983027
 21
38.139047951
  0
LINE
  5
263
100
AcDbEntity
  8
00_COMPONENTS_1
100
AcDbLine
 62
7
  6
BYLAYER
 10
22.943585494
 20
37.8941038382
 11
22.6607421928
 21
37.7308051569
  0
LINE
  5
264
100
AcDbEntity
  8
00_COMPONENTS_1
100
AcDbLine
 62
7
  6
BYLAYER
 10
14.210790398
 20
28.2951404881
 11
13.1501346421
 21
28.0910254659
  0
LINE
  5
265
100
AcDbEntity
  8
00_COMPONENTS_1
100
AcDbLine
 62
7
  6
BYLAYER
 10
12.584446862
 20
35.1801865884
 11
13.1501346421
 21
34.8535939848
  0
LINE
  5
266
100
AcDbEntity
  8
00_COMPONENTS_1
100
AcDbLine
 62
7
  6
BYLAYER
 10
27.5044620626
 20
26.566306668
 11
28.0701498427
 21
26.2397140644
  0
LINE
  5
267
100
AcDbEntity
  8
00_COMPONENTS_1
100
AcDbLine
 62
7
  6
BYLAYER
 10
13.7865316284
 20
34.6320963101
 11
18.4534558144
 21
31.9377073302
  0
LINE
  5
268
100
AcDbEntity
  8
00_COMPONENTS_1
100
AcDbLine
 62
7
  6
BYLAYER
 10
22.6254031927
 20
29.5290868786
 11
27.2923273787
 21
26.8346978987
  0
LINE
  5
269
100
AcDbEntity
  8
00_COMPONENTS_1
100
AcDbLine
 62
7
  6
BYLAYER
 10
14.635056233
 20
35.1219892947
 11
19.301980419
 21
32.4276003149
  0
LINE
  5
26A
100
AcDbEntity
  8
00_COMPONENTS_1
100
AcDbLine
 62
7
  6
BYLAYER
 10
23.4739277974
 20
30.0189798632
 11
28.1408519833
 21
27.3245908834
  0
LINE
  5
26B
100
AcDbEntity
  8
00_COMPONENTS_1
100
AcDbLine
 62
7
  6
BYLAYER
 10
37.1211454927
 20
22.6472109777
 11
36.5554577126
 21
22.9738035813
  0
LINE
  5
26C
100
AcDbEntity
  8
00_COMPONENTS_1
100
AcDbLine
 62
7
  6
BYLAYER
 10
6.2204505038
 20
40.4873319502
 11
5.6547627237
 21
40.8139245539
  0
LINE
  5
26D
100
AcDbEntity
  8
00_COMPONENTS_1
100
AcDbLine
 62
7
  6
BYLAYER
 10
7.1184798547
 20
39.968866192
 11
35.6574283617
 21
23.4922693396
  0
LINE
  5
26E
100
AcDbEntity
  8
00_COMPONENTS_1
100
AcDbLine
 62
7
  6
BYLAYER
 10
21.8122105226
 20
38.2206940623
 11
21.8122105226
 21
39.7475535823
  0
LINE
  5
26F
100
AcDbEntity
  8
00_COMPONENTS_1
100
AcDbLine
 62
7
  6
BYLAYER
 10
21.9182763926
 20
38.24110644
 11
21.9182763926
 21
39.531180259
  0
LINE
  5
270
100
AcDbEntity
  8
00_COMPONENTS_1
100
AcDbLine
 62
7
  6
BYLAYER
 10
22.2364757689
 20
39.3474719195
 11
22.2364757689
 21
38.0573981004
  0
LINE
  5
271
100
AcDbEntity
  8
00_COMPONENTS_1
100
AcDbLine
 62
7
  6
BYLAYER
 10
22.3778983027
 20
39.4209609787
 11
22.3778983027
 21
37.8941014587
  0
LINE
  5
272
100
AcDbEntity
  8
00_COMPONENTS_1
100
AcDbLine
 62
7
  6
BYLAYER
 10
22.6254031927
 20
28.7125844614
 11
22.6254031927
 21
29.5290868786
  0
LINE
  5
273
100
AcDbEntity
  8
00_COMPONENTS_1
100
AcDbLine
 62
7
  6
BYLAYER
 10
22.6607421928
 20
37.7308051569
 11
22.6607421928
 21
39.2576646769
  0
LINE
  5
274
100
AcDbEntity
  8
00_COMPONENTS_1
100
AcDbLine
 62
7
  6
BYLAYER
 10
22.943585494
 20
37.6491573459
 11
22.943585494
 21
38.939231165
  0
LINE
  5
275
100
AcDbEntity
  8
00_COMPONENTS_1
100
AcDbLine
 62
7
  6
BYLAYER
 10
30.0500311662
 20
41.6950108754
 11
30.5500290845
 21
41.983683085
  0
LINE
  5
276
100
AcDbEntity
  8
00_COMPONENTS_1
100
AcDbLine
 62
7
  6
BYLAYER
 10
16.1200413764
 20
32.46837189
 11
14.210790398
 21
31.3660719035
  0
LINE
  5
277
100
AcDbEntity
  8
00_COMPONENTS_1
100
AcDbLine
 62
7
  6
BYLAYER
 10
31.110695754
 20
41.0826497437
 11
31.6106936723
 21
41.3713219532
  0
LINE
  5
278
100
AcDbEntity
  8
00_COMPONENTS_1
100
AcDbLine
 62
7
  6
BYLAYER
 10
38.2525116323
 20
23.6504514852
 11
37.6868238521
 21
23.9770440888
  0
LINE
  5
279
100
AcDbEntity
  8
00_COMPONENTS_1
100
AcDbLine
 62
7
  6
BYLAYER
 10
36.7887945012
 20
24.495509847
 11
8.2498459943
 21
40.9721066995
  0
LINE
  5
27A
100
AcDbEntity
  8
00_COMPONENTS_1
100
AcDbLine
 62
7
  6
BYLAYER
 10
7.3518166433
 20
41.4905724577
 11
6.7861288632
 21
41.8171650613
  0
LINE
  5
27B
100
AcDbEntity
  8
00_COMPONENTS_1
100
AcDbLine
 62
7
  6
BYLAYER
 10
7.3518166433
 20
42.0049689805
 11
8.2498459943
 21
41.4865032222
  0
LINE
  5
27C
100
AcDbEntity
  8
00_COMPONENTS_1
100
AcDbLine
 62
7
  6
BYLAYER
 10
36.7887945012
 20
25.0099063698
 11
37.6868238521
 21
24.4914406116
  0
LINE
  5
27D
100
AcDbEntity
  8
00_COMPONENTS_1
100
AcDbLine
 62
7
  6
BYLAYER
 10
23.1203729348
 20
26.2222383965
 11
23.1203729348
 21
28.4268200125
  0
LINE
  5
27E
100
AcDbEntity
  8
00_COMPONENTS_1
100
AcDbLine
 62
7
  6
BYLAYER
 10
23.2264299729
 20
38.9310720733
 11
23.2264299729
 21
37.4042125533
  0
LINE
  5
27F
100
AcDbEntity
  8
00_COMPONENTS_1
100
AcDbLine
 62
7
  6
BYLAYER
 10
32.630969004
 20
40.5314954445
 11
31.8177995912
 21
40.0620146676
  0
LINE
  5
280
100
AcDbEntity
  8
00_COMPONENTS_1
100
AcDbLine
 62
7
  6
BYLAYER
 10
18.4534558144
 20
31.9377073302
 11
19.301980419
 21
32.4276003149
  0
LINE
  5
281
100
AcDbEntity
  8
00_COMPONENTS_1
100
AcDbLine
 62
7
  6
BYLAYER
 10
18.4534558144
 20
31.1212049131
 11
19.301980419
 21
31.6110978978
  0
LINE
  5
282
100
AcDbEntity
  8
00_COMPONENTS_1
100
AcDbLine
 62
7
  6
BYLAYER
 10
32.9845209226
 20
39.2659131706
 11
31.110695754
 21
38.1840661629
  0
LINE
  5
283
100
AcDbEntity
  8
00_COMPONENTS_1
100
AcDbLine
 62
7
  6
BYLAYER
 10
34.1159120858
 20
39.347626537
 11
38.789606683
 21
42.0459692638
  0
LINE
  5
284
100
AcDbEntity
  8
00_COMPONENTS_1
100
AcDbLine
 62
7
  6
BYLAYER
 10
23.2264299729
 20
37.4042125533
 11
22.6607421928
 21
37.7308051569
  0
LINE
  5
285
100
AcDbEntity
  8
00_COMPONENTS_1
100
AcDbLine
 62
7
  6
BYLAYER
 10
22.3778983027
 20
37.8941014587
 11
21.8122105226
 21
38.2206940623
  0
LINE
  5
286
100
AcDbEntity
  8
00_COMPONENTS_1
100
AcDbLine
 62
7
  6
BYLAYER
 10
23.2264299729
 20
37.4858607042
 11
22.943585494
 21
37.6491573459
  0
LINE
  5
287
100
AcDbEntity
  8
00_COMPONENTS_1
100
AcDbLine
 62
7
  6
BYLAYER
 10
21.9182763926
 20
38.24110644
 11
22.2364757689
 21
38.0573981004
  0
LINE
  5
288
100
AcDbEntity
  8
00_COMPONENTS_1
100
AcDbLine
 62
7
  6
BYLAYER
 10
27.2923273787
 20
26.8346978987
 11
27.2923273787
 21
26.0181954816
  0
LINE
  5
289
100
AcDbEntity
  8
00_COMPONENTS_1
100
AcDbLine
 62
7
  6
BYLAYER
 10
27.5044620626
 20
19.8037381491
 11
27.5044620626
 21
26.566306668
  0
LINE
  5
28A
100
AcDbEntity
  8
00_COMPONENTS_1
100
AcDbLine
 62
7
  6
BYLAYER
 10
28.0701498427
 20
26.2397140644
 11
28.0701498427
 21
19.4771455455
  0
LINE
  5
28B
100
AcDbEntity
  8
00_COMPONENTS_1
100
AcDbLine
 62
7
  6
BYLAYER
 10
28.1408519833
 20
27.3245908834
 11
28.1408519833
 21
27.1786737322
  0
LINE
  5
28C
100
AcDbEntity
  8
00_COMPONENTS_1
100
AcDbLine
 62
7
  6
BYLAYER
 10
35.3887218103
 20
37.1839068942
 11
34.681599866
 21
36.7756522862
  0
LINE
  5
28D
100
AcDbEntity
  8
00_COMPONENTS_1
100
AcDbLine
 62
7
  6
BYLAYER
 10
22.6254031927
 20
29.5290868786
 11
23.4739277974
 21
30.0189798632
  0
LINE
  5
28E
100
AcDbEntity
  8
00_COMPONENTS_1
100
AcDbLine
 62
7
  6
BYLAYER
 10
21.9182763926
 20
39.531180259
 11
22.2364757689
 21
39.3474719195
  0
LINE
  5
28F
100
AcDbEntity
  8
00_COMPONENTS_1
100
AcDbLine
 62
7
  6
BYLAYER
 10
22.943585494
 20
38.939231165
 11
23.2264299729
 21
38.7759345232
  0
LINE
  5
290
100
AcDbEntity
  8
00_COMPONENTS_1
100
AcDbLine
 62
7
  6
BYLAYER
 10
21.8122105226
 20
39.7475535823
 11
22.3778983027
 21
39.4209609787
  0
LINE
  5
291
100
AcDbEntity
  8
00_COMPONENTS_1
100
AcDbLine
 62
7
  6
BYLAYER
 10
22.6607421928
 20
39.2576646769
 11
23.2264299729
 21
38.9310720733
  0
LINE
  5
292
100
AcDbEntity
  8
00_COMPONENTS_1
100
AcDbLine
 62
7
  6
BYLAYER
 10
38.2525116323
 20
31.5705249313
 11
6.7861288632
 21
49.7372385075
  0
LINE
  5
293
100
AcDbEntity
  8
00_COMPONENTS_1
100
AcDbLine
 62
7
  6
BYLAYER
 10
29.1308055986
 20
19.6812605678
 11
29.1308055986
 21
22.7521919831
  0
LINE
  5
294
100
AcDbEntity
  8
00_COMPONENTS_1
100
AcDbLine
 62
7
  6
BYLAYER
 10
29.1308055986
 20
25.2016992345
 11
29.1308055986
 21
27.2603315038
  0
LINE
  5
295
100
AcDbEntity
  8
00_COMPONENTS_1
100
AcDbLine
 62
7
  6
BYLAYER
 10
29.6115112036
 20
41.2337663565
 11
29.6115112036
 21
43.5199731245
  0
LINE
  5
296
100
AcDbEntity
  8
00_COMPONENTS_1
100
AcDbLine
 62
7
  6
BYLAYER
 10
30.0500311662
 20
38.7964272946
 11
30.0500311662
 21
41.6950108754
  0
LINE
  5
297
100
AcDbEntity
  8
00_COMPONENTS_1
100
AcDbLine
 62
7
  6
BYLAYER
 10
30.4507450009
 20
43.3079066465
 11
30.4507450009
 21
41.9263617348
  0
LINE
  5
298
100
AcDbEntity
  8
00_COMPONENTS_1
100
AcDbLine
 62
7
  6
BYLAYER
 10
39.1717466206
 20
36.4287051421
 11
43.8454412178
 21
39.127047869
  0
LINE
  5
299
100
AcDbEntity
  8
00_COMPONENTS_1
100
AcDbLine
 62
7
  6
BYLAYER
 10
39.1717466206
 20
32.1012423313
 11
7.7053638516
 21
50.2679559075
  0
LINE
  5
29A
100
AcDbEntity
  8
00_COMPONENTS_1
100
AcDbLine
 62
7
  6
BYLAYER
 10
30.9942629324
 20
43.5776285791
 11
30.9942629324
 21
41.7272103556
  0
LINE
  5
29B
100
AcDbEntity
  8
00_COMPONENTS_1
100
AcDbLine
 62
7
  6
BYLAYER
 10
31.110695754
 20
38.1840661629
 11
31.110695754
 21
41.0826497437
  0
LINE
  5
29C
100
AcDbEntity
  8
00_COMPONENTS_1
100
AcDbLine
 62
7
  6
BYLAYER
 10
31.1820698282
 20
41.6187824467
 11
31.1820698282
 21
43.8031140587
  0
LINE
  5
29D
100
AcDbEntity
  8
00_COMPONENTS_1
100
AcDbLine
 62
7
  6
BYLAYER
 10
31.8177995912
 20
40.0620146676
 11
31.8177995912
 21
40.4635235507
  0
LINE
  5
29E
100
AcDbEntity
  8
00_COMPONENTS_1
100
AcDbLine
 62
7
  6
BYLAYER
 10
28.5651178184
 20
27.5869241074
 11
27.5044620626
 21
26.566306668
  0
LINE
  5
29F
100
AcDbEntity
  8
00_COMPONENTS_1
100
AcDbLine
 62
7
  6
BYLAYER
 10
25.0296239132
 20
27.3245383831
 11
23.1203729348
 21
26.2222383965
  0
LINE
  5
2A0
100
AcDbEntity
  8
00_COMPONENTS_1
100
AcDbLine
 62
7
  6
BYLAYER
 10
27.2923273787
 20
26.8346978987
 11
28.1408519833
 21
27.3245908834
  0
LINE
  5
2A1
100
AcDbEntity
  8
00_COMPONENTS_1
100
AcDbLine
 62
7
  6
BYLAYER
 10
34.1159120858
 20
36.4490429561
 11
31.110695754
 21
38.1840661629
  0
LINE
  5
2A2
100
AcDbEntity
  8
00_COMPONENTS_1
100
AcDbLine
 62
7
  6
BYLAYER
 10
30.0500311662
 20
38.7964272946
 11
16.827079306
 21
46.4305294042
  0
LINE
  5
2A3
100
AcDbEntity
  8
00_COMPONENTS_1
100
AcDbLine
 62
7
  6
BYLAYER
 10
15.7664147183
 20
47.0428905359
 11
12.1955106063
 21
49.1045063463
  0
LINE
  5
2A4
100
AcDbEntity
  8
00_COMPONENTS_1
100
AcDbLine
 62
7
  6
BYLAYER
 10
37.5453942528
 20
35.1222772304
 11
34.681599866
 21
36.7756522862
  0
LINE
  5
2A5
100
AcDbEntity
  8
00_COMPONENTS_1
100
AcDbLine
 62
7
  6
BYLAYER
 10
11.6298228262
 20
50.0843008836
 11
9.3317162194
 21
51.4110833358
  0
LINE
  5
2A6
100
AcDbEntity
  8
00_COMPONENTS_1
100
AcDbLine
 62
7
  6
BYLAYER
 10
9.3317162194
 20
52.2275857529
 11
11.6298228262
 21
50.9008033007
  0
LINE
  5
2A7
100
AcDbEntity
  8
00_COMPONENTS_1
100
AcDbLine
 62
7
  6
BYLAYER
 10
34.681599866
 20
37.5921547034
 11
37.5453942528
 21
35.9387796476
  0
LINE
  5
2A8
100
AcDbEntity
  8
00_COMPONENTS_1
100
AcDbLine
 62
7
  6
BYLAYER
 10
32.9845209226
 20
40.3273663129
 11
32.9845209226
 21
39.2659131706
  0
LINE
  5
2A9
100
AcDbEntity
  8
00_COMPONENTS_1
100
AcDbLine
 62
7
  6
BYLAYER
 10
33.6101516005
 20
22.6156061197
 11
33.6101516005
 21
22.3842383457
  0
LINE
  5
2AA
100
AcDbEntity
  8
00_COMPONENTS_1
100
AcDbLine
 62
7
  6
BYLAYER
 10
34.1159120858
 20
36.4490429561
 11
34.1159120858
 21
39.347626537
  0
LINE
  5
2AB
100
AcDbEntity
  8
00_COMPONENTS_1
100
AcDbLine
 62
7
  6
BYLAYER
 10
34.5755504822
 20
22.0582454247
 11
34.5755504822
 21
19.6087381733
  0
LINE
  5
2AC
100
AcDbEntity
  8
00_COMPONENTS_1
100
AcDbLine
 62
7
  6
BYLAYER
 10
34.681599866
 20
36.7756522862
 11
34.681599866
 21
37.5921547034
  0
LINE
  5
2AD
100
AcDbEntity
  8
00_COMPONENTS_1
100
AcDbLine
 62
7
  6
BYLAYER
 10
28.0701498427
 20
26.2397140644
 11
29.1308055986
 21
27.2603315038
  0
LINE
  5
2AE
100
AcDbEntity
  8
00_COMPONENTS_1
100
AcDbLine
 62
7
  6
BYLAYER
 10
27.2923273787
 20
26.0181954816
 11
27.5044620626
 21
26.1406707674
  0
LINE
  5
2AF
100
AcDbEntity
  8
00_COMPONENTS_1
100
AcDbLine
 62
7
  6
BYLAYER
 10
38.2525116323
 20
31.5705249313
 11
39.1717466206
 21
32.1012423313
  0
LINE
  5
2B0
100
AcDbEntity
  8
00_COMPONENTS_1
100
AcDbLine
 62
7
  6
BYLAYER
 10
7.7053638516
 20
54.5954187183
 11
12.1955106063
 21
52.0030899271
  0
LINE
  5
2B1
100
AcDbEntity
  8
00_COMPONENTS_1
100
AcDbLine
 62
7
  6
BYLAYER
 10
15.7664147183
 20
49.9414741168
 11
16.827079306
 21
49.329112985
  0
LINE
  5
2B2
100
AcDbEntity
  8
00_COMPONENTS_1
100
AcDbLine
 62
7
  6
BYLAYER
 10
30.0500311662
 20
41.6950108754
 11
31.110695754
 21
41.0826497437
  0
LINE
  5
2B3
100
AcDbEntity
  8
00_COMPONENTS_1
100
AcDbLine
 62
7
  6
BYLAYER
 10
34.1159120858
 20
39.347626537
 11
39.1717466206
 21
36.4287051421
  0
LINE
  5
2B4
100
AcDbEntity
  8
00_COMPONENTS_1
100
AcDbLine
 62
7
  6
BYLAYER
 10
32.630969004
 20
40.5314954445
 11
32.0136835565
 21
40.8878773013
  0
LINE
  5
2B5
100
AcDbEntity
  8
00_COMPONENTS_1
100
AcDbLine
 62
7
  6
BYLAYER
 10
18.347352556
 20
48.7779586858
 11
17.7300671085
 21
49.1343405427
  0
LINE
  5
2B6
100
AcDbEntity
  8
00_COMPONENTS_1
100
AcDbLine
 62
7
  6
BYLAYER
 10
17.734834917
 20
49.3006837048
 11
18.5973483142
 21
48.8027226281
  0
LINE
  5
2B7
100
AcDbEntity
  8
00_COMPONENTS_1
100
AcDbLine
 62
7
  6
BYLAYER
 10
32.018451365
 20
41.0542204635
 11
32.8809647622
 21
40.5562593868
  0
LINE
  5
2B8
100
AcDbEntity
  8
00_COMPONENTS_1
100
AcDbLine
 62
7
  6
BYLAYER
 10
17.6427613349
 20
49.4355196772
 11
16.2664126366
 21
50.2301463263
  0
LINE
  5
2B9
100
AcDbEntity
  8
00_COMPONENTS_1
100
AcDbLine
 62
7
  6
BYLAYER
 10
30.5500290845
 20
41.983683085
 11
31.9263777829
 21
41.1890564358
  0
LINE
  5
2BA
100
AcDbEntity
  8
00_COMPONENTS_1
100
AcDbLine
 62
7
  6
BYLAYER
 10
35.6574283617
 20
21.6214326262
 11
35.6574283617
 21
23.4922693396
  0
LINE
  5
2BB
100
AcDbEntity
  8
00_COMPONENTS_1
100
AcDbLine
 62
7
  6
BYLAYER
 10
36.5554577126
 20
21.102966868
 11
36.5554577126
 21
22.9738035813
  0
LINE
  5
2BC
100
AcDbEntity
  8
00_COMPONENTS_1
100
AcDbLine
 62
7
  6
BYLAYER
 10
36.7887945012
 20
25.0099063698
 11
36.7887945012
 21
24.495509847
  0
LINE
  5
2BD
100
AcDbEntity
  8
00_COMPONENTS_1
100
AcDbLine
 62
7
  6
BYLAYER
 10
36.2793237804
 20
40.5966654054
 11
31.1820698282
 21
43.539499771
  0
LINE
  5
2BE
100
AcDbEntity
  8
00_COMPONENTS_1
100
AcDbLine
 62
7
  6
BYLAYER
 10
30.3526332993
 20
44.0183643409
 11
16.8692052034
 21
51.8028490731
  0
LINE
  5
2BF
100
AcDbEntity
  8
00_COMPONENTS_1
100
AcDbLine
 62
7
  6
BYLAYER
 10
37.1211454927
 20
22.6472109777
 11
37.1211454927
 21
11.8111777243
  0
LINE
  5
2C0
100
AcDbEntity
  8
00_COMPONENTS_1
100
AcDbLine
 62
7
  6
BYLAYER
 10
37.4251879547
 20
23.7450380906
 11
37.4251879547
 21
24.6424927501
  0
LINE
  5
2C1
100
AcDbEntity
  8
00_COMPONENTS_1
100
AcDbLine
 62
7
  6
BYLAYER
 10
37.5453942528
 20
35.9387796476
 11
37.5453942528
 21
35.1222772304
  0
LINE
  5
2C2
100
AcDbEntity
  8
00_COMPONENTS_1
100
AcDbLine
 62
7
  6
BYLAYER
 10
37.6868238521
 20
24.4914406116
 11
37.6868238521
 21
23.9770440888
  0
LINE
  5
2C3
100
AcDbEntity
  8
00_COMPONENTS_1
100
AcDbLine
 62
7
  6
BYLAYER
 10
38.2525116323
 20
23.6504514852
 11
38.2525116323
 21
31.5705249313
  0
LINE
  5
2C4
100
AcDbEntity
  8
00_COMPONENTS_1
100
AcDbLine
 62
7
  6
BYLAYER
 10
31.2521714317
 20
23.9769558071
 11
29.1308055986
 21
22.7521919831
  0
LINE
  5
2C5
100
AcDbEntity
  8
00_COMPONENTS_1
100
AcDbLine
 62
7
  6
BYLAYER
 10
12.3790584487
 20
57.2937614451
 11
16.8692052034
 21
54.7014326539
  0
LINE
  5
2C6
100
AcDbEntity
  8
00_COMPONENTS_1
100
AcDbLine
 62
7
  6
BYLAYER
 10
38.789606683
 20
42.0459692638
 11
43.8454412178
 21
39.127047869
  0
LINE
  5
2C7
100
AcDbEntity
  8
00_COMPONENTS_1
100
AcDbLine
 62
7
  6
BYLAYER
 10
39.1717466206
 20
32.1012423313
 11
39.1717466206
 21
36.4287051421
  0
LINE
  5
2C8
100
AcDbEntity
  8
00_COMPONENTS_1
100
AcDbLine
 62
7
  6
BYLAYER
 10
35.6574283617
 20
23.4922693396
 11
36.7887945012
 21
24.495509847
  0
LINE
  5
2C9
100
AcDbEntity
  8
00_COMPONENTS_1
100
AcDbLine
 62
7
  6
BYLAYER
 10
37.6868238521
 20
23.9770440888
 11
36.5554577126
 21
22.9738035813
  0
LINE
  5
2CA
100
AcDbEntity
  8
00_COMPONENTS_1
100
AcDbLine
 62
7
  6
BYLAYER
 10
37.1211454927
 20
22.6472109777
 11
38.2525116323
 21
23.6504514852
  0
LINE
  5
2CB
100
AcDbEntity
  8
00_COMPONENTS_1
100
AcDbLine
 62
7
  6
BYLAYER
 10
36.5554577126
 20
22.1399070189
 11
35.6574283617
 21
21.6214326262
  0
LINE
  5
2CC
100
AcDbEntity
  8
00_COMPONENTS_1
100
AcDbLine
 62
7
  6
BYLAYER
 10
43.8454412178
 20
39.127047869
 11
43.8454412178
 21
15.6934284974
  0
LINE
  5
2CD
100
AcDbEntity
  8
00_COMPONENTS_1
100
AcDbLine
 62
7
  6
BYLAYER
 10
37.1211454927
 20
11.8111777243
 11
43.8454412178
 21
15.6934284974
  0
ARC
  5
2CE
100
AcDbEntity
  8
00_COMPONENTS_1
100
AcDbCircle
 62
7
  6
BYLAYER
 10
35.4534983695
 20
33.9093186009
 40
10.647112215
100
AcDbArc
 50
114.7601820678
 51
118.0258262932
  0
ARC
  5
2CF
100
AcDbEntity
  8
00_COMPONENTS_1
100
AcDbCircle
 62
7
  6
BYLAYER
 10
20.5334831652
 20
42.5231985285
 40
10.6471122069
100
AcDbArc
 50
114.7601820683
 51
118.025826294
  0
ARC
  5
2D0
100
AcDbEntity
  8
00_COMPONENTS_1
100
AcDbCircle
 62
7
  6
BYLAYER
 10
20.3454449509
 20
40.6047446246
 40
10.2341323974
100
AcDbArc
 50
116.5812821522
 51
118.0639396296
  0
ARC
  5
2D1
100
AcDbEntity
  8
00_COMPONENTS_1
100
AcDbCircle
 62
7
  6
BYLAYER
 10
35.2887473471
 20
25.2670212336
 40
3.395853093
100
AcDbArc
 50
257.2694229176
 51
257.5338329544
  0
ARC
  5
2D2
100
AcDbEntity
  8
00_COMPONENTS_1
100
AcDbCircle
 62
7
  6
BYLAYER
 10
20.3687321464
 20
33.8809011536
 40
3.3958530926
100
AcDbArc
 50
257.2694229176
 51
257.5338329545
  0
ARC
  5
2D3
100
AcDbEntity
  8
00_COMPONENTS_1
100
AcDbCircle
 62
7
  6
BYLAYER
 10
19.4778689215
 20
32.114611391
 40
1.3945120026
100
AcDbArc
 50
224.2448272912
 51
227.2993576452
  0
ARC
  5
2D4
100
AcDbEntity
  8
00_COMPONENTS_1
100
AcDbCircle
 62
7
  6
BYLAYER
 10
28.3167404859
 20
27.0116019595
 40
1.3945120026
100
AcDbArc
 50
224.2448272912
 51
227.2993576452
  0
ARC
  5
2D5
100
AcDbEntity
  8
00_COMPONENTS_1
100
AcDbCircle
 62
7
  6
BYLAYER
 10
13.2854294557
 20
33.9963392096
 40
1.2415086176
100
AcDbArc
 50
136.2275144168
 51
141.2621503568
  0
ARC
  5
2D6
100
AcDbEntity
  8
00_COMPONENTS_1
100
AcDbCircle
 62
7
  6
BYLAYER
 10
34.2865882926
 20
21.8715888003
 40
1.2415086176
100
AcDbArc
 50
136.2275144168
 51
141.2621503568
  0
ARC
  5
2D7
100
AcDbEntity
  8
00_COMPONENTS_1
100
AcDbCircle
 62
7
  6
BYLAYER
 10
30.0006242817
 20
43.3036172403
 40
0.4854771012
100
AcDbArc
 50
118.0573820315
 51
119.9903779286
  0
ARC
  5
2D8
100
AcDbEntity
  8
00_COMPONENTS_1
100
AcDbCircle
 62
7
  6
BYLAYER
 10
15.0806090794
 20
51.9174971637
 40
0.4854770978
100
AcDbArc
 50
118.0573820365
 51
119.9903779331
  0
SPLINE
  5
2D9
100
AcDbEntity
  8
00_COMPONENTS_1
100
AcDbSpline
 62
7
  6
BYLAYER
 70
0
 71
3
 72
11
 73
7
 74
0
 42
0.0000001
 43
0.0000001
 44
0.0000000001
 40
0.0
 40
0.0
 40
0.0
 40
0.0
 40
0.2224936493
 40
0.4646297507
 40
0.7247847722
 40
1.0
 40
1.0
 40
1.0
 40
1.0
 10
18.5321556325
 20
31.0897747697
 30
0.0
 10
18.5985692873
 20
31.0284267236
 30
0.0
 10
18.7492148948
 20
30.9129764584
 30
0.0
 10
19.0074030173
 20
30.7695717061
 30
0.0
 10
19.3012665059
 20
30.6515837435
 30
0.0
 10
19.5113122119
 20
30.5931731881
 30
0.0
 10
19.6203989103
 20
30.5685280475
 30
0.0
  0
SPLINE
  5
2DA
100
AcDbEntity
  8
00_COMPONENTS_1
100
AcDbSpline
 62
7
  6
BYLAYER
 70
0
 71
3
 72
14
 73
10
 74
0
 42
0.0000001
 43
0.0000001
 44
0.0000000001
 40
0.0
 40
0.0
 40
0.0
 40
0.0
 40
0.1001397032
 40
0.2067715067
 40
0.3207752306
 40
0.4425198608
 40
0.5719229911
 40
0.7085403258
 40
1.0
 40
1.0
 40
1.0
 40
1.0
 10
33.1897702028
 20
22.8219092811
 30
0.0
 10
33.2134097115
 20
22.7719568496
 30
0.0
 10
33.2717324161
 20
22.6731321963
 30
0.0
 10
33.3849057894
 20
22.5362371647
 30
0.0
 10
33.5245245225
 20
22.4081379281
 30
0.0
 10
33.6886272577
 20
22.2904642062
 30
0.0
 10
33.8750552712
 20
22.184650276
 30
0.0
 10
34.1560213395
 20
22.0585155301
 30
0.0
 10
34.3835216877
 20
21.9900936569
 30
0.0
 10
34.5404141109
 20
21.9546481271
 30
0.0
  0
SPLINE
  5
2DB
100
AcDbEntity
  8
00_COMPONENTS_1
100
AcDbSpline
 62
7
  6
BYLAYER
 70
0
 71
3
 72
9
 73
5
 74
0
 42
0.0000001
 43
0.0000001
 44
0.0000000001
 40
0.0
 40
0.0
 40
0.0
 40
0.0
 40
0.2455865414
 40
1.0
 40
1.0
 40
1.0
 40
1.0
 10
27.3710271968
 20
25.9867653382
 30
0.0
 10
27.3793587312
 20
25.9790692799
 30
0.0
 10
27.4136488252
 20
25.9481284289
 30
0.0
 10
27.4493496646
 20
25.9187584784
 30
0.0
 10
27.4769264779
 20
25.897463808
 30
0.0
  0
SPLINE
  5
2DC
100
AcDbEntity
  8
00_COMPONENTS_1
100
AcDbSpline
 62
7
  6
BYLAYER
 70
0
 71
3
 72
11
 73
7
 74
0
 42
0.0000001
 43
0.0000001
 44
0.0000000001
 40
0.0
 40
0.0
 40
0.0
 40
0.0
 40
0.2177329305
 40
0.4508685878
 40
0.7104438681
 40
1.0
 40
1.0
 40
1.0
 40
1.0
 10
14.6915168058
 20
52.1338530588
 30
0.0
 10
14.6915182616
 20
52.1528925086
 30
0.0
 10
14.6985167325
 20
52.1925873174
 30
0.0
 10
14.7286262367
 20
52.2479069868
 30
0.0
 10
14.7762218469
 20
52.2978779799
 30
0.0
 10
14.8160133777
 20
52.3253134979
 30
0.0
 10
14.8379411405
 20
52.3379734221
 30
0.0
  0
SPLINE
  5
2DD
100
AcDbEntity
  8
00_COMPONENTS_1
100
AcDbSpline
 62
7
  6
BYLAYER
 70
0
 71
3
 72
11
 73
7
 74
0
 42
0.0000001
 43
0.0000001
 44
0.0000000001
 40
0.0
 40
0.0
 40
0.0
 40
0.0
 40
0.2177329305
 40
0.4508685878
 40
0.7104438681
 40
1.0
 40
1.0
 40
1.0
 40
1.0
 10
29.6115320064
 20
43.5199731384
 30
0.0
 10
29.6115334622
 20
43.5390125883
 30
0.0
 10
29.6185319331
 20
43.5787073971
 30
0.0
 10
29.6486414373
 20
43.6340270664
 30
0.0
 10
29.6962370475
 20
43.6839980595
 30
0.0
 10
29.7360285783
 20
43.7114335776
 30
0.0
 10
29.7579563411
 20
43.7240935018
 30
0.0
  0
SPLINE
  5
2DE
100
AcDbEntity
  8
00_COMPONENTS_1
100
AcDbSpline
 62
7
  6
BYLAYER
 70
0
 71
3
 72
11
 73
7
 74
0
 42
0.0000001
 43
0.0000001
 44
0.0000000001
 40
0.0
 40
0.0
 40
0.0
 40
0.0
 40
0.2177442246
 40
0.4508817658
 40
0.7104588047
 40
1.0
 40
1.0
 40
1.0
 40
1.0
 10
18.5973343261
 20
48.8026983997
 30
0.0
 10
18.6138244221
 20
48.7931780449
 30
0.0
 10
18.6447086442
 20
48.7672735438
 30
0.0
 10
18.6775618991
 20
48.7135329601
 30
0.0
 10
18.6970384841
 20
48.6473274014
 30
0.0
 10
18.7009044746
 20
48.5991489837
 30
0.0
 10
18.7009044746
 20
48.5738295542
 30
0.0
  0
SPLINE
  5
2DF
100
AcDbEntity
  8
00_COMPONENTS_1
100
AcDbSpline
 62
7
  6
BYLAYER
 70
0
 71
3
 72
11
 73
7
 74
0
 42
0.0000001
 43
0.0000001
 44
0.0000000001
 40
0.0
 40
0.0
 40
0.0
 40
0.0
 40
0.2177167293
 40
0.4509418166
 40
0.7102950539
 40
1.0
 40
1.0
 40
1.0
 40
1.0
 10
31.9263777829
 20
41.1890564358
 30
0.0
 10
31.942865669
 20
41.1795368782
 30
0.0
 10
31.9737157053
 20
41.1535840039
 30
0.0
 10
32.0065886779
 20
41.0998828757
 30
0.0
 10
32.0260832227
 20
41.0336736376
 30
0.0
 10
32.0299307423
 20
40.9854990813
 30
0.0
 10
32.0299307423
 20
40.96016521
 30
0.0
  0
SPLINE
  5
2E0
100
AcDbEntity
  8
00_COMPONENTS_1
100
AcDbSpline
 62
7
  6
BYLAYER
 70
0
 71
3
 72
11
 73
7
 74
0
 42
0.0000001
 43
0.0000001
 44
0.0000000001
 40
0.0
 40
0.0
 40
0.0
 40
0.0
 40
0.2288603828
 40
0.4805086717
 40
0.7423562783
 40
1.0
 40
1.0
 40
1.0
 40
1.0
 10
32.0299307423
 20
40.96016521
 30
0.0
 10
32.0299307423
 20
40.9181478772
 30
0.0
 10
32.0183688066
 20
40.8298306002
 30
0.0
 10
31.9750811871
 20
40.6999224754
 30
0.0
 10
31.9082534801
 20
40.5744103276
 30
0.0
 10
31.8499158938
 20
40.4982510742
 30
0.0
 10
31.8177995912
 20
40.4635235507
 30
0.0
  0
SPLINE
  5
2E1
100
AcDbEntity
  8
00_COMPONENTS_1
100
AcDbSpline
 62
7
  6
BYLAYER
 70
0
 71
3
 72
11
 73
7
 74
0
 42
0.0000001
 43
0.0000001
 44
0.0000000001
 40
0.0
 40
0.0
 40
0.0
 40
0.0
 40
0.2177442246
 40
0.4508817658
 40
0.7104588047
 40
1.0
 40
1.0
 40
1.0
 40
1.0
 10
32.880950774
 20
40.5562351584
 30
0.0
 10
32.89744087
 20
40.5467148036
 30
0.0
 10
32.9283250921
 20
40.5208103025
 30
0.0
 10
32.9611783471
 20
40.4670697188
 30
0.0
 10
32.980654932
 20
40.4008641601
 30
0.0
 10
32.9845209226
 20
40.3526857424
 30
0.0
 10
32.9845209226
 20
40.3273663129
 30
0.0
  0
SPLINE
  5
2E2
100
AcDbEntity
  8
00_COMPONENTS_1
100
AcDbSpline
 62
7
  6
BYLAYER
 70
0
 71
3
 72
9
 73
5
 74
0
 42
0.0000001
 43
0.0000001
 44
0.0000000001
 40
0.0
 40
0.0
 40
0.0
 40
0.0
 40
0.4735887664
 40
1.0
 40
1.0
 40
1.0
 40
1.0
 10
12.188611366
 20
34.9466596904
 30
0.0
 10
12.2273824984
 20
34.8647327619
 30
0.0
 10
12.3354743802
 20
34.7037211034
 30
0.0
 10
12.4771709091
 20
34.5729188221
 30
0.0
 10
12.5569112773
 20
34.5113437284
 30
0.0
  0
SPLINE
  5
2E3
100
AcDbEntity
  8
00_COMPONENTS_1
100
AcDbSpline
 62
7
  6
BYLAYER
 70
0
 71
3
 72
11
 73
7
 74
0
 42
0.0000001
 43
0.0000001
 44
0.0000000001
 40
0.0
 40
0.0
 40
0.0
 40
0.0
 40
0.2177167293
 40
0.4509418166
 40
0.7102950539
 40
1.0
 40
1.0
 40
1.0
 40
1.0
 10
17.6427613349
 20
49.4355196772
 30
0.0
 10
17.6592492211
 20
49.4260001195
 30
0.0
 10
17.6900992573
 20
49.4000472452
 30
0.0
 10
17.72297223
 20
49.346346117
 30
0.0
 10
17.7424667748
 20
49.2801368789
 30
0.0
 10
17.7463142944
 20
49.2319623227
 30
0.0
 10
17.7463142944
 20
49.2066284513
 30
0.0
  0
SPLINE
  5
2E4
100
AcDbEntity
  8
00_COMPONENTS_1
100
AcDbSpline
 62
7
  6
BYLAYER
 70
0
 71
3
 72
11
 73
7
 74
0
 42
0.0000001
 43
0.0000001
 44
0.0000000001
 40
0.0
 40
0.0
 40
0.0
 40
0.0
 40
0.2288603828
 40
0.4805086717
 40
0.7423562783
 40
1.0
 40
1.0
 40
1.0
 40
1.0
 10
17.7463142944
 20
49.2066284513
 30
0.0
 10
17.7463142944
 20
49.1646111185
 30
0.0
 10
17.7347523586
 20
49.0762938415
 30
0.0
 10
17.6914647392
 20
48.9463857167
 30
0.0
 10
17.6246370321
 20
48.8208735689
 30
0.0
 10
17.5662994458
 20
48.7447143155
 30
0.0
 10
17.5341831432
 20
48.709986792
 30
0.0
  0
LINE
  5
2E5
100
AcDbEntity
  8
00_COMPONENTS_1
100
AcDbLine
 62
7
  6
BYLAYER
 10
30.3544153416
 20
44.0214509986
 11
30.3698767241
 21
44.0285995383
  0
SPLINE
  5
2E6
100
AcDbEntity
  8
00_COMPONENTS_1
100
AcDbSpline
 62
7
  6
BYLAYER
 70
0
 71
3
 72
17
 73
13
 74
0
 42
0.0000001
 43
0.0000001
 44
0.0000000001
 40
0.0
 40
0.0
 40
0.0
 40
0.0
 40
0.1338832638
 40
0.2780584598
 40
0.4252166799
 40
0.5678665557
 40
0.6990944939
 40
0.814182774
 40
0.8653865551
 40
0.9127608305
 40
0.95718374
 40
1.0
 40
1.0
 40
1.0
 40
1.0
 10
30.3698767241
 20
44.0285995383
 30
0.0
 10
30.4083694318
 20
44.0463638962
 30
0.0
 10
30.4926046104
 20
44.0742173966
 30
0.0
 10
30.6263942089
 20
44.0937001152
 30
0.0
 10
30.764387963
 20
44.0915569192
 30
0.0
 10
30.8962766893
 20
44.0680068486
 30
0.0
 10
31.0123472248
 20
44.0247375267
 30
0.0
 10
31.0922414184
 20
43.9724638388
 30
0.0
 10
31.138758908
 20
43.9229199802
 30
0.0
 10
31.1634588331
 20
43.8846141067
 30
0.0
 10
31.1786123419
 20
43.8444032214
 30
0.0
 10
31.1820380203
 20
43.8166716929
 30
0.0
 10
31.1820451437
 20
43.8031139327
 30
0.0
  0
SPLINE
  5
2E7
100
AcDbEntity
  8
00_COMPONENTS_1
100
AcDbSpline
 62
7
  6
BYLAYER
 70
0
 71
3
 72
17
 73
13
 74
0
 42
0.0000001
 43
0.0000001
 44
0.0000000001
 40
0.0
 40
0.0
 40
0.0
 40
0.0
 40
0.1338832638
 40
0.2780584598
 40
0.4252166799
 40
0.5678665557
 40
0.6990944939
 40
0.814182774
 40
0.8653865551
 40
0.9127608305
 40
0.95718374
 40
1.0
 40
1.0
 40
1.0
 40
1.0
 10
15.4498615235
 20
52.6424794587
 30
0.0
 10
15.4883542312
 20
52.6602438166
 30
0.0
 10
15.5725894098
 20
52.688097317
 30
0.0
 10
15.7063790083
 20
52.7075800355
 30
0.0
 10
15.8443727624
 20
52.7054368395
 30
0.0
 10
15.9762614887
 20
52.681886769
 30
0.0
 10
16.0923320242
 20
52.6386174471
 30
0.0
 10
16.1722262178
 20
52.5863437592
 30
0.0
 10
16.2187437074
 20
52.5367999006
 30
0.0
 10
16.2434436325
 20
52.4984940271
 30
0.0
 10
16.2585971413
 20
52.4582831418
 30
0.0
 10
16.2620228197
 20
52.4305516133
 30
0.0
 10
16.2620299431
 20
52.4169938531
 30
0.0
  0
LINE
  5
2E8
100
AcDbEntity
  8
00_COMPONENTS_1
100
AcDbLine
 62
7
  6
BYLAYER
 10
15.4344001411
 20
52.635330919
 11
15.4498615235
 21
52.6424794587
  0
SPLINE
  5
2E9
100
AcDbEntity
  8
00_COMPONENTS_1
100
AcDbSpline
 62
7
  6
BYLAYER
 70
0
 71
3
 72
11
 73
7
 74
0
 42
0.0000001
 43
0.0000001
 44
0.0000000001
 40
0.0
 40
0.0
 40
0.0
 40
0.0
 40
0.217706002
 40
0.4508725374
 40
0.7105510726
 40
1.0
 40
1.0
 40
1.0
 40
1.0
 10
31.1820451437
 20
43.8031139327
 30
0.0
 10
31.1820551459
 20
43.7840770484
 30
0.0
 10
31.1750418369
 20
43.7443831202
 30
0.0
 10
31.1449432117
 20
43.6890490541
 30
0.0
 10
31.0973237318
 20
43.6390962275
 30
0.0
 10
31.0575440954
 20
43.61164878
 30
0.0
 10
31.0356246908
 20
43.5989936814
 30
0.0
  0
SPLINE
  5
2EA
100
AcDbEntity
  8
00_COMPONENTS_1
100
AcDbSpline
 62
7
  6
BYLAYER
 70
0
 71
3
 72
14
 73
10
 74
0
 42
0.0000001
 43
0.0000001
 44
0.0000000001
 40
0.0
 40
0.0
 40
0.0
 40
0.0
 40
0.0926847444
 40
0.1909687583
 40
0.2989383707
 40
0.4186546049
 40
0.5503278842
 40
0.6927505893
 40
1.0
 40
1.0
 40
1.0
 40
1.0
 10
29.6115320064
 20
41.2337663704
 30
0.0
 10
29.6115306716
 20
41.2163104611
 30
0.0
 10
29.6173493652
 20
41.1801252165
 30
0.0
 10
29.642637593
 20
41.1290624307
 30
0.0
 10
29.6829483716
 20
41.0820716421
 30
0.0
 10
29.7367154682
 20
41.0403643103
 30
0.0
 10
29.8022368285
 20
41.0049967906
 30
0.0
 10
29.9050441571
 20
40.9666489621
 30
0.0
 10
29.9893911084
 20
40.9518250564
 30
0.0
 10
30.0470960445
 20
40.9475073799
 30
0.0
  0
SPLINE
  5
2EB
100
AcDbEntity
  8
00_COMPONENTS_1
100
AcDbSpline
 62
7
  6
BYLAYER
 70
0
 71
3
 72
11
 73
7
 74
0
 42
0.0000001
 43
0.0000001
 44
0.0000000001
 40
0.0
 40
0.0
 40
0.0
 40
0.0
 40
0.2895396729
 40
0.5491163863
 40
0.7822545095
 40
1.0
 40
1.0
 40
1.0
 40
1.0
 10
32.630969004
 20
40.5314954445
 30
0.0
 10
32.6528953216
 20
40.5441545343
 30
0.0
 10
32.6965502254
 20
40.5648946781
 30
0.0
 10
32.7636214294
 20
40.5811295921
 30
0.0
 10
32.8265863715
 20
40.5795484207
 30
0.0
 10
32.8644612356
 20
40.5657551913
 30
0.0
 10
32.880950774
 20
40.5562351584
 30
0.0
  0
SPLINE
  5
2EC
100
AcDbEntity
  8
00_COMPONENTS_1
100
AcDbSpline
 62
7
  6
BYLAYER
 70
0
 71
3
 72
11
 73
7
 74
0
 42
0.0000001
 43
0.0000001
 44
0.0000000001
 40
0.0
 40
0.0
 40
0.0
 40
0.0
 40
0.2895396729
 40
0.5491163863
 40
0.7822545095
 40
1.0
 40
1.0
 40
1.0
 40
1.0
 10
18.347352556
 20
48.7779586858
 30
0.0
 10
18.3692788736
 20
48.7906177756
 30
0.0
 10
18.4129337774
 20
48.8113579195
 30
0.0
 10
18.4800049814
 20
48.8275928334
 30
0.0
 10
18.5429699235
 20
48.826011662
 30
0.0
 10
18.5808447877
 20
48.8122184326
 30
0.0
 10
18.5973343261
 20
48.8026983997
 30
0.0
  0
SPLINE
  5
2ED
100
AcDbEntity
  8
00_COMPONENTS_1
100
AcDbSpline
 62
7
  6
BYLAYER
 70
0
 71
3
 72
11
 73
7
 74
0
 42
0.0000001
 43
0.0000001
 44
0.0000000001
 40
0.0
 40
0.0
 40
0.0
 40
0.0
 40
0.217706002
 40
0.4508725374
 40
0.7105510726
 40
1.0
 40
1.0
 40
1.0
 40
1.0
 10
16.2620299431
 20
52.4169938531
 30
0.0
 10
16.2620399453
 20
52.3979569688
 30
0.0
 10
16.2550266363
 20
52.3582630406
 30
0.0
 10
16.2249280111
 20
52.3029289745
 30
0.0
 10
16.1773085312
 20
52.2529761479
 30
0.0
 10
16.1375288947
 20
52.2255287004
 30
0.0
 10
16.1156094902
 20
52.2128736018
 30
0.0
  0
SPLINE
  5
2EE
100
AcDbEntity
  8
00_COMPONENTS_1
100
AcDbSpline
 62
7
  6
BYLAYER
 70
0
 71
3
 72
17
 73
13
 74
0
 42
0.0000001
 43
0.0000001
 44
0.0000000001
 40
0.0
 40
0.0
 40
0.0
 40
0.0
 40
0.1305953388
 40
0.2731601379
 40
0.4203452159
 40
0.5640811841
 40
0.6968499024
 40
0.8132962906
 40
0.8649763073
 40
0.9126240102
 40
0.9571685292
 40
1.0
 40
1.0
 40
1.0
 40
1.0
 10
30.4507450009
 20
43.3079066465
 30
0.0
 10
30.413100759
 20
43.2878345853
 30
0.0
 10
30.3289919597
 20
43.2556974392
 30
0.0
 10
30.1932502274
 20
43.2312228177
 30
0.0
 10
30.0510065535
 20
43.2294856394
 30
0.0
 10
29.9135237984
 20
43.2506582852
 30
0.0
 10
29.7915654836
 20
43.2930492596
 30
0.0
 10
29.7070846398
 20
43.3458481279
 30
0.0
 10
29.6576036072
 20
43.3965049796
 30
0.0
 10
29.6313702879
 20
43.435884982
 30
0.0
 10
29.6151768816
 20
43.4773156782
 30
0.0
 10
29.6115309365
 20
43.5059815116
 30
0.0
 10
29.6115320064
 20
43.5199731384
 30
0.0
  0
SPLINE
  5
2EF
100
AcDbEntity
  8
00_COMPONENTS_1
100
AcDbSpline
 62
7
  6
BYLAYER
 70
0
 71
3
 72
9
 73
5
 74
0
 42
0.0000001
 43
0.0000001
 44
0.0000000001
 40
0.0
 40
0.0
 40
0.0
 40
0.0
 40
0.2450997049
 40
1.0
 40
1.0
 40
1.0
 40
1.0
 10
31.0356246908
 20
43.5989936814
 30
0.0
 10
31.0323301547
 20
43.5970915915
 30
0.0
 10
31.0187948787
 20
43.5894940215
 30
0.0
 10
31.0049014885
 20
43.5825382654
 30
0.0
 10
30.9942629324
 20
43.5776285791
 30
0.0
  0
SPLINE
  5
2F0
100
AcDbEntity
  8
00_COMPONENTS_1
100
AcDbSpline
 62
7
  6
BYLAYER
 70
0
 71
3
 72
9
 73
5
 74
0
 42
0.0000001
 43
0.0000001
 44
0.0000000001
 40
0.0
 40
0.0
 40
0.0
 40
0.0
 40
0.2450997049
 40
1.0
 40
1.0
 40
1.0
 40
1.0
 10
16.1156094902
 20
52.2128736018
 30
0.0
 10
16.1123149541
 20
52.2109715119
 30
0.0
 10
16.098779678
 20
52.2033739418
 30
0.0
 10
16.0848862876
 20
52.1964181857
 30
0.0
 10
16.0742477314
 20
52.1915084993
 30
0.0
  0
SPLINE
  5
2F1
100
AcDbEntity
  8
00_COMPONENTS_1
100
AcDbSpline
 62
7
  6
BYLAYER
 70
0
 71
3
 72
17
 73
13
 74
0
 42
0.0000001
 43
0.0000001
 44
0.0000000001
 40
0.0
 40
0.0
 40
0.0
 40
0.0
 40
0.1305953388
 40
0.2731601379
 40
0.4203452159
 40
0.5640811841
 40
0.6968499024
 40
0.8132962906
 40
0.8649763073
 40
0.9126240102
 40
0.9571685292
 40
1.0
 40
1.0
 40
1.0
 40
1.0
 10
15.5307298003
 20
51.9217865669
 30
0.0
 10
15.4930855584
 20
51.9017145057
 30
0.0
 10
15.4089767591
 20
51.8695773596
 30
0.0
 10
15.2732350269
 20
51.8451027381
 30
0.0
 10
15.130991353
 20
51.8433655598
 30
0.0
 10
14.9935085978
 20
51.8645382055
 30
0.0
 10
14.871550283
 20
51.90692918
 30
0.0
 10
14.7870694392
 20
51.9597280483
 30
0.0
 10
14.7375884066
 20
52.0103849
 30
0.0
 10
14.7113550873
 20
52.0497649024
 30
0.0
 10
14.695161681
 20
52.0911955986
 30
0.0
 10
14.6915157359
 20
52.119861432
 30
0.0
 10
14.6915168058
 20
52.1338530588
 30
0.0
  0
SPLINE
  5
2F2
100
AcDbEntity
  8
00_COMPONENTS_1
100
AcDbSpline
 62
7
  6
BYLAYER
 70
0
 71
3
 72
17
 73
13
 74
0
 42
0.0000001
 43
0.0000001
 44
0.0000000001
 40
0.0
 40
0.0
 40
0.0
 40
0.0
 40
0.0428314708
 40
0.0873759898
 40
0.1350236927
 40
0.1867037094
 40
0.3031500976
 40
0.4359188159
 40
0.5796547841
 40
0.7268398621
 40
0.8694046612
 40
1.0
 40
1.0
 40
1.0
 40
1.0
 10
14.6915168058
 20
49.8476462908
 30
0.0
 10
14.6915157359
 20
49.833654664
 30
0.0
 10
14.695161681
 20
49.8049888306
 30
0.0
 10
14.7113550873
 20
49.7635581344
 30
0.0
 10
14.7375884066
 20
49.724178132
 30
0.0
 10
14.7870694392
 20
49.6735212803
 30
0.0
 10
14.871550283
 20
49.620722412
 30
0.0
 10
14.9935085978
 20
49.5783314376
 30
0.0
 10
15.130991353
 20
49.5571587918
 30
0.0
 10
15.2732350269
 20
49.5588959701
 30
0.0
 10
15.4089767591
 20
49.5833705916
 30
0.0
 10
15.4930855584
 20
49.6155077377
 30
0.0
 10
15.5307298003
 20
49.635579799
 30
0.0
  0
ENDSEC
  0
SECTION
  2
OBJECTS
  0
DICTIONARY
  5
C
100
AcDbDictionary
280
0
281
1
  3
ACAD_GROUP
350
D
  3
ACAD_MLINESTYLE
350
17
  3
ACAD_LAYOUT
350
1A
  3
ACAD_PLOTSETTINGS
350
19
  3
ACAD_PLOTSTYLENAME
350
E
  0
DICTIONARY
  5
D
102
{ACAD_REACTORS
330
C
102
}
100
AcDbDictionary
280
0
281
1
  0
ACDBDICTIONARYWDFLT
  5
E
102
{ACAD_REACTORS
330
C
102
}
100
AcDbDictionary
281
1
  3
Normal
350
F
100
AcDbDictionaryWithDefault
340
F
  0
DICTIONARY
  5
17
102
{ACAD_REACTORS
330
C
102
}
100
AcDbDictionary
280
0
281
1
  3
Standard
350
18
  0
DICTIONARY
  5
19
102
{ACAD_REACTORS
330
C
102
}
100
AcDbDictionary
281
1
  0
DICTIONARY
  5
1A
102
{ACAD_REACTORS
330
C
102
}
100
AcDbDictionary
281
1
  3
Model
350
2F3
  3
Layout1
350
2F4
  0
ACDBPLACEHOLDER
  5
F
102
{ACAD_REACTORS
330
E
102
}
  0
MLINESTYLE
  5
18
102
{ACAD_REACTORS
330
17
102
}
100
AcDbMlineStyle
  2
STANDARD
 70
0
  3

 62
256
 51
90.0
 52
90.0
 71
2
 49
0.5
 62
256
  6
BYLAYER
 49
-0.5
 62
256
  6
BYLAYER
  0
LAYOUT
  5
2F3
102
{ACAD_REACTORS
330
1A
102
}
100
AcDbPlotSettings
  1

  2
none_device
  4

  6

 40
0.0
 41
0.0
 42
0.0
 43
0.0
 44
210.0
 45
297.0
 46
0.0
 47
0.0
 48
0.0
 49
0.0
140
0.0
141
0.0
142
1.0
143
1.0
 70
1024
 72
1
 73
0
 74
0
  7

 75
0
147
1.0
148
0.0
149
0.0
100
AcDbLayout
  1
Model
 70
0
 71
0
 10
0.0
 20
0.0
 11
210.0
 21
297.0
 12
0.0
 22
0.0
 32
0.0
 14
0.0
 24
0.0
 34
0.0
 15
0.0
 25
0.0
 35
0.0
146
0.0
 13
0.0
 23
0.0
 33
0.0
 16
1.0
 26
0.0
 36
0.0
 17
0.0
 27
1.0
 37
0.0
 76
0
330
216
345
0
346
0
  0
LAYOUT
  5
2F4
102
{ACAD_REACTORS
330
1A
102
}
100
AcDbPlotSettings
  1

  2
none_device
  4

  6

 40
0.0
 41
0.0
 42
0.0
 43
0.0
 44
210.0
 45
297.0
 46
0.0
 47
0.0
 48
0.0
 49
0.0
140
0.0
141
0.0
142
1.0
143
1.0
 70
0
 72
1
 73
0
 74
0
  7

 75
0
147
1.0
148
0.0
149
0.0
100
AcDbLayout
  1
Layout1
 70
0
 71
1
 10
0.0
 20
0.0
 11
210.0
 21
297.0
 12
0.0
 22
0.0
 32
0.0
 14
0.0
 24
0.0
 34
0.0
 15
0.0
 25
0.0
 35
0.0
146
0.0
 13
0.0
 23
0.0
 33
0.0
 16
1.0
 26
0.0
 36
0.0
 17
0.0
 27
1.0
 37
0.0
 76
0
330
217
345
0
346
0
  0
ENDSEC
  0
EOF
