999
DXF file: C:\Users\sesa63760\Dev\_Creo\CAD\MCADID0004198_3D-CAD\drw0001_1.dxf
999
Pro/ENGINEER 2019471 by Parametric Technology Corporation
  0
SECTION
  2
HEADER
  9
$ACADVER
  1
AC1024
  9
$DWGCODEPAGE
  3
ANSI_1252
  9
$EXTMAX
 10
156.8064150954
 20
221.7690727778
 30
0.0
  9
$EXTMIN
 10
0.0
 20
0.0
 30
0.0
  9
$LIMMIN
 10
0.0
 20
0.0
  9
$LIMMAX
 10
156.8064150954
 20
221.7690727778
  9
$VIEWCTR
 10
78.4032075477
 20
110.8845363889
  9
$VIEWSIZE
 40
221.7690727778
  9
$CLAYER
  8
0
  9
$LTSCALE
 40
14.4560580774
  9
$CELTYPE
  6
BYLAYER
  9
$DIMSCALE
 40
1.0
  9
$DIMASZ
 40
1.8667430369
  9
$DIMEXO
 40
1.0
  9
$DIMDLI
 40
9.9878219444
  9
$DIMEXE
 40
1.0
  9
$DIMCEN
 40
2.3655367763
  9
$DIMLFAC
 40
1.0
  9
$DIMBLK
  1
_FILLED
  9
$DIMALT
 70
0
  9
$DIMALTF
 40
0.0393700787
  9
$DIMTXT
 40
2.6134402516
  9
$DIMTOL
 70
1
  9
$DIMLIM
 70
0
  9
$DIMTFAC
 40
1.0
  9
$DIMTP
 40
0.01
  9
$DIMTM
 40
0.01
  9
$DIMGAP
 40
0.625
  9
$DIMDSEP
 70
46
  9
$AUNITS
 70
0
  9
$PDMODE
 70
3
  9
$PDSIZE
 40
0.3125
  9
$HANDSEED
  5
55B
  9
$TILEMODE
 70
1
  9
$MEASUREMENT
 70
1
  9
$INSUNITS
 70
4
  0
ENDSEC
  0
SECTION
  2
CLASSES
  0
CLASS
  1
ACDBDICTIONARYWDFLT
  2
AcDbDictionaryWithDefault
  3
AutoCAD 2000
 90
0
 91
1
280
0
281
0
  0
CLASS
  1
ACDBPLACEHOLDER
  2
AcDbPlaceHolder
  3
AutoCAD 2000
 90
0
 91
1
280
0
281
0
  0
CLASS
  1
LAYOUT
  2
AcDbLayout
  3
AutoCAD 2000
 90
0
 91
0
280
0
281
0
  0
ENDSEC
  0
SECTION
  2
TABLES
  0
TABLE
  2
VPORT
  5
8
100
AcDbSymbolTable
 70
2
  0
VPORT
  5
1F4
100
AcDbSymbolTableRecord
100
AcDbViewportTableRecord
  2
*ACTIVE
 70
0
 10
0.0
 20
0.0
 11
1.0
 21
1.0
 12
78.4032075477
 22
110.8845363889
 13
0.0
 23
0.0
 14
1.0
 24
1.0
 15
0.0
 25
0.0
 16
0.0
 26
0.0
 36
1.0
 17
0.0
 27
0.0
 37
0.0
 40
221.7690727778
 41
0.7070707071
 42
50.0
 43
0.0
 44
0.0
 50
0.0
 51
0.0
 71
0
 72
100
 73
1
 74
1
 75
0
 76
0
 77
0
 78
0
  0
ENDTAB
  0
TABLE
  2
LTYPE
  5
5
100
AcDbSymbolTable
 70
6
  0
LTYPE
  5
14
100
AcDbSymbolTableRecord
100
AcDbLinetypeTableRecord
  2
BYBLOCK
 70
0
  3

 72
65
 73
0
 40
0.0
  0
LTYPE
  5
15
100
AcDbSymbolTableRecord
100
AcDbLinetypeTableRecord
  2
BYLAYER
 70
0
  3

 72
65
 73
0
 40
0.0
  0
LTYPE
  5
16
100
AcDbSymbolTableRecord
100
AcDbLinetypeTableRecord
  2
CONTINUOUS
 70
64
  3
Solid line
 72
65
 73
0
 40
0.0
  0
LTYPE
  5
1F5
100
AcDbSymbolTableRecord
100
AcDbLinetypeTableRecord
  2
CENTER
 70
64
  3
____ _ ____ _ ____ _ ____ _ ____ _ ____ _ ____
 72
65
 73
4
 40
0.6
 49
0.375
 74
0
 49
-0.075
 74
0
 49
0.075
 74
0
 49
-0.075
 74
0
  0
LTYPE
  5
1F6
100
AcDbSymbolTableRecord
100
AcDbLinetypeTableRecord
  2
HIDDEN
 70
64
  3
- - - - - - - - - - - - - - - - - - - -
 72
65
 73
2
 40
0.2
 49
0.1
 74
0
 49
-0.1
 74
0
  0
LTYPE
  5
1F7
100
AcDbSymbolTableRecord
100
AcDbLinetypeTableRecord
  2
PHANTOM
 70
64
  3
_____ _ _ _____ _ _ _____ _ _ _____
 72
65
 73
6
 40
0.8
 49
0.45
 74
0
 49
-0.05
 74
0
 49
0.1
 74
0
 49
-0.05
 74
0
 49
0.1
 74
0
 49
-0.05
 74
0
  0
LTYPE
  5
1F8
100
AcDbSymbolTableRecord
100
AcDbLinetypeTableRecord
  2
DOT
 70
64
  3
. . . . . . . . . . . . . . . . . . . .
 72
65
 73
2
 40
0.2
 49
0.1
 74
0
 49
-0.1
 74
0
  0
LTYPE
  5
1F9
100
AcDbSymbolTableRecord
100
AcDbLinetypeTableRecord
  2
DASHED
 70
64
  3
- - - - - - - - - - - - - - - - - - - -
 72
65
 73
2
 40
0.2
 49
0.1
 74
0
 49
-0.1
 74
0
  0
ENDTAB
  0
TABLE
  2
LAYER
  5
2
100
AcDbSymbolTable
 70
36
  0
LAYER
  5
10
100
AcDbSymbolTableRecord
100
AcDbLayerTableRecord
  2
0
 70
0
 62
7
  6
CONTINUOUS
370
-3
390
F
  0
LAYER
  5
1FA
100
AcDbSymbolTableRecord
100
AcDbLayerTableRecord
  2
DEFAULT_1
 70
0
 62
7
  6
CENTER
370
-3
390
F
  0
LAYER
  5
1FB
100
AcDbSymbolTableRecord
100
AcDbLayerTableRecord
  2
DEFAULT_2
 70
0
 62
7
  6
HIDDEN
370
-3
390
F
  0
LAYER
  5
1FC
100
AcDbSymbolTableRecord
100
AcDbLayerTableRecord
  2
DEFAULT_3
 70
0
 62
7
  6
PHANTOM
370
-3
390
F
  0
LAYER
  5
1FD
100
AcDbSymbolTableRecord
100
AcDbLayerTableRecord
  2
00_COMPONENTS
 70
0
 62
7
  6
CONTINUOUS
370
-3
390
F
  0
LAYER
  5
1FE
100
AcDbSymbolTableRecord
100
AcDbLayerTableRecord
  2
01_1_DEFAULT_DATUMS
 70
0
 62
7
  6
CONTINUOUS
370
-3
390
F
  0
LAYER
  5
1FF
100
AcDbSymbolTableRecord
100
AcDbLayerTableRecord
  2
01_PLANES
 70
0
 62
7
  6
CONTINUOUS
370
-3
390
F
  0
LAYER
  5
200
100
AcDbSymbolTableRecord
100
AcDbLayerTableRecord
  2
02_COORD_SYS
 70
0
 62
7
  6
CONTINUOUS
370
-3
390
F
  0
LAYER
  5
201
100
AcDbSymbolTableRecord
100
AcDbLayerTableRecord
  2
03_AXES
 70
0
 62
7
  6
CONTINUOUS
370
-3
390
F
  0
LAYER
  5
202
100
AcDbSymbolTableRecord
100
AcDbLayerTableRecord
  2
04_POINTS
 70
0
 62
7
  6
CONTINUOUS
370
-3
390
F
  0
LAYER
  5
203
100
AcDbSymbolTableRecord
100
AcDbLayerTableRecord
  2
05_CURVES
 70
0
 62
7
  6
CONTINUOUS
370
-3
390
F
  0
LAYER
  5
204
100
AcDbSymbolTableRecord
100
AcDbLayerTableRecord
  2
06_SURFS
 70
0
 62
7
  6
CONTINUOUS
370
-3
390
F
  0
LAYER
  5
205
100
AcDbSymbolTableRecord
100
AcDbLayerTableRecord
  2
07_COSMETICS
 70
0
 62
7
  6
CONTINUOUS
370
-3
390
F
  0
LAYER
  5
206
100
AcDbSymbolTableRecord
100
AcDbLayerTableRecord
  2
10_NOTES
 70
0
 62
7
  6
CONTINUOUS
370
-3
390
F
  0
LAYER
  5
207
100
AcDbSymbolTableRecord
100
AcDbLayerTableRecord
  2
11_NOTES_PUB
 70
0
 62
7
  6
CONTINUOUS
370
-3
390
F
  0
LAYER
  5
208
100
AcDbSymbolTableRecord
100
AcDbLayerTableRecord
  2
13_REF_GTOL
 70
0
 62
7
  6
CONTINUOUS
370
-3
390
F
  0
LAYER
  5
209
100
AcDbSymbolTableRecord
100
AcDbLayerTableRecord
  2
16_MISC
 70
0
 62
7
  6
CONTINUOUS
370
-3
390
F
  0
LAYER
  5
20A
100
AcDbSymbolTableRecord
100
AcDbLayerTableRecord
  2
17_NO_PRINT
 70
0
 62
7
  6
CONTINUOUS
370
-3
390
F
  0
LAYER
  5
20B
100
AcDbSymbolTableRecord
100
AcDbLayerTableRecord
  2
18_DATUM_CAMS_JOINTS
 70
0
 62
7
  6
CONTINUOUS
370
-3
390
F
  0
LAYER
  5
20C
100
AcDbSymbolTableRecord
100
AcDbLayerTableRecord
  2
19_DATUM_FUNCTIONAL
 70
0
 62
7
  6
CONTINUOUS
370
-3
390
F
  0
LAYER
  5
20D
100
AcDbSymbolTableRecord
100
AcDbLayerTableRecord
  2
20_DATUM_KINEMATIC_SCHEME
 70
0
 62
7
  6
CONTINUOUS
370
-3
390
F
  0
ENDTAB
  0
TABLE
  2
STYLE
  5
3
100
AcDbSymbolTable
 70
1
  0
STYLE
  5
11
100
AcDbSymbolTableRecord
100
AcDbTextStyleTableRecord
  2
STANDARD
 70
0
 40
0.0
 41
1.0
 50
0.0
 71
0
 42
0.2
  3
ARIAL.TTF
  4

  0
STYLE
  5
20E
100
AcDbSymbolTableRecord
100
AcDbTextStyleTableRecord
  2
TEXTSTYLE_1
 70
0
 40
0.0
 41
0.8
 50
0.0
 71
0
 42
0.2
  3
gdt
  4

  0
ENDTAB
  0
TABLE
  2
VIEW
  5
6
100
AcDbSymbolTable
 70
0
  0
ENDTAB
  0
TABLE
  2
UCS
  5
7
100
AcDbSymbolTable
 70
0
  0
ENDTAB
  0
TABLE
  2
APPID
  5
9
100
AcDbSymbolTable
 70
1
  0
APPID
  5
20F
100
AcDbSymbolTableRecord
100
AcDbRegAppTableRecord
  2
ACAD
 70
0
  0
ENDTAB
  0
TABLE
  2
BLOCK_RECORD
  5
1
100
AcDbSymbolTable
 70
0
  0
BLOCK_RECORD
  5
210
100
AcDbSymbolTableRecord
100
AcDbBlockTableRecord
  2
*Model_Space
  0
BLOCK_RECORD
  5
211
100
AcDbSymbolTableRecord
100
AcDbBlockTableRecord
  2
*Paper_Space
  0
BLOCK_RECORD
  5
212
100
AcDbSymbolTableRecord
100
AcDbBlockTableRecord
  2
_FILLED
  0
ENDTAB
  0
TABLE
  2
DIMSTYLE
  5
A
100
AcDbSymbolTable
 70
1
100
AcDbDimStyleTable
 71
0
  0
DIMSTYLE
105
213
100
AcDbSymbolTableRecord
100
AcDbDimStyleTableRecord
  2
STANDARD
 70
0
  3

  4

 40
1.0
 41
1.8667430369
 42
1.0
 43
0.38
 44
1.0
 45
0.0
 46
0.0
 47
0.01
 48
0.01
140
2.6134402516
141
0.09
142
0.0
143
25.4
144
1.0
145
0.0
146
1.0
147
0.625
 71
1
 72
0
 73
0
 74
0
 75
0
 76
0
 77
1
 78
8
 79
2
170
0
171
1
172
0
173
0
174
0
175
0
176
0
177
0
178
0
270
2
179
2
271
2
272
2
273
2
274
2
275
0
280
0
281
0
282
0
283
1
284
8
285
0
286
0
287
3
288
0
340
11
278
46
341
212
342
212
343
212
344
212
  0
ENDTAB
  0
ENDSEC
  0
SECTION
  2
BLOCKS
  0
BLOCK
  5
20
100
AcDbEntity
  8
0
100
AcDbBlockBegin
  2
*Model_Space
 70
0
 10
0.0
 20
0.0
 30
0.0
  3
*Model_Space
  1

  0
ENDBLK
  5
21
100
AcDbEntity
  8
0
100
AcDbBlockEnd
  0
BLOCK
  5
1C
100
AcDbEntity
  8
0
100
AcDbBlockBegin
  2
*Paper_Space
 70
0
 10
0.0
 20
0.0
 30
0.0
  3
*Paper_Space
  1

  0
ENDBLK
  5
1D
100
AcDbEntity
  8
0
100
AcDbBlockEnd
  0
BLOCK
  5
214
100
AcDbEntity
  8
0
100
AcDbBlockBegin
  2
_FILLED
 70
64
 10
0.0
 20
0.0
  3
_FILLED
  1

  0
SOLID
  5
215
100
AcDbEntity
  8
0
  6
BYBLOCK
 62
0
100
AcDbTrace
 10
0.0
 20
0.0
 11
-1.0
 21
0.25
 12
-1.0
 22
-0.25
 13
-1.0
 23
-0.25
  0
ENDBLK
  5
216
100
AcDbEntity
  8
0
  6
BYBLOCK
 62
0
100
AcDbBlockEnd
  0
ENDSEC
  0
SECTION
  2
ENTITIES
  0
LINE
  5
217
100
AcDbEntity
  8
0
100
AcDbLine
 62
7
  6
BYLAYER
 10
66.2439600038
 20
200.3684562418
 11
64.0872933
 21
199.1233115723
  0
LINE
  5
218
100
AcDbEntity
  8
0
100
AcDbLine
 62
7
  6
BYLAYER
 10
71.7593699336
 20
203.5527606418
 11
73.9160366371
 21
204.7979053111
  0
LINE
  5
219
100
AcDbEntity
  8
0
100
AcDbLine
 62
7
  6
BYLAYER
 10
73.951403016
 20
203.2669961929
 11
72.8200368765
 21
202.6138055467
  0
LINE
  5
21A
100
AcDbEntity
  8
0
100
AcDbLine
 62
7
  6
BYLAYER
 10
67.5874684811
 20
199.592798808
 11
66.7389438764
 21
199.1029058234
  0
LINE
  5
21B
100
AcDbEntity
  8
0
100
AcDbLine
 62
7
  6
BYLAYER
 10
63.85298108
 20
196.5385249052
 11
63.2495022558
 21
196.1901083233
  0
LINE
  5
21C
100
AcDbEntity
  8
0
100
AcDbLine
 62
7
  6
BYLAYER
 10
76.60308554
 20
203.8997572068
 11
76.6424215987
 21
203.9224677553
  0
LINE
  5
21D
100
AcDbEntity
  8
0
100
AcDbLine
 62
7
  6
BYLAYER
 10
62.4938407022
 20
195.6818393479
 11
62.5446400973
 21
195.7111682173
  0
LINE
  5
21E
100
AcDbEntity
  8
0
100
AcDbLine
 62
7
  6
BYLAYER
 10
78.0501251209
 20
204.6632107331
 11
78.100924516
 21
204.6925396024
  0
LINE
  5
21F
100
AcDbEntity
  8
0
100
AcDbLine
 62
7
  6
BYLAYER
 10
68.2945852718
 20
198.2047761634
 11
75.5070444114
 21
202.3688665329
  0
LINE
  5
220
100
AcDbEntity
  8
0
100
AcDbLine
 62
7
  6
BYLAYER
 10
62.5151860278
 20
194.7293470028
 11
62.8580052564
 21
194.9272725952
  0
LINE
  5
221
100
AcDbEntity
  8
0
100
AcDbLine
 62
7
  6
BYLAYER
 10
63.8516097671
 20
195.5009270027
 11
64.1944289957
 21
195.6988525951
  0
LINE
  5
222
100
AcDbEntity
  8
0
100
AcDbLine
 62
7
  6
BYLAYER
 10
78.0714704465
 20
203.7107183879
 11
78.4142896751
 21
203.9086439804
  0
LINE
  5
223
100
AcDbEntity
  8
0
100
AcDbLine
 62
7
  6
BYLAYER
 10
79.4078941858
 20
204.4822983879
 11
79.7507134144
 21
204.6802239803
  0
LINE
  5
224
100
AcDbEntity
  8
0
100
AcDbLine
 62
7
  6
BYLAYER
 10
80.1550680951
 20
204.4467749779
 11
79.8122488665
 21
204.2488493854
  0
LINE
  5
225
100
AcDbEntity
  8
0
100
AcDbLine
 62
7
  6
BYLAYER
 10
78.8186443559
 20
203.675194978
 11
78.4758251273
 21
203.4772693855
  0
LINE
  5
226
100
AcDbEntity
  8
0
100
AcDbLine
 62
7
  6
BYLAYER
 10
64.5987836764
 20
195.4654035927
 11
64.2559644478
 21
195.2674780002
  0
LINE
  5
227
100
AcDbEntity
  8
0
100
AcDbLine
 62
7
  6
BYLAYER
 10
63.2623599372
 20
194.6938235928
 11
62.9195407085
 21
194.4958980003
  0
LINE
  5
228
100
AcDbEntity
  8
0
100
AcDbLine
 62
7
  6
BYLAYER
 10
79.6902112523
 20
203.8313120627
 11
79.4138547371
 21
203.6717585066
  0
LINE
  5
229
100
AcDbEntity
  8
0
100
AcDbLine
 62
7
  6
BYLAYER
 10
64.1339268336
 20
194.8499406775
 11
63.8575703184
 21
194.6903871214
  0
LINE
  5
22A
100
AcDbEntity
  8
0
100
AcDbLine
 62
7
  6
BYLAYER
 10
80.1337363292
 20
203.5189217057
 11
80.0829369341
 21
203.4895928363
  0
LINE
  5
22B
100
AcDbEntity
  8
0
100
AcDbLine
 62
7
  6
BYLAYER
 10
64.5774519105
 20
194.5375503205
 11
64.5266525154
 21
194.5082214511
  0
LINE
  5
22C
100
AcDbEntity
  8
0
100
AcDbLine
 62
7
  6
BYLAYER
 10
63.821815213
 20
193.6220402264
 11
65.8550914588
 21
194.795945807
  0
LINE
  5
22D
100
AcDbEntity
  8
0
100
AcDbLine
 62
7
  6
BYLAYER
 10
81.4113758775
 20
203.7773171922
 11
83.4446521233
 21
204.9512227727
  0
LINE
  5
22E
100
AcDbEntity
  8
0
100
AcDbLine
 62
7
  6
BYLAYER
 10
84.3813490765
 20
25.4912299397
 11
83.2464075508
 21
26.1464739115
  0
LINE
  5
22F
100
AcDbEntity
  8
0
100
AcDbLine
 62
7
  6
BYLAYER
 10
63.5875289205
 20
34.3096474251
 11
63.5079542855
 21
34.3622681457
  0
LINE
  5
230
100
AcDbEntity
  8
0
100
AcDbLine
 62
7
  6
BYLAYER
 10
94.2788636901
 20
199.2039422752
 11
94.2874650712
 21
199.2089082552
  0
LINE
  5
231
100
AcDbEntity
  8
0
100
AcDbLine
 62
7
  6
BYLAYER
 10
94.2788684005
 20
198.5507543485
 11
92.3715766173
 21
197.4495854971
  0
LINE
  5
232
100
AcDbEntity
  8
0
100
AcDbLine
 62
7
  6
BYLAYER
 10
76.8152921986
 20
188.4682141119
 11
74.9003418623
 21
187.3626236193
  0
LINE
  5
233
100
AcDbEntity
  8
0
100
AcDbLine
 62
7
  6
BYLAYER
 10
74.9003418623
 20
184.9131163679
 11
76.7350046956
 21
185.9723531258
  0
LINE
  5
234
100
AcDbEntity
  8
0
100
AcDbLine
 62
7
  6
BYLAYER
 10
78.0502546554
 20
186.7005427485
 11
78.1010540505
 21
186.7298716178
  0
LINE
  5
235
100
AcDbEntity
  8
0
100
AcDbLine
 62
7
  6
BYLAYER
 10
93.6065390741
 20
195.6606036414
 11
93.6573384692
 21
195.6899325108
  0
LINE
  5
236
100
AcDbEntity
  8
0
100
AcDbLine
 62
7
  6
BYLAYER
 10
78.0715999811
 20
185.7480504033
 11
78.4144192097
 21
185.9459759958
  0
LINE
  5
237
100
AcDbEntity
  8
0
100
AcDbLine
 62
7
  6
BYLAYER
 10
79.4080237203
 20
186.5196304032
 11
79.7508429489
 21
186.7175559957
  0
LINE
  5
238
100
AcDbEntity
  8
0
100
AcDbLine
 62
7
  6
BYLAYER
 10
93.6278843998
 20
194.7081112963
 11
93.9707036284
 21
194.9060368887
  0
LINE
  5
239
100
AcDbEntity
  8
0
100
AcDbLine
 62
7
  6
BYLAYER
 10
94.964308139
 20
195.4796912962
 11
95.3071273676
 21
195.6776168886
  0
LINE
  5
23A
100
AcDbEntity
  8
0
100
AcDbLine
 62
7
  6
BYLAYER
 10
80.1551976297
 20
186.4841069932
 11
79.8123784011
 21
186.2861814008
  0
LINE
  5
23B
100
AcDbEntity
  8
0
100
AcDbLine
 62
7
  6
BYLAYER
 10
78.8187738904
 20
185.7125269933
 11
78.4759546618
 21
185.5146014009
  0
LINE
  5
23C
100
AcDbEntity
  8
0
100
AcDbLine
 62
7
  6
BYLAYER
 10
95.7114820484
 20
195.4441678862
 11
95.3686628198
 21
195.2462422937
  0
LINE
  5
23D
100
AcDbEntity
  8
0
100
AcDbLine
 62
7
  6
BYLAYER
 10
94.3750583091
 20
194.6725878863
 11
94.0322390805
 21
194.4746622938
  0
LINE
  5
23E
100
AcDbEntity
  8
0
100
AcDbLine
 62
7
  6
BYLAYER
 10
79.6903407869
 20
185.8686440781
 11
79.4139842716
 21
185.709090522
  0
LINE
  5
23F
100
AcDbEntity
  8
0
100
AcDbLine
 62
7
  6
BYLAYER
 10
95.2466252056
 20
194.8287049709
 11
94.9702686904
 21
194.6691514149
  0
LINE
  5
240
100
AcDbEntity
  8
0
100
AcDbLine
 62
7
  6
BYLAYER
 10
80.1338658637
 20
185.556253721
 11
80.0830664686
 21
185.5269248517
  0
LINE
  5
241
100
AcDbEntity
  8
0
100
AcDbLine
 62
7
  6
BYLAYER
 10
95.6901502824
 20
194.516314614
 11
95.6393508873
 21
194.4869857446
  0
LINE
  5
242
100
AcDbEntity
  8
0
100
AcDbLine
 62
7
  6
BYLAYER
 10
69.7657843966
 20
39.6668267582
 11
69.8681231184
 21
39.6103603201
  0
LINE
  5
243
100
AcDbEntity
  8
0
100
AcDbLine
 62
7
  6
BYLAYER
 10
69.7679812691
 20
39.668152693
 11
69.8699359354
 21
39.6114564664
  0
LINE
  5
244
100
AcDbEntity
  8
0
100
AcDbLine
 62
7
  6
BYLAYER
 10
95.3414632637
 20
192.4282093206
 11
85.5127199264
 21
186.7536155818
  0
LINE
  5
245
100
AcDbEntity
  8
0
100
AcDbLine
 62
7
  6
BYLAYER
 10
96.8072142927
 20
190.824948769
 11
95.3414632637
 21
189.9787020693
  0
LINE
  5
246
100
AcDbEntity
  8
0
100
AcDbLine
 62
7
  6
BYLAYER
 10
84.0469688974
 20
183.4578616307
 11
85.5127199265
 21
184.3041083304
  0
LINE
  5
247
100
AcDbEntity
  8
0
100
AcDbLine
 62
7
  6
BYLAYER
 10
96.8072142927
 20
188.3754415176
 11
84.1837692491
 21
181.0873356277
  0
LINE
  5
248
100
AcDbEntity
  8
0
100
AcDbLine
 62
7
  6
BYLAYER
 10
84.2950686256
 20
180.8838093879
 11
97.0229376954
 21
188.2322041576
  0
LINE
  5
249
100
AcDbEntity
  8
0
100
AcDbLine
 62
7
  6
BYLAYER
 10
84.2950686256
 20
35.9546303474
 11
84.183769249
 21
36.0188876187
  0
LINE
  5
24A
100
AcDbEntity
  8
0
100
AcDbLine
 62
7
  6
BYLAYER
 10
62.7341758823
 20
191.5095329212
 11
62.7099509147
 21
191.4253851047
  0
LINE
  5
24B
100
AcDbEntity
  8
0
100
AcDbLine
 62
7
  6
BYLAYER
 10
62.66358428
 20
43.9369443596
 11
62.661226051
 21
43.9567381012
  0
LINE
  5
24C
100
AcDbEntity
  8
0
100
AcDbLine
 62
7
  6
BYLAYER
 10
60.3135947891
 20
46.3697589622
 11
60.3118833119
 21
46.4286488479
  0
LINE
  5
24D
100
AcDbEntity
  8
0
100
AcDbLine
 62
7
  6
BYLAYER
 10
60.3028330013
 20
46.3697589622
 11
60.3028330013
 21
37.442258014
  0
LINE
  5
24E
100
AcDbEntity
  8
0
100
AcDbLine
 62
7
  6
BYLAYER
 10
60.3099528884
 20
191.3746537596
 11
60.3099528884
 21
193.824161011
  0
LINE
  5
24F
100
AcDbEntity
  8
0
100
AcDbLine
 62
7
  6
BYLAYER
 10
60.3118744704
 20
46.4286488478
 11
60.3118744704
 21
191.3578278883
  0
LINE
  5
250
100
AcDbEntity
  8
0
100
AcDbLine
 62
7
  6
BYLAYER
 10
60.4758194075
 20
45.8615207981
 11
60.4758194074
 21
193.24020709
  0
LINE
  5
251
100
AcDbEntity
  8
0
100
AcDbLine
 62
7
  6
BYLAYER
 10
60.5674814841
 20
45.7084825356
 11
60.5674814841
 21
36.7269559472
  0
LINE
  5
252
100
AcDbEntity
  8
0
100
AcDbLine
 62
7
  6
BYLAYER
 10
60.5674814841
 20
190.6408171157
 11
60.5674814841
 21
193.0903243671
  0
LINE
  5
253
100
AcDbEntity
  8
0
100
AcDbLine
 62
7
  6
BYLAYER
 10
61.0569848521
 20
193.7365379359
 11
61.0569848521
 21
194.4169566168
  0
LINE
  5
254
100
AcDbEntity
  8
0
100
AcDbLine
 62
7
  6
BYLAYER
 10
60.309953158
 20
193.824161011
 11
60.3214125456
 21
193.6687598656
  0
LINE
  5
255
100
AcDbEntity
  8
0
100
AcDbLine
 62
7
  6
BYLAYER
 10
63.7836824254
 20
34.1795907377
 11
63.784665293
 21
31.7294305698
  0
LINE
  5
256
100
AcDbEntity
  8
0
100
AcDbLine
 62
7
  6
BYLAYER
 10
61.8445549004
 20
44.476726996
 11
61.8445549004
 21
35.4952004076
  0
LINE
  5
257
100
AcDbEntity
  8
0
100
AcDbLine
 62
7
  6
BYLAYER
 10
61.8445549004
 20
189.4090615761
 11
61.8445549004
 21
191.8585688275
  0
LINE
  5
258
100
AcDbEntity
  8
0
100
AcDbLine
 62
7
  6
BYLAYER
 10
61.9001127404
 20
189.3658508613
 11
61.9001127404
 21
44.4366718208
  0
LINE
  5
259
100
AcDbEntity
  8
0
100
AcDbLine
 62
7
  6
BYLAYER
 10
62.1648595441
 20
189.3128527625
 11
62.1648595441
 21
44.383673722
  0
LINE
  5
25A
100
AcDbEntity
  8
0
100
AcDbLine
 62
7
  6
BYLAYER
 10
62.2219382901
 20
191.7668374127
 11
62.2219382901
 21
189.3173301613
  0
LINE
  5
25B
100
AcDbEntity
  8
0
100
AcDbLine
 62
7
  6
BYLAYER
 10
62.2219382901
 20
44.3849955812
 11
62.2219382901
 21
35.4034689928
  0
LINE
  5
25C
100
AcDbEntity
  8
0
100
AcDbLine
 62
7
  6
BYLAYER
 10
62.4938407022
 20
195.4777181208
 11
62.4938407022
 21
195.6818393479
  0
LINE
  5
25D
100
AcDbEntity
  8
0
100
AcDbLine
 62
7
  6
BYLAYER
 10
62.5151860278
 20
194.5252257757
 11
62.5151860278
 21
194.7293470028
  0
LINE
  5
25E
100
AcDbEntity
  8
0
100
AcDbLine
 62
7
  6
BYLAYER
 10
62.5446400973
 20
195.7111682173
 11
62.5446400973
 21
195.4483905897
  0
LINE
  5
25F
100
AcDbEntity
  8
0
100
AcDbLine
 62
7
  6
BYLAYER
 10
62.6612223019
 20
43.9567381002
 11
62.6612223019
 21
188.8859171407
  0
LINE
  5
260
100
AcDbEntity
  8
0
100
AcDbLine
 62
7
  6
BYLAYER
 10
62.6883888392
 20
43.8926978104
 11
62.6883888392
 21
34.9872186066
  0
LINE
  5
261
100
AcDbEntity
  8
0
100
AcDbLine
 62
7
  6
BYLAYER
 10
62.6883888392
 20
188.9010797751
 11
62.6883888392
 21
191.3505870265
  0
LINE
  5
262
100
AcDbEntity
  8
0
100
AcDbLine
 62
7
  6
BYLAYER
 10
62.7241904137
 20
188.7901426034
 11
62.7241904137
 21
43.8609635629
  0
LINE
  5
263
100
AcDbEntity
  8
0
100
AcDbLine
 62
7
  6
BYLAYER
 10
62.7889752121
 20
191.1974536767
 11
62.7889752121
 21
188.7479464253
  0
LINE
  5
264
100
AcDbEntity
  8
0
100
AcDbLine
 62
7
  6
BYLAYER
 10
62.7889752121
 20
34.8340852568
 11
62.7889752121
 21
43.8156118452
  0
LINE
  5
265
100
AcDbEntity
  8
0
100
AcDbLine
 62
7
  6
BYLAYER
 10
62.8580052561
 20
194.927272595
 11
62.8580052561
 21
194.470627282
  0
LINE
  5
266
100
AcDbEntity
  8
0
100
AcDbLine
 62
7
  6
BYLAYER
 10
62.8981934879
 20
195.237235007
 11
62.8981934879
 21
195.7111690671
  0
LINE
  5
267
100
AcDbEntity
  8
0
100
AcDbLine
 62
7
  6
BYLAYER
 10
62.9800428706
 20
194.5308287314
 11
62.9800428706
 21
195.0973739109
  0
LINE
  5
268
100
AcDbEntity
  8
0
100
AcDbLine
 62
7
  6
BYLAYER
 10
63.2623541165
 20
195.5009255865
 11
63.2623541165
 21
194.6938235928
  0
LINE
  5
269
100
AcDbEntity
  8
0
100
AcDbLine
 62
7
  6
BYLAYER
 10
63.5875029932
 20
32.0330647002
 11
63.5875029932
 21
34.3096343661
  0
LINE
  5
26A
100
AcDbEntity
  8
0
100
AcDbLine
 62
7
  6
BYLAYER
 10
63.5875029932
 20
190.8459403714
 11
63.5875029932
 21
193.2954476228
  0
LINE
  5
26B
100
AcDbEntity
  8
0
100
AcDbLine
 62
7
  6
BYLAYER
 10
63.8516097675
 20
194.693825009
 11
63.8516097675
 21
195.5009270029
  0
LINE
  5
26C
100
AcDbEntity
  8
0
100
AcDbLine
 62
7
  6
BYLAYER
 10
63.85298108
 20
198.7967170457
 11
63.85298108
 21
196.3472097943
  0
LINE
  5
26D
100
AcDbEntity
  8
0
100
AcDbLine
 62
7
  6
BYLAYER
 10
63.8532820593
 20
192.9462005353
 11
63.8532820593
 21
188.0471860325
  0
LINE
  5
26E
100
AcDbEntity
  8
0
100
AcDbLine
 62
7
  6
BYLAYER
 10
63.8532819803
 20
43.1148515044
 11
63.8532819803
 21
31.6838176646
  0
LINE
  5
26F
100
AcDbEntity
  8
0
100
AcDbLine
 62
7
  6
BYLAYER
 10
64.0872980102
 20
196.1460947512
 11
64.0872980102
 21
198.4701236455
  0
LINE
  5
270
100
AcDbEntity
  8
0
100
AcDbLine
 62
7
  6
BYLAYER
 10
64.1339268336
 20
194.5308362225
 11
64.1339268336
 21
195.0973766845
  0
LINE
  5
271
100
AcDbEntity
  8
0
100
AcDbLine
 62
7
  6
BYLAYER
 10
64.1944289957
 20
195.6988525951
 11
64.1944289957
 21
195.2211776801
  0
LINE
  5
272
100
AcDbEntity
  8
0
100
AcDbLine
 62
7
  6
BYLAYER
 10
64.2559669014
 20
194.4778488523
 11
64.2559669014
 21
194.9272759553
  0
LINE
  5
273
100
AcDbEntity
  8
0
100
AcDbLine
 62
7
  6
BYLAYER
 10
64.5479823863
 20
195.4360736292
 11
64.5479823863
 21
195.698853445
  0
LINE
  5
274
100
AcDbEntity
  8
0
100
AcDbLine
 62
7
  6
BYLAYER
 10
64.5774504385
 20
194.7416715476
 11
64.5774504385
 21
194.5375503205
  0
LINE
  5
275
100
AcDbEntity
  8
0
100
AcDbLine
 62
7
  6
BYLAYER
 10
64.5987822044
 20
195.6695248198
 11
64.5987822044
 21
195.4654035927
  0
LINE
  5
276
100
AcDbEntity
  8
0
100
AcDbLine
 62
7
  6
BYLAYER
 10
65.855072323
 20
197.4495217593
 11
65.855072323
 21
195.1293728764
  0
LINE
  5
277
100
AcDbEntity
  8
0
100
AcDbLine
 62
7
  6
BYLAYER
 10
66.7389438764
 20
198.77631186
 11
66.7389438764
 21
199.1029058234
  0
LINE
  5
278
100
AcDbEntity
  8
0
100
AcDbLine
 62
7
  6
BYLAYER
 10
67.5874684811
 20
199.592798808
 11
67.5874684811
 21
198.2864283935
  0
LINE
  5
279
100
AcDbEntity
  8
0
100
AcDbLine
 62
7
  6
BYLAYER
 10
63.7845637327
 20
192.9918809593
 11
63.7836824253
 21
190.5429591577
  0
LINE
  5
27A
100
AcDbEntity
  8
0
100
AcDbLine
 62
7
  6
BYLAYER
 10
63.5879978116
 20
193.3113718144
 11
63.5876032126
 21
193.2954477271
  0
LINE
  5
27B
100
AcDbEntity
  8
0
100
AcDbLine
 62
7
  6
BYLAYER
 10
78.4284996674
 20
180.570451984
 11
78.4205935936
 21
180.5208558987
  0
LINE
  5
27C
100
AcDbEntity
  8
0
100
AcDbLine
 62
7
  6
BYLAYER
 10
78.4205935936
 20
180.5208558987
 11
78.415996388
 21
180.4933029601
  0
LINE
  5
27D
100
AcDbEntity
  8
0
100
AcDbLine
 62
7
  6
BYLAYER
 10
67.704624591
 20
198.2187898121
 11
67.704624591
 21
199.7560960713
  0
LINE
  5
27E
100
AcDbEntity
  8
0
100
AcDbLine
 62
7
  6
BYLAYER
 10
71.6422138237
 20
200.1375188721
 11
71.6422138237
 21
203.3894633785
  0
LINE
  5
27F
100
AcDbEntity
  8
0
100
AcDbLine
 62
7
  6
BYLAYER
 10
71.7593722888
 20
200.2051599397
 11
71.7593722888
 21
203.2261666784
  0
LINE
  5
280
100
AcDbEntity
  8
0
100
AcDbLine
 62
7
  6
BYLAYER
 10
72.8200368765
 20
202.6138055467
 11
72.8200368765
 21
200.8175312696
  0
LINE
  5
281
100
AcDbEntity
  8
0
100
AcDbLine
 62
7
  6
BYLAYER
 10
73.5018457027
 20
26.2395423578
 11
73.5018457027
 21
37.6705761976
  0
LINE
  5
282
100
AcDbEntity
  8
0
100
AcDbLine
 62
7
  6
BYLAYER
 10
73.5092962943
 20
182.5990567447
 11
73.5092962943
 21
187.4980712475
  0
LINE
  5
283
100
AcDbEntity
  8
0
100
AcDbLine
 62
7
  6
BYLAYER
 10
73.7680281845
 20
26.0996936384
 11
73.7680281845
 21
28.5492008898
  0
LINE
  5
284
100
AcDbEntity
  8
0
100
AcDbLine
 62
7
  6
BYLAYER
 10
73.7766295655
 20
28.5492008898
 11
73.7766295655
 21
26.1046596184
  0
LINE
  5
285
100
AcDbEntity
  8
0
100
AcDbLine
 62
7
  6
BYLAYER
 10
73.7997324042
 20
184.8962711163
 11
73.7997324042
 21
187.3457783677
  0
LINE
  5
286
100
AcDbEntity
  8
0
100
AcDbLine
 62
7
  6
BYLAYER
 10
73.951403016
 20
203.2669961929
 11
73.951403016
 21
201.4707219158
  0
LINE
  5
287
100
AcDbEntity
  8
0
100
AcDbLine
 62
7
  6
BYLAYER
 10
78.4309594888
 20
183.0001342205
 11
78.4298529255
 21
182.9830116862
  0
LINE
  5
288
100
AcDbEntity
  8
0
100
AcDbLine
 62
7
  6
BYLAYER
 10
84.1711267424
 20
183.095647337
 11
84.1837357658
 21
183.1824428186
  0
LINE
  5
289
100
AcDbEntity
  8
0
100
AcDbLine
 62
7
  6
BYLAYER
 10
62.661226051
 20
188.8859171417
 11
62.66358428
 21
188.8661234001
  0
LINE
  5
28A
100
AcDbEntity
  8
0
100
AcDbLine
 62
7
  6
BYLAYER
 10
74.517088441
 20
201.7973185986
 11
74.517088441
 21
203.2669975526
  0
LINE
  5
28B
100
AcDbEntity
  8
0
100
AcDbLine
 62
7
  6
BYLAYER
 10
74.9003418623
 20
184.9131163679
 11
74.9003418623
 21
187.3626236193
  0
LINE
  5
28C
100
AcDbEntity
  8
0
100
AcDbLine
 62
7
  6
BYLAYER
 10
74.9080004154
 20
26.1046623379
 11
74.9080004154
 21
27.9789848896
  0
LINE
  5
28D
100
AcDbEntity
  8
0
100
AcDbLine
 62
7
  6
BYLAYER
 10
75.5070420562
 20
202.6954604963
 11
75.5070420562
 21
202.3688665329
  0
LINE
  5
28E
100
AcDbEntity
  8
0
100
AcDbLine
 62
7
  6
BYLAYER
 10
75.9417729386
 20
20.5716322458
 11
75.9417729386
 21
24.538857388
  0
LINE
  5
28F
100
AcDbEntity
  8
0
100
AcDbLine
 62
7
  6
BYLAYER
 10
76.6133988053
 20
184.7552413365
 11
76.6133988053
 21
185.4356600174
  0
LINE
  5
290
100
AcDbEntity
  8
0
100
AcDbLine
 62
7
  6
BYLAYER
 10
76.7162485313
 20
183.5209869691
 11
76.7162485313
 21
181.0714797177
  0
LINE
  5
291
100
AcDbEntity
  8
0
100
AcDbLine
 62
7
  6
BYLAYER
 10
76.7162485313
 20
36.1391451377
 11
76.7162485313
 21
27.1576185492
  0
LINE
  5
292
100
AcDbEntity
  8
0
100
AcDbLine
 62
7
  6
BYLAYER
 10
76.8152921986
 20
188.4682141119
 11
76.8152921986
 21
186.1477375568
  0
LINE
  5
293
100
AcDbEntity
  8
0
100
AcDbLine
 62
7
  6
BYLAYER
 10
77.2101534912
 20
26.9522954965
 11
77.2101534912
 21
35.9338220849
  0
LINE
  5
294
100
AcDbEntity
  8
0
100
AcDbLine
 62
7
  6
BYLAYER
 10
77.2101534912
 20
180.866156665
 11
77.2101534912
 21
183.3156639164
  0
LINE
  5
295
100
AcDbEntity
  8
0
100
AcDbLine
 62
7
  6
BYLAYER
 10
77.3503968059
 20
26.8960786376
 11
77.3503968059
 21
35.877605226
  0
LINE
  5
296
100
AcDbEntity
  8
0
100
AcDbLine
 62
7
  6
BYLAYER
 10
77.3503968059
 20
180.8099398061
 11
77.3503968059
 21
183.2594470575
  0
LINE
  5
297
100
AcDbEntity
  8
0
100
AcDbLine
 62
7
  6
BYLAYER
 10
77.4285237398
 20
180.7790212816
 11
77.4285237398
 21
35.8498422411
  0
LINE
  5
298
100
AcDbEntity
  8
0
100
AcDbLine
 62
7
  6
BYLAYER
 10
77.7156579369
 20
180.7811770632
 11
77.7156579369
 21
35.8519980227
  0
LINE
  5
299
100
AcDbEntity
  8
0
100
AcDbLine
 62
7
  6
BYLAYER
 10
77.7677430302
 20
35.8647387962
 11
77.7677430302
 21
26.8832122077
  0
LINE
  5
29A
100
AcDbEntity
  8
0
100
AcDbLine
 62
7
  6
BYLAYER
 10
77.7677430303
 20
180.7970733762
 11
77.7677430303
 21
183.2465806276
  0
LINE
  5
29B
100
AcDbEntity
  8
0
100
AcDbLine
 62
7
  6
BYLAYER
 10
78.0501251209
 20
204.459089506
 11
78.0501251209
 21
204.6632107331
  0
LINE
  5
29C
100
AcDbEntity
  8
0
100
AcDbLine
 62
7
  6
BYLAYER
 10
78.0502546554
 20
186.4964215214
 11
78.0502546554
 21
186.7005427485
  0
LINE
  5
29D
100
AcDbEntity
  8
0
100
AcDbLine
 62
7
  6
BYLAYER
 10
78.0714704465
 20
203.5065971608
 11
78.0714704465
 21
203.7107183879
  0
LINE
  5
29E
100
AcDbEntity
  8
0
100
AcDbLine
 62
7
  6
BYLAYER
 10
78.0715999811
 20
185.5439291762
 11
78.0715999811
 21
185.7480504033
  0
LINE
  5
29F
100
AcDbEntity
  8
0
100
AcDbLine
 62
7
  6
BYLAYER
 10
78.100924516
 20
204.6925396024
 11
78.100924516
 21
204.4297619749
  0
LINE
  5
2A0
100
AcDbEntity
  8
0
100
AcDbLine
 62
7
  6
BYLAYER
 10
78.1010540505
 20
186.7298716178
 11
78.1010540505
 21
186.4670939902
  0
LINE
  5
2A1
100
AcDbEntity
  8
0
100
AcDbLine
 62
7
  6
BYLAYER
 10
78.4142896748
 20
203.9086439802
 11
78.4142896748
 21
203.4519986671
  0
LINE
  5
2A2
100
AcDbEntity
  8
0
100
AcDbLine
 62
7
  6
BYLAYER
 10
78.4144192093
 20
185.9459759956
 11
78.4144192093
 21
185.4893306825
  0
LINE
  5
2A3
100
AcDbEntity
  8
0
100
AcDbLine
 62
7
  6
BYLAYER
 10
78.4159962049
 20
35.5641239196
 11
78.4159962049
 21
180.4933029601
  0
LINE
  5
2A4
100
AcDbEntity
  8
0
100
AcDbLine
 62
7
  6
BYLAYER
 10
78.4297208049
 20
35.5053097287
 11
78.4297208049
 21
26.6187819042
  0
LINE
  5
2A5
100
AcDbEntity
  8
0
100
AcDbLine
 62
7
  6
BYLAYER
 10
78.429846282
 20
180.5335044358
 11
78.429846282
 21
182.9830116871
  0
LINE
  5
2A6
100
AcDbEntity
  8
0
100
AcDbLine
 62
7
  6
BYLAYER
 10
78.4544779066
 20
204.2186063921
 11
78.4544779066
 21
204.6925404523
  0
LINE
  5
2A7
100
AcDbEntity
  8
0
100
AcDbLine
 62
7
  6
BYLAYER
 10
78.4546074411
 20
186.2559384075
 11
78.4546074411
 21
186.7298724677
  0
LINE
  5
2A8
100
AcDbEntity
  8
0
100
AcDbLine
 62
7
  6
BYLAYER
 10
78.5363272893
 20
203.5122001166
 11
78.5363272893
 21
204.0787452961
  0
LINE
  5
2A9
100
AcDbEntity
  8
0
100
AcDbLine
 62
7
  6
BYLAYER
 10
78.5364568239
 20
185.5495321319
 11
78.5364568239
 21
186.1160773115
  0
LINE
  5
2AA
100
AcDbEntity
  8
0
100
AcDbLine
 62
7
  6
BYLAYER
 10
78.5376056449
 20
180.3694555427
 11
78.5376056449
 21
35.4402765022
  0
LINE
  5
2AB
100
AcDbEntity
  8
0
100
AcDbLine
 62
7
  6
BYLAYER
 10
78.5760933936
 20
35.4238519884
 11
78.5760933936
 21
26.4423254
  0
LINE
  5
2AC
100
AcDbEntity
  8
0
100
AcDbLine
 62
7
  6
BYLAYER
 10
78.5760933936
 20
180.3561865685
 11
78.5760933936
 21
182.8056938199
  0
LINE
  5
2AD
100
AcDbEntity
  8
0
100
AcDbLine
 62
7
  6
BYLAYER
 10
78.8186385352
 20
204.4822969716
 11
78.8186385352
 21
203.675194978
  0
LINE
  5
2AE
100
AcDbEntity
  8
0
100
AcDbLine
 62
7
  6
BYLAYER
 10
78.8187680698
 20
186.519628987
 11
78.8187680698
 21
185.7125269933
  0
LINE
  5
2AF
100
AcDbEntity
  8
0
100
AcDbLine
 62
7
  6
BYLAYER
 10
79.4078941862
 20
203.6751963942
 11
79.4078941862
 21
204.4822983881
  0
LINE
  5
2B0
100
AcDbEntity
  8
0
100
AcDbLine
 62
7
  6
BYLAYER
 10
79.4080237207
 20
185.7125284096
 11
79.4080237207
 21
186.5196304034
  0
LINE
  5
2B1
100
AcDbEntity
  8
0
100
AcDbLine
 62
7
  6
BYLAYER
 10
79.6902112523
 20
203.5122076077
 11
79.6902112523
 21
204.0787480697
  0
LINE
  5
2B2
100
AcDbEntity
  8
0
100
AcDbLine
 62
7
  6
BYLAYER
 10
79.6903407869
 20
185.549539623
 11
79.6903407869
 21
186.1160800851
  0
LINE
  5
2B3
100
AcDbEntity
  8
0
100
AcDbLine
 62
7
  6
BYLAYER
 10
79.7507134144
 20
204.6802239803
 11
79.7507134144
 21
204.2025490653
  0
LINE
  5
2B4
100
AcDbEntity
  8
0
100
AcDbLine
 62
7
  6
BYLAYER
 10
79.7508429489
 20
186.7175559957
 11
79.7508429489
 21
186.2398810807
  0
LINE
  5
2B5
100
AcDbEntity
  8
0
100
AcDbLine
 62
7
  6
BYLAYER
 10
79.8122513201
 20
203.4592202374
 11
79.8122513201
 21
203.9086473405
  0
LINE
  5
2B6
100
AcDbEntity
  8
0
100
AcDbLine
 62
7
  6
BYLAYER
 10
79.8123808547
 20
185.4965522528
 11
79.8123808547
 21
185.9459793559
  0
LINE
  5
2B7
100
AcDbEntity
  8
0
100
AcDbLine
 62
7
  6
BYLAYER
 10
79.9941276015
 20
35.0304985582
 11
79.9941276015
 21
26.0489719698
  0
LINE
  5
2B8
100
AcDbEntity
  8
0
100
AcDbLine
 62
7
  6
BYLAYER
 10
79.9941276015
 20
179.9628331383
 11
79.9941276015
 21
182.4123403897
  0
LINE
  5
2B9
100
AcDbEntity
  8
0
100
AcDbLine
 62
7
  6
BYLAYER
 10
80.104266805
 20
204.4174450144
 11
80.104266805
 21
204.6802248302
  0
LINE
  5
2BA
100
AcDbEntity
  8
0
100
AcDbLine
 62
7
  6
BYLAYER
 10
80.1043963395
 20
186.4547770298
 11
80.1043963395
 21
186.7175568455
  0
LINE
  5
2BB
100
AcDbEntity
  8
0
100
AcDbLine
 62
7
  6
BYLAYER
 10
80.1337348572
 20
203.7230429328
 11
80.1337348572
 21
203.5189217057
  0
LINE
  5
2BC
100
AcDbEntity
  8
0
100
AcDbLine
 62
7
  6
BYLAYER
 10
80.1338643917
 20
185.7603749481
 11
80.1338643917
 21
185.556253721
  0
LINE
  5
2BD
100
AcDbEntity
  8
0
100
AcDbLine
 62
7
  6
BYLAYER
 10
80.1550666232
 20
204.650896205
 11
80.1550666232
 21
204.4467749779
  0
LINE
  5
2BE
100
AcDbEntity
  8
0
100
AcDbLine
 62
7
  6
BYLAYER
 10
80.1551961577
 20
186.6882282203
 11
80.1551961577
 21
186.4841069932
  0
LINE
  5
2BF
100
AcDbEntity
  8
0
100
AcDbLine
 62
7
  6
BYLAYER
 10
78.4318706389
 20
183.0176251329
 11
78.4309594888
 21
183.0001342205
  0
LINE
  5
2C0
100
AcDbEntity
  8
0
100
AcDbLine
 62
7
  6
BYLAYER
 10
84.1837357658
 20
180.7329355673
 11
84.1711267424
 21
180.6461400856
  0
LINE
  5
2C1
100
AcDbEntity
  8
0
100
AcDbLine
 62
7
  6
BYLAYER
 10
81.2387873135
 20
182.2401362773
 11
81.2387873135
 21
179.790629026
  0
LINE
  5
2C2
100
AcDbEntity
  8
0
100
AcDbLine
 62
7
  6
BYLAYER
 10
81.2387873135
 20
34.8582944459
 11
81.2387873135
 21
25.8767678575
  0
LINE
  5
2C3
100
AcDbEntity
  8
0
100
AcDbLine
 62
7
  6
BYLAYER
 10
81.4114862763
 20
186.148076277
 11
81.4114862763
 21
188.4682251598
  0
LINE
  5
2C4
100
AcDbEntity
  8
0
100
AcDbLine
 62
7
  6
BYLAYER
 10
81.6133988053
 20
184.7552413365
 11
81.6133988053
 21
185.4356600174
  0
LINE
  5
2C5
100
AcDbEntity
  8
0
100
AcDbLine
 62
7
  6
BYLAYER
 10
81.8898593668
 20
179.7856746404
 11
81.8898593668
 21
34.8564955999
  0
LINE
  5
2C6
100
AcDbEntity
  8
0
100
AcDbLine
 62
7
  6
BYLAYER
 10
82.5269070463
 20
182.3129383362
 11
82.5269070463
 21
179.8634310848
  0
LINE
  5
2C7
100
AcDbEntity
  8
0
100
AcDbLine
 62
7
  6
BYLAYER
 10
82.5269070463
 20
34.9310965047
 11
82.5269070463
 21
25.9495699163
  0
LINE
  5
2C8
100
AcDbEntity
  8
0
100
AcDbLine
 62
7
  6
BYLAYER
 10
83.8472814672
 20
182.7772453113
 11
83.8472814672
 21
180.3277380599
  0
LINE
  5
2C9
100
AcDbEntity
  8
0
100
AcDbLine
 62
7
  6
BYLAYER
 10
83.8472814673
 20
35.3954034798
 11
83.8472814673
 21
26.4138768914
  0
LINE
  5
2CA
100
AcDbEntity
  8
0
100
AcDbLine
 62
7
  6
BYLAYER
 10
83.9957694033
 20
180.4150721449
 11
83.9957694033
 21
35.4858931044
  0
LINE
  5
2CB
100
AcDbEntity
  8
0
100
AcDbLine
 62
7
  6
BYLAYER
 10
84.1837692491
 20
35.8006009705
 11
84.1837692491
 21
26.8190743821
  0
LINE
  5
2CC
100
AcDbEntity
  8
0
100
AcDbLine
 62
7
  6
BYLAYER
 10
84.183769249
 20
35.8037565101
 11
84.1837692491
 21
183.1824428019
  0
LINE
  5
2CD
100
AcDbEntity
  8
0
100
AcDbLine
 62
7
  6
BYLAYER
 10
84.2950686256
 20
180.8838093879
 11
84.2950686256
 21
35.9546303474
  0
LINE
  5
2CE
100
AcDbEntity
  8
0
100
AcDbLine
 62
7
  6
BYLAYER
 10
84.3813490766
 20
186.7536128623
 11
84.3813490766
 21
184.304105611
  0
LINE
  5
2CF
100
AcDbEntity
  8
0
100
AcDbLine
 62
7
  6
BYLAYER
 10
84.3813490765
 20
27.2875465448
 11
84.3813490765
 21
25.4912299397
  0
LINE
  5
2D0
100
AcDbEntity
  8
0
100
AcDbLine
 62
7
  6
BYLAYER
 10
85.5127199264
 20
25.4912326592
 11
85.5127199264
 21
27.9407399106
  0
LINE
  5
2D1
100
AcDbEntity
  8
0
100
AcDbLine
 62
7
  6
BYLAYER
 10
85.5127199264
 20
184.3041083304
 11
85.5127199264
 21
186.7536155818
  0
LINE
  5
2D2
100
AcDbEntity
  8
0
100
AcDbLine
 62
7
  6
BYLAYER
 10
87.9417729386
 20
20.5716322458
 11
87.9417729386
 21
24.5387654218
  0
LINE
  5
2D3
100
AcDbEntity
  8
0
100
AcDbLine
 62
7
  6
BYLAYER
 10
92.3715766173
 20
195.1077984496
 11
92.3715766173
 21
197.4495854971
  0
LINE
  5
2D4
100
AcDbEntity
  8
0
100
AcDbLine
 62
7
  6
BYLAYER
 10
93.6065390741
 20
195.4564824143
 11
93.6065390741
 21
195.6606036414
  0
LINE
  5
2D5
100
AcDbEntity
  8
0
100
AcDbLine
 62
7
  6
BYLAYER
 10
93.6278843998
 20
194.5039900692
 11
93.6278843998
 21
194.7081112963
  0
LINE
  5
2D6
100
AcDbEntity
  8
0
100
AcDbLine
 62
7
  6
BYLAYER
 10
93.6573384692
 20
195.6899325108
 11
93.6573384692
 21
195.4271548832
  0
LINE
  5
2D7
100
AcDbEntity
  8
0
100
AcDbLine
 62
7
  6
BYLAYER
 10
93.970703628
 20
194.9060368885
 11
93.970703628
 21
194.4493915755
  0
LINE
  5
2D8
100
AcDbEntity
  8
0
100
AcDbLine
 62
7
  6
BYLAYER
 10
94.0108918598
 20
195.2159993005
 11
94.0108918598
 21
195.6899333606
  0
LINE
  5
2D9
100
AcDbEntity
  8
0
100
AcDbLine
 62
7
  6
BYLAYER
 10
94.0927412426
 20
194.5095930249
 11
94.0927412426
 21
195.0761382044
  0
LINE
  5
2DA
100
AcDbEntity
  8
0
100
AcDbLine
 62
7
  6
BYLAYER
 10
94.2788684005
 20
198.5507543485
 11
94.2788684005
 21
196.1519531014
  0
LINE
  5
2DB
100
AcDbEntity
  8
0
100
AcDbLine
 62
7
  6
BYLAYER
 10
94.2874650711
 20
199.2089082552
 11
94.2874650711
 21
199.2039422752
  0
LINE
  5
2DC
100
AcDbEntity
  8
0
100
AcDbLine
 62
7
  6
BYLAYER
 10
94.3750524885
 20
195.47968988
 11
94.3750524885
 21
194.6725878863
  0
LINE
  5
2DD
100
AcDbEntity
  8
0
100
AcDbLine
 62
7
  6
BYLAYER
 10
94.5131806204
 20
196.4278416237
 11
94.5131806204
 21
198.877348875
  0
LINE
  5
2DE
100
AcDbEntity
  8
0
100
AcDbLine
 62
7
  6
BYLAYER
 10
94.9643081394
 20
194.6725893025
 11
94.9643081394
 21
195.4796912964
  0
LINE
  5
2DF
100
AcDbEntity
  8
0
100
AcDbLine
 62
7
  6
BYLAYER
 10
95.2000424963
 20
33.5336848186
 11
95.2000424963
 21
31.0841775672
  0
LINE
  5
2E0
100
AcDbEntity
  8
0
100
AcDbLine
 62
7
  6
BYLAYER
 10
95.2466252056
 20
194.509600516
 11
95.2466252056
 21
195.076140978
  0
LINE
  5
2E1
100
AcDbEntity
  8
0
100
AcDbLine
 62
7
  6
BYLAYER
 10
95.3071273676
 20
195.6776168886
 11
95.3071273676
 21
195.1999419736
  0
LINE
  5
2E2
100
AcDbEntity
  8
0
100
AcDbLine
 62
7
  6
BYLAYER
 10
95.3414632637
 20
192.4282093206
 11
95.3414632637
 21
189.9787020693
  0
LINE
  5
2E3
100
AcDbEntity
  8
0
100
AcDbLine
 62
7
  6
BYLAYER
 10
95.3686652734
 20
194.4566131458
 11
95.3686652734
 21
194.9060402488
  0
LINE
  5
2E4
100
AcDbEntity
  8
0
100
AcDbLine
 62
7
  6
BYLAYER
 10
95.4929327711
 20
33.7027840882
 11
95.4929327711
 21
31.4924207254
  0
LINE
  5
2E5
100
AcDbEntity
  8
0
100
AcDbLine
 62
7
  6
BYLAYER
 10
95.5757754835
 20
192.7548038473
 11
95.5757754835
 21
190.3052965959
  0
LINE
  5
2E6
100
AcDbEntity
  8
0
100
AcDbLine
 62
7
  6
BYLAYER
 10
95.6606807582
 20
195.4148379227
 11
95.6606807582
 21
195.6776177385
  0
LINE
  5
2E7
100
AcDbEntity
  8
0
100
AcDbLine
 62
7
  6
BYLAYER
 10
95.6901488104
 20
194.7204358411
 11
95.6901488104
 21
194.516314614
  0
LINE
  5
2E8
100
AcDbEntity
  8
0
100
AcDbLine
 62
7
  6
BYLAYER
 10
95.7114805764
 20
195.6482891133
 11
95.7114805764
 21
195.4441678862
  0
LINE
  5
2E9
100
AcDbEntity
  8
0
100
AcDbLine
 62
7
  6
BYLAYER
 10
96.8072142927
 20
190.824948769
 11
96.8072142927
 21
188.3754415176
  0
LINE
  5
2EA
100
AcDbEntity
  8
0
100
AcDbLine
 62
7
  6
BYLAYER
 10
96.8072142927
 20
43.178477896
 11
96.8072142927
 21
34.4615803491
  0
LINE
  5
2EB
100
AcDbEntity
  8
0
100
AcDbLine
 62
7
  6
BYLAYER
 10
97.0229376954
 20
43.3030251171
 11
97.0229376954
 21
188.2322041576
  0
LINE
  5
2EC
100
AcDbEntity
  8
0
100
AcDbLine
 62
7
  6
BYLAYER
 10
97.169683224
 20
193.7153022293
 11
97.169683224
 21
194.3957209103
  0
LINE
  5
2ED
100
AcDbEntity
  8
0
100
AcDbLine
 62
7
  6
BYLAYER
 10
97.1731166706
 20
194.4502114459
 11
97.1731166706
 21
194.2209162087
  0
LINE
  5
2EE
100
AcDbEntity
  8
0
100
AcDbLine
 62
7
  6
BYLAYER
 10
97.2213836518
 20
194.1702066375
 11
97.2213836518
 21
194.5601854521
  0
LINE
  5
2EF
100
AcDbEntity
  8
0
100
AcDbLine
 62
7
  6
BYLAYER
 10
97.8348235301
 20
188.4050060769
 11
97.8348235301
 21
43.4758270364
  0
LINE
  5
2F0
100
AcDbEntity
  8
0
100
AcDbLine
 62
7
  6
BYLAYER
 10
97.9860915287
 20
34.5768739599
 11
97.9860915287
 21
43.5584005483
  0
LINE
  5
2F1
100
AcDbEntity
  8
0
100
AcDbLine
 62
7
  6
BYLAYER
 10
97.9860915287
 20
188.4907351284
 11
97.9860915287
 21
190.9402423797
  0
LINE
  5
2F2
100
AcDbEntity
  8
0
100
AcDbLine
 62
7
  6
BYLAYER
 10
98.7902953023
 20
35.3391854554
 11
98.7902953023
 21
44.3153598592
  0
LINE
  5
2F3
100
AcDbEntity
  8
0
100
AcDbLine
 62
7
  6
BYLAYER
 10
98.7902953023
 20
189.2530466239
 11
98.7902953023
 21
191.7025538753
  0
LINE
  5
2F4
100
AcDbEntity
  8
0
100
AcDbLine
 62
7
  6
BYLAYER
 10
98.9249700354
 20
189.6208416626
 11
98.9249700354
 21
44.6916626221
  0
LINE
  5
2F5
100
AcDbEntity
  8
0
100
AcDbLine
 62
7
  6
BYLAYER
 10
98.9389797714
 20
44.8541652003
 11
98.9389797714
 21
35.8726386119
  0
LINE
  5
2F6
100
AcDbEntity
  8
0
100
AcDbLine
 62
7
  6
BYLAYER
 10
98.9389797714
 20
189.7864997803
 11
98.9389797714
 21
192.2360070317
  0
LINE
  5
2F7
100
AcDbEntity
  8
0
100
AcDbLine
 62
7
  6
BYLAYER
 10
84.1711267424
 20
35.7138055055
 11
84.1837357658
 21
35.8006009872
  0
LINE
  5
2F8
100
AcDbEntity
  8
0
100
AcDbLine
 62
7
  6
BYLAYER
 10
84.1837357658
 20
26.8190743988
 11
84.1711267424
 21
26.7322789171
  0
LINE
  5
2F9
100
AcDbEntity
  8
0
100
AcDbLine
 62
7
  6
BYLAYER
 10
97.2213697603
 20
194.5601854522
 11
97.2208144126
 21
194.5725014891
  0
LINE
  5
2FA
100
AcDbEntity
  8
0
100
AcDbLine
 62
7
  6
BYLAYER
 10
64.9860578566
 20
187.35990156
 11
65.0298975877
 21
187.3330053257
  0
LINE
  5
2FB
100
AcDbEntity
  8
0
100
AcDbLine
 62
7
  6
BYLAYER
 10
62.7241904137
 20
188.7901426033
 11
62.7895343957
 21
188.7488309036
  0
LWPOLYLINE
  5
2FC
100
AcDbEntity
  8
0
100
AcDbPolyline
 62
7
  6
BYLAYER
 90
3
 70
0
 10
64.9862669414
 20
187.3600150925
 10
64.9993653137
 20
187.3517340541
 10
65.0303733459
 20
187.3332639529
  0
LINE
  5
2FD
100
AcDbEntity
  8
0
100
AcDbLine
 62
7
  6
BYLAYER
 10
62.7241904137
 20
188.7901426033
 11
62.788488307
 21
188.7482946981
  0
LINE
  5
2FE
100
AcDbEntity
  8
0
100
AcDbLine
 62
7
  6
BYLAYER
 10
76.9683807179
 20
180.9894153266
 11
77.4285237398
 21
180.7790212816
  0
LINE
  5
2FF
100
AcDbEntity
  8
0
100
AcDbLine
 62
7
  6
BYLAYER
 10
76.9728695517
 20
180.9926703431
 11
77.4285237398
 21
180.7790212816
  0
LINE
  5
300
100
AcDbEntity
  8
0
100
AcDbLine
 62
7
  6
BYLAYER
 10
84.1837692491
 20
180.9480666592
 11
84.2950686256
 21
180.8838093879
  0
LINE
  5
301
100
AcDbEntity
  8
0
100
AcDbLine
 62
7
  6
BYLAYER
 10
78.1224012712
 20
185.514600551
 11
78.071601453
 21
185.5439291762
  0
LINE
  5
302
100
AcDbEntity
  8
0
100
AcDbLine
 62
7
  6
BYLAYER
 10
62.565987318
 20
194.4958971505
 11
62.5151874998
 21
194.5252257757
  0
LINE
  5
303
100
AcDbEntity
  8
0
100
AcDbLine
 62
7
  6
BYLAYER
 10
78.8128133391
 20
185.709085688
 11
78.5364568239
 21
185.8686365869
  0
LINE
  5
304
100
AcDbEntity
  8
0
100
AcDbLine
 62
7
  6
BYLAYER
 10
63.2563993859
 20
194.6903822874
 11
62.9800428706
 21
194.8499331864
  0
LINE
  5
305
100
AcDbEntity
  8
0
100
AcDbLine
 62
7
  6
BYLAYER
 10
79.729513078
 20
185.5269240018
 11
79.4080295409
 21
185.7125284096
  0
LINE
  5
306
100
AcDbEntity
  8
0
100
AcDbLine
 62
7
  6
BYLAYER
 10
78.4144167561
 20
186.2861780407
 11
78.0502561274
 21
186.4964215214
  0
LINE
  5
307
100
AcDbEntity
  8
0
100
AcDbLine
 62
7
  6
BYLAYER
 10
64.1730991248
 20
194.5082206013
 11
63.8516155877
 21
194.693825009
  0
LINE
  5
308
100
AcDbEntity
  8
0
100
AcDbLine
 62
7
  6
BYLAYER
 10
62.8580028028
 20
195.2674746401
 11
62.4938421741
 21
195.4777181208
  0
LINE
  5
309
100
AcDbEntity
  8
0
100
AcDbLine
 62
7
  6
BYLAYER
 10
97.0229376954
 20
43.3030251171
 11
84.2950686256
 21
35.9546303474
  0
LINE
  5
30A
100
AcDbEntity
  8
0
100
AcDbLine
 62
7
  6
BYLAYER
 10
73.7766295655
 20
26.1046596184
 11
73.7680281845
 21
26.0996936384
  0
LINE
  5
30B
100
AcDbEntity
  8
0
100
AcDbLine
 62
7
  6
BYLAYER
 10
62.8981934879
 20
195.7111690671
 11
63.2623541165
 21
195.5009255865
  0
LINE
  5
30C
100
AcDbEntity
  8
0
100
AcDbLine
 62
7
  6
BYLAYER
 10
64.2559669015
 20
194.9272759553
 11
64.5774504385
 21
194.7416715476
  0
LINE
  5
30D
100
AcDbEntity
  8
0
100
AcDbLine
 62
7
  6
BYLAYER
 10
78.4546074411
 20
186.7298724677
 11
78.8187680697
 21
186.519628987
  0
LINE
  5
30E
100
AcDbEntity
  8
0
100
AcDbLine
 62
7
  6
BYLAYER
 10
79.8123808547
 20
185.9459793558
 11
80.1338643917
 21
185.7603749481
  0
LINE
  5
30F
100
AcDbEntity
  8
0
100
AcDbLine
 62
7
  6
BYLAYER
 10
64.5479823863
 20
195.698853445
 11
64.5987822044
 21
195.6695248198
  0
LINE
  5
310
100
AcDbEntity
  8
0
100
AcDbLine
 62
7
  6
BYLAYER
 10
80.1043963395
 20
186.7175568455
 11
80.1551961577
 21
186.6882282203
  0
LINE
  5
311
100
AcDbEntity
  8
0
100
AcDbLine
 62
7
  6
BYLAYER
 10
81.4911461674
 20
185.9727272893
 11
84.3813490766
 21
184.304105611
  0
LINE
  5
312
100
AcDbEntity
  8
0
100
AcDbLine
 62
7
  6
BYLAYER
 10
84.3813490766
 20
186.7536128623
 11
81.4114862763
 21
188.4682251598
  0
LINE
  5
313
100
AcDbEntity
  8
0
100
AcDbLine
 62
7
  6
BYLAYER
 10
65.855072323
 20
197.4495217593
 11
64.0872980102
 21
198.4701236455
  0
LINE
  5
314
100
AcDbEntity
  8
0
100
AcDbLine
 62
7
  6
BYLAYER
 10
66.7389462316
 20
198.77631186
 11
67.7288998468
 21
198.2047748037
  0
LINE
  5
315
100
AcDbEntity
  8
0
100
AcDbLine
 62
7
  6
BYLAYER
 10
66.8096454283
 20
200.3684576013
 11
67.5874661259
 21
199.9193927714
  0
LINE
  5
316
100
AcDbEntity
  8
0
100
AcDbLine
 62
7
  6
BYLAYER
 10
74.9080004154
 20
26.1046623379
 11
76.7201326083
 21
27.1508911021
  0
LINE
  5
317
100
AcDbEntity
  8
0
100
AcDbLine
 62
7
  6
BYLAYER
 10
96.8072142928
 20
34.4615803491
 11
95.2000424963
 21
33.5336848186
  0
LINE
  5
318
100
AcDbEntity
  8
0
100
AcDbLine
 62
7
  6
BYLAYER
 10
84.1837692491
 20
27.1734744592
 11
85.5127199264
 21
27.9407399106
  0
LINE
  5
319
100
AcDbEntity
  8
0
100
AcDbLine
 62
7
  6
BYLAYER
 10
95.2000424962
 20
31.0841775671
 11
85.5127199271
 21
25.4912326595
  0
LINE
  5
31A
100
AcDbEntity
  8
0
100
AcDbLine
 62
7
  6
BYLAYER
 10
97.0229376954
 20
188.2322041576
 11
96.7991204186
 21
188.3614221993
  0
LINE
  5
31B
100
AcDbEntity
  8
0
100
AcDbLine
 62
7
  6
BYLAYER
 10
72.8200368765
 20
202.6138055467
 11
71.7593722888
 21
203.2261666784
  0
LINE
  5
31C
100
AcDbEntity
  8
0
100
AcDbLine
 62
7
  6
BYLAYER
 10
75.5070420562
 20
202.6954604963
 11
74.517088441
 21
203.2669975526
  0
LINE
  5
31D
100
AcDbEntity
  8
0
100
AcDbLine
 62
7
  6
BYLAYER
 10
75.047407487
 20
204.7979080306
 11
76.8151817998
 21
203.7773061443
  0
LINE
  5
31E
100
AcDbEntity
  8
0
100
AcDbLine
 62
7
  6
BYLAYER
 10
92.3715957531
 20
194.7960095448
 11
95.3414585533
 21
193.0813972474
  0
LINE
  5
31F
100
AcDbEntity
  8
0
100
AcDbLine
 62
7
  6
BYLAYER
 10
93.6786856899
 20
194.474661444
 11
93.6278858717
 21
194.5039900692
  0
LINE
  5
320
100
AcDbEntity
  8
0
100
AcDbLine
 62
7
  6
BYLAYER
 10
78.1222717367
 20
203.4772685357
 11
78.0714719185
 21
203.5065971608
  0
LINE
  5
321
100
AcDbEntity
  8
0
100
AcDbLine
 62
7
  6
BYLAYER
 10
94.3690977577
 20
194.6691465809
 11
94.0927412426
 21
194.8286974798
  0
LINE
  5
322
100
AcDbEntity
  8
0
100
AcDbLine
 62
7
  6
BYLAYER
 10
78.8126838046
 20
203.6717536726
 11
78.5363272893
 21
203.8313045716
  0
LINE
  5
323
100
AcDbEntity
  8
0
100
AcDbLine
 62
7
  6
BYLAYER
 10
95.2857974967
 20
194.4869848948
 11
94.9643139597
 21
194.6725893025
  0
LINE
  5
324
100
AcDbEntity
  8
0
100
AcDbLine
 62
7
  6
BYLAYER
 10
93.9707011747
 20
195.2462389337
 11
93.6065405461
 21
195.4564824143
  0
LINE
  5
325
100
AcDbEntity
  8
0
100
AcDbLine
 62
7
  6
BYLAYER
 10
79.7293835435
 20
203.4895919865
 11
79.4079000064
 21
203.6751963942
  0
LINE
  5
326
100
AcDbEntity
  8
0
100
AcDbLine
 62
7
  6
BYLAYER
 10
78.4142872215
 20
204.2488460253
 11
78.0501265928
 21
204.459089506
  0
LINE
  5
327
100
AcDbEntity
  8
0
100
AcDbLine
 62
7
  6
BYLAYER
 10
94.0108918598
 20
195.6899333606
 11
94.3750524885
 21
195.47968988
  0
LINE
  5
328
100
AcDbEntity
  8
0
100
AcDbLine
 62
7
  6
BYLAYER
 10
95.3686652734
 20
194.9060402488
 11
95.6901488104
 21
194.7204358411
  0
LINE
  5
329
100
AcDbEntity
  8
0
100
AcDbLine
 62
7
  6
BYLAYER
 10
78.4544779066
 20
204.6925404523
 11
78.8186385352
 21
204.4822969716
  0
LINE
  5
32A
100
AcDbEntity
  8
0
100
AcDbLine
 62
7
  6
BYLAYER
 10
79.8122513202
 20
203.9086473405
 11
80.1337348572
 21
203.7230429328
  0
LINE
  5
32B
100
AcDbEntity
  8
0
100
AcDbLine
 62
7
  6
BYLAYER
 10
95.6606807582
 20
195.6776177385
 11
95.7114805764
 21
195.6482891133
  0
LINE
  5
32C
100
AcDbEntity
  8
0
100
AcDbLine
 62
7
  6
BYLAYER
 10
80.104266805
 20
204.6802248302
 11
80.1550666232
 21
204.650896205
  0
ARC
  5
32D
100
AcDbEntity
  8
0
100
AcDbCircle
 62
7
  6
BYLAYER
 10
14.6715322419
 20
75.613100196
 40
147.0230486834
100
AcDbArc
 50
59.4347009724
 51
61.5929260377
  0
ARC
  5
32E
100
AcDbEntity
  8
0
100
AcDbCircle
 62
7
  6
BYLAYER
 10
19.5093020681
 20
83.7433720585
 40
137.562377462
100
AcDbArc
 50
57.1914456582
 51
59.4476779068
  0
ARC
  5
32F
100
AcDbEntity
  8
0
100
AcDbCircle
 62
7
  6
BYLAYER
 10
-11.6920762705
 20
-70.4667422924
 40
136.4107162109
100
AcDbArc
 50
56.6385938073
 51
56.9065720504
  0
ARC
  5
330
100
AcDbEntity
  8
0
100
AcDbCircle
 62
7
  6
BYLAYER
 10
-11.6920762655
 20
76.9150995467
 40
136.4107162018
100
AcDbArc
 50
56.6385938073
 51
56.9065720504
  0
ARC
  5
331
100
AcDbEntity
  8
0
100
AcDbCircle
 62
7
  6
BYLAYER
 10
-11.5919508953
 20
74.6184402166
 40
136.2279940248
100
AcDbArc
 50
56.6384140878
 51
56.9067517699
  0
ARC
  5
332
100
AcDbEntity
  8
0
100
AcDbCircle
 62
7
  6
BYLAYER
 10
-11.5919508942
 20
-79.2954209501
 40
136.2279940227
100
AcDbArc
 50
56.6384140878
 51
56.9067517699
  0
ARC
  5
333
100
AcDbEntity
  8
0
100
AcDbCircle
 62
7
  6
BYLAYER
 10
-11.1235148022
 20
77.7794990136
 40
135.3760914642
100
AcDbArc
 50
56.4044652276
 51
56.6383923378
  0
ARC
  5
334
100
AcDbEntity
  8
0
100
AcDbCircle
 62
7
  6
BYLAYER
 10
-11.0906066533
 20
-69.5524572923
 40
135.3163293594
100
AcDbArc
 50
56.3689936422
 51
56.6384144919
  0
ARC
  5
335
100
AcDbEntity
  8
0
100
AcDbCircle
 62
7
  6
BYLAYER
 10
-10.9907108528
 20
75.5308245799
 40
135.1353208662
100
AcDbArc
 50
56.368813202
 51
56.6385949317
  0
ARC
  5
336
100
AcDbEntity
  8
0
100
AcDbCircle
 62
7
  6
BYLAYER
 10
66.1815514459
 20
50.3345961867
 40
7.2745246614
100
AcDbArc
 50
219.4892520183
 51
223.9867185687
  0
ARC
  5
337
100
AcDbEntity
  8
0
100
AcDbCircle
 62
7
  6
BYLAYER
 10
63.4952697735
 20
38.9857312167
 40
3.8583596807
100
AcDbArc
 50
258.1330873673
 51
258.6283348267
  0
ARC
  5
338
100
AcDbEntity
  8
0
100
AcDbCircle
 62
7
  6
BYLAYER
 10
63.4887961077
 20
38.954852063
 40
3.8268092406
100
AcDbArc
 50
257.8060011599
 51
258.1328680149
  0
ARC
  5
339
100
AcDbEntity
  8
0
100
AcDbCircle
 62
7
  6
BYLAYER
 10
63.4774107567
 20
38.9026731413
 40
3.7734027387
100
AcDbArc
 50
256.8068034186
 51
257.8076276332
  0
ARC
  5
33A
100
AcDbEntity
  8
0
100
AcDbCircle
 62
7
  6
BYLAYER
 10
63.4569325132
 20
38.8154810681
 40
3.683838155
100
AcDbArc
 50
255.7026280401
 51
256.8073856578
  0
ARC
  5
33B
100
AcDbEntity
  8
0
100
AcDbCircle
 62
7
  6
BYLAYER
 10
63.2625676798
 20
38.2028234681
 40
3.040634872
100
AcDbArc
 50
248.1119216205
 51
249.3247364247
  0
ARC
  5
33C
100
AcDbEntity
  8
0
100
AcDbCircle
 62
7
  6
BYLAYER
 10
61.3453468474
 20
46.430930784
 40
1.0335638837
100
AcDbArc
 50
183.3930526385
 51
193.0512187321
  0
ARC
  5
33D
100
AcDbEntity
  8
0
100
AcDbCircle
 62
7
  6
BYLAYER
 10
61.3319227761
 20
37.4433936275
 40
1.0290908365
100
AcDbArc
 50
180.0632265695
 51
192.2280681855
  0
ARC
  5
33E
100
AcDbEntity
  8
0
100
AcDbCircle
 62
7
  6
BYLAYER
 10
61.3302283853
 20
46.4249068692
 40
1.027432119
100
AcDbArc
 50
183.1384426813
 51
192.2473539708
  0
ARC
  5
33F
100
AcDbEntity
  8
0
100
AcDbCircle
 62
7
  6
BYLAYER
 10
61.3154945525
 20
46.4238672241
 40
1.0126634917
100
AcDbArc
 50
182.5077137642
 51
183.1253487329
  0
ARC
  5
340
100
AcDbEntity
  8
0
100
AcDbCircle
 62
7
  6
BYLAYER
 10
61.3138818261
 20
46.423797523
 40
1.01104926
100
AcDbArc
 50
180.0007322127
 51
182.5077663915
  0
ARC
  5
341
100
AcDbEntity
  8
0
100
AcDbCircle
 62
7
  6
BYLAYER
 10
62.2841476192
 20
43.6130404129
 40
0.7744577345
100
AcDbArc
 50
83.332270879
 51
94.6073221039
  0
ARC
  5
342
100
AcDbEntity
  8
0
100
AcDbCircle
 62
7
  6
BYLAYER
 10
62.166535766
 20
45.0748717391
 40
0.6920966818
100
AcDbArc
 50
268.6707539552
 51
269.8615885177
  0
ARC
  5
343
100
AcDbEntity
  8
0
100
AcDbCircle
 62
7
  6
BYLAYER
 10
62.1666495188
 20
45.0721111179
 40
0.689336354
100
AcDbArc
 50
269.8515794141
 51
274.6003949691
  0
ARC
  5
344
100
AcDbEntity
  8
0
100
AcDbCircle
 62
7
  6
BYLAYER
 10
62.4234150914
 20
43.9959096369
 40
0.362636328
100
AcDbArc
 50
55.022079364
 51
55.7926698348
  0
ARC
  5
345
100
AcDbEntity
  8
0
100
AcDbCircle
 62
7
  6
BYLAYER
 10
62.9307418819
 20
44.0429481422
 40
0.2676040637
100
AcDbArc
 50
226.696666012
 51
229.864433322
  0
ARC
  5
346
100
AcDbEntity
  8
0
100
AcDbCircle
 62
7
  6
BYLAYER
 10
66.2920541865
 20
195.2427918667
 40
7.3345772339
100
AcDbArc
 50
226.5176612622
 51
227.708778878
  0
ARC
  5
347
100
AcDbEntity
  8
0
100
AcDbCircle
 62
7
  6
BYLAYER
 10
66.1451719443
 20
195.0877477506
 40
7.1210050975
100
AcDbArc
 50
225.5082993007
 51
226.5167369376
  0
ARC
  5
348
100
AcDbEntity
  8
0
100
AcDbCircle
 62
7
  6
BYLAYER
 10
66.0439965237
 20
194.9844676586
 40
6.9764257077
100
AcDbArc
 50
224.9894253687
 51
225.5066106168
  0
ARC
  5
349
100
AcDbEntity
  8
0
100
AcDbCircle
 62
7
  6
BYLAYER
 10
65.2465141798
 20
194.2656560055
 40
5.9021913933
100
AcDbArc
 50
217.7564676744
 51
219.1473253422
  0
ARC
  5
34A
100
AcDbEntity
  8
0
100
AcDbCircle
 62
7
  6
BYLAYER
 10
65.1287632331
 20
194.1741745378
 40
5.7530803899
100
AcDbArc
 50
216.8818297645
 51
217.7542025017
  0
ARC
  5
34B
100
AcDbEntity
  8
0
100
AcDbCircle
 62
7
  6
BYLAYER
 10
65.0398200908
 20
194.1074362167
 40
5.6418828807
100
AcDbArc
 50
216.0065380959
 51
216.8818133731
  0
ARC
  5
34C
100
AcDbEntity
  8
0
100
AcDbCircle
 62
7
  6
BYLAYER
 10
64.2504674459
 20
192.9967215879
 40
4.372032877
100
AcDbArc
 50
211.4503959942
 51
212.6059252179
  0
ARC
  5
34D
100
AcDbEntity
  8
0
100
AcDbCircle
 62
7
  6
BYLAYER
 10
64.2504674457
 20
195.4462288392
 40
4.3720328768
100
AcDbArc
 50
211.4503959942
 51
212.605925218
  0
ARC
  5
34E
100
AcDbEntity
  8
0
100
AcDbCircle
 62
7
  6
BYLAYER
 10
64.1689730122
 20
195.3963822158
 40
4.2765026273
100
AcDbArc
 50
210.2776792142
 51
211.4503529302
  0
ARC
  5
34F
100
AcDbEntity
  8
0
100
AcDbCircle
 62
7
  6
BYLAYER
 10
64.1689730106
 20
192.9468749634
 40
4.2765026255
100
AcDbArc
 50
210.2776792143
 51
211.4503529303
  0
ARC
  5
350
100
AcDbEntity
  8
0
100
AcDbCircle
 62
7
  6
BYLAYER
 10
63.4396732843
 20
196.5981179231
 40
3.6134855693
100
AcDbArc
 50
255.1338532771
 51
255.7007518071
  0
ARC
  5
351
100
AcDbEntity
  8
0
100
AcDbCircle
 62
7
  6
BYLAYER
 10
64.4560437936
 20
192.5559617942
 40
2.8160457103
100
AcDbArc
 50
56.7600478615
 51
57.6997949776
  0
ARC
  5
352
100
AcDbEntity
  8
0
100
AcDbCircle
 62
7
  6
BYLAYER
 10
61.4844873351
 20
191.4030345348
 40
1.1794513484
100
AcDbArc
 50
202.2342227916
 51
203.2187607635
  0
ARC
  5
353
100
AcDbEntity
  8
0
100
AcDbCircle
 62
7
  6
BYLAYER
 10
61.4543267601
 20
191.3909196301
 40
1.1469491841
100
AcDbArc
 50
198.90197422
 51
202.244137603
  0
ARC
  5
354
100
AcDbEntity
  8
0
100
AcDbCircle
 62
7
  6
BYLAYER
 10
61.4094586025
 20
191.3756060316
 40
1.0995397383
100
AcDbArc
 50
194.7287646389
 51
198.9044358432
  0
ARC
  5
355
100
AcDbEntity
  8
0
100
AcDbCircle
 62
7
  6
BYLAYER
 10
61.3757954703
 20
191.3751958918
 40
1.0658525497
100
AcDbArc
 50
181.4306066608
 51
188.4130583176
  0
ARC
  5
356
100
AcDbEntity
  8
0
100
AcDbCircle
 62
7
  6
BYLAYER
 10
61.3708045521
 20
191.3653256343
 40
1.0595421329
100
AcDbArc
 50
190.6967901966
 51
194.7225435167
  0
ARC
  5
357
100
AcDbEntity
  8
0
100
AcDbCircle
 62
7
  6
BYLAYER
 10
61.3658342676
 20
191.3746755362
 40
1.0558814955
100
AcDbArc
 50
180.9172805744
 51
181.4158741301
  0
ARC
  5
358
100
AcDbEntity
  8
0
100
AcDbCircle
 62
7
  6
BYLAYER
 10
61.3478607497
 20
191.360860361
 40
1.0361682221
100
AcDbArc
 50
187.8350807171
 51
190.6896544896
  0
ARC
  5
359
100
AcDbEntity
  8
0
100
AcDbCircle
 62
7
  6
BYLAYER
 10
61.3333217384
 20
191.3588391771
 40
1.0214894069
100
AcDbArc
 50
184.9083112863
 51
187.8339406325
  0
ARC
  5
35A
100
AcDbEntity
  8
0
100
AcDbCircle
 62
7
  6
BYLAYER
 10
61.3243379986
 20
191.3580201585
 40
1.0124685361
100
AcDbArc
 50
183.3453704718
 51
184.9056315483
  0
ARC
  5
35B
100
AcDbEntity
  8
0
100
AcDbCircle
 62
7
  6
BYLAYER
 10
61.3209857168
 20
191.357813544
 40
1.00910991
100
AcDbArc
 50
180.8754296645
 51
183.3447662664
  0
ARC
  5
35C
100
AcDbEntity
  8
0
100
AcDbCircle
 62
7
  6
BYLAYER
 10
62.2812303024
 20
188.5398771742
 40
0.7817564162
100
AcDbArc
 50
86.0631966536
 51
94.413536915
  0
ARC
  5
35D
100
AcDbEntity
  8
0
100
AcDbCircle
 62
7
  6
BYLAYER
 10
62.2778250006
 20
188.5779818872
 40
0.7435027894
100
AcDbArc
 50
94.3778671648
 51
98.7391854033
  0
ARC
  5
35E
100
AcDbEntity
  8
0
100
AcDbCircle
 62
7
  6
BYLAYER
 10
62.2845927901
 20
188.584087954
 40
0.7374191705
100
AcDbArc
 50
79.1572347025
 51
86.0879987338
  0
ARC
  5
35F
100
AcDbEntity
  8
0
100
AcDbCircle
 62
7
  6
BYLAYER
 10
62.2953511604
 20
188.6419780083
 40
0.678538893
100
AcDbArc
 50
75.6954363451
 51
79.1299055039
  0
ARC
  5
360
100
AcDbEntity
  8
0
100
AcDbCircle
 62
7
  6
BYLAYER
 10
62.1009580173
 20
189.7290001047
 40
0.4210249583
100
AcDbArc
 50
272.0493864396
 51
278.7298682315
  0
ARC
  5
361
100
AcDbEntity
  8
0
100
AcDbCircle
 62
7
  6
BYLAYER
 10
62.4313889982
 20
188.9458501734
 40
0.3433216943
100
AcDbArc
 50
51.9047917605
 51
55.0872137492
  0
ARC
  5
362
100
AcDbEntity
  8
0
100
AcDbCircle
 62
7
  6
BYLAYER
 10
62.8215247508
 20
188.9010898176
 40
0.1331362128
100
AcDbArc
 50
180.0043220648
 51
182.1675270715
  0
ARC
  5
363
100
AcDbEntity
  8
0
100
AcDbCircle
 62
7
  6
BYLAYER
 10
82.0872506155
 20
39.3876581935
 40
13.3575567289
100
AcDbArc
 50
247.4314448449
 51
248.5850965629
  0
ARC
  5
364
100
AcDbEntity
  8
0
100
AcDbCircle
 62
7
  6
BYLAYER
 10
82.0599380496
 20
48.301555704
 40
13.2846243882
100
AcDbArc
 50
247.4282779737
 51
248.5882634341
  0
ARC
  5
365
100
AcDbEntity
  8
0
100
AcDbCircle
 62
7
  6
BYLAYER
 10
81.9194031162
 20
38.9819828323
 40
12.9185296505
100
AcDbArc
 50
246.2487424778
 51
247.428341683
  0
ARC
  5
366
100
AcDbEntity
  8
0
100
AcDbCircle
 62
7
  6
BYLAYER
 10
81.8905113686
 20
47.8959744921
 40
12.8450781383
100
AcDbArc
 50
246.2453697314
 51
247.431714431
  0
ARC
  5
367
100
AcDbEntity
  8
0
100
AcDbCircle
 62
7
  6
BYLAYER
 10
82.2936206288
 20
37.1403793865
 40
11.3255625839
100
AcDbArc
 50
250.8378829736
 51
254.510085161
  0
ARC
  5
368
100
AcDbEntity
  8
0
100
AcDbCircle
 62
7
  6
BYLAYER
 10
82.2277288559
 20
45.9217813008
 40
11.1149388986
100
AcDbArc
 50
252.0542985482
 51
252.4008297937
  0
ARC
  5
369
100
AcDbEntity
  8
0
100
AcDbCircle
 62
7
  6
BYLAYER
 10
82.1472820626
 20
45.6764229399
 40
10.8567306139
100
AcDbArc
 50
250.795685356
 51
252.0592289741
  0
ARC
  5
36A
100
AcDbEntity
  8
0
100
AcDbCircle
 62
7
  6
BYLAYER
 10
81.9331842079
 20
35.5441095564
 40
9.6922485818
100
AcDbArc
 50
262.1424598425
 51
265.8915491712
  0
ARC
  5
36B
100
AcDbEntity
  8
0
100
AcDbCircle
 62
7
  6
BYLAYER
 10
81.9264754195
 20
44.4616235419
 40
9.6279200587
100
AcDbArc
 50
262.1299306394
 51
265.9040783745
  0
ARC
  5
36C
100
AcDbEntity
  8
0
100
AcDbCircle
 62
7
  6
BYLAYER
 10
81.8905929119
 20
44.1959847281
 40
9.3598700121
100
AcDbArc
 50
260.8441880019
 51
262.1248583205
  0
ARC
  5
36D
100
AcDbEntity
  8
0
100
AcDbCircle
 62
7
  6
BYLAYER
 10
81.8698136348
 20
35.0732511061
 40
9.2171477164
100
AcDbArc
 50
258.2583178365
 51
262.1325406654
  0
ARC
  5
36E
100
AcDbEntity
  8
0
100
AcDbCircle
 62
7
  6
BYLAYER
 10
81.8579270249
 20
43.9947617494
 40
9.1560129722
100
AcDbArc
 50
259.5452241367
 51
260.8456343669
  0
ARC
  5
36F
100
AcDbEntity
  8
0
100
AcDbCircle
 62
7
  6
BYLAYER
 10
81.8196008067
 20
43.7894351021
 40
8.947140426
100
AcDbArc
 50
258.2273554811
 51
259.5479873671
  0
ARC
  5
370
100
AcDbEntity
  8
0
100
AcDbCircle
 62
7
  6
BYLAYER
 10
66.6634908817
 20
50.7890244134
 40
7.936880838
100
AcDbArc
 50
223.9308338192
 51
226.0492997872
  0
ARC
  5
371
100
AcDbEntity
  8
0
100
AcDbCircle
 62
7
  6
BYLAYER
 10
78.3078778597
 20
30.3108172883
 40
5.8921111422
100
AcDbArc
 50
227.1901408703
 51
227.7872233298
  0
ARC
  5
372
100
AcDbEntity
  8
0
100
AcDbCircle
 62
7
  6
BYLAYER
 10
81.4367590098
 20
40.4184958016
 40
5.5946379494
100
AcDbArc
 50
281.2363039558
 51
281.3690769549
  0
ARC
  5
373
100
AcDbEntity
  8
0
100
AcDbCircle
 62
7
  6
BYLAYER
 10
81.6029400233
 20
30.9490355711
 40
5.0853226992
100
AcDbArc
 50
265.8936163536
 51
273.234406721
  0
ARC
  5
374
100
AcDbEntity
  8
0
100
AcDbCircle
 62
7
  6
BYLAYER
 10
81.6029400233
 20
39.9305621594
 40
5.085322699
100
AcDbArc
 50
265.8936163536
 51
273.2344067211
  0
ARC
  5
375
100
AcDbEntity
  8
0
100
AcDbCircle
 62
7
  6
BYLAYER
 10
81.6093218349
 20
39.8268628942
 40
4.9814285788
100
AcDbArc
 50
273.228416286
 51
277.6302902745
  0
ARC
  5
376
100
AcDbEntity
  8
0
100
AcDbCircle
 62
7
  6
BYLAYER
 10
81.6277463844
 20
39.6734460924
 40
4.8269242508
100
AcDbArc
 50
277.6553281543
 51
278.0629868615
  0
ARC
  5
377
100
AcDbEntity
  8
0
100
AcDbCircle
 62
7
  6
BYLAYER
 10
81.6411072515
 20
39.5816902487
 40
4.7342014583
100
AcDbArc
 50
278.0586425133
 51
280.7839699151
  0
ARC
  5
378
100
AcDbEntity
  8
0
100
AcDbCircle
 62
7
  6
BYLAYER
 10
79.1148099522
 20
30.4328455096
 40
4.2913481278
100
AcDbArc
 50
272.1548234056
 51
274.5016520699
  0
ARC
  5
379
100
AcDbEntity
  8
0
100
AcDbCircle
 62
7
  6
BYLAYER
 10
79.2481887534
 20
28.1654971489
 40
2.207827012
100
AcDbArc
 50
287.1354445223
 51
289.755352818
  0
ARC
  5
37A
100
AcDbEntity
  8
0
100
AcDbCircle
 62
7
  6
BYLAYER
 10
77.6728257024
 20
27.6661544901
 40
1.0752584592
100
AcDbArc
 50
207.6219571101
 51
210.0957477925
  0
ARC
  5
37B
100
AcDbEntity
  8
0
100
AcDbCircle
 62
7
  6
BYLAYER
 10
77.5866295252
 20
36.4570652689
 40
0.6195139817
100
AcDbArc
 50
280.5885571768
 51
282.0627860282
  0
ARC
  5
37C
100
AcDbEntity
  8
0
100
AcDbCircle
 62
7
  6
BYLAYER
 10
78.7505098903
 20
35.7995877749
 40
0.4142444876
100
AcDbArc
 50
242.5271917984
 51
245.0992784352
  0
ARC
  5
37D
100
AcDbEntity
  8
0
100
AcDbCircle
 62
7
  6
BYLAYER
 10
78.7342752779
 20
35.7685944205
 40
0.3792567977
100
AcDbArc
 50
239.0006457927
 51
242.5431668615
  0
ARC
  5
37E
100
AcDbEntity
  8
0
100
AcDbCircle
 62
7
  6
BYLAYER
 10
78.1880970637
 20
35.5818961367
 40
0.259828597
100
AcDbArc
 50
41.0709591047
 51
44.3770700445
  0
ARC
  5
37F
100
AcDbEntity
  8
0
100
AcDbCircle
 62
7
  6
BYLAYER
 10
87.1981954636
 20
51.6665009475
 40
26.6561992754
100
AcDbArc
 50
248.1565663155
 51
248.319071586
  0
ARC
  5
380
100
AcDbEntity
  8
0
100
AcDbCircle
 62
7
  6
BYLAYER
 10
87.1525785422
 20
51.5527013727
 40
26.5335972904
100
AcDbArc
 50
247.9935613294
 51
248.1565667981
  0
ARC
  5
381
100
AcDbEntity
  8
0
100
AcDbCircle
 62
7
  6
BYLAYER
 10
82.5880733869
 20
47.2341980815
 40
12.4763310629
100
AcDbArc
 50
256.6017975065
 51
258.0001375647
  0
ARC
  5
382
100
AcDbEntity
  8
0
100
AcDbCircle
 62
7
  6
BYLAYER
 10
82.5521346381
 20
38.0893118426
 40
12.309069187
100
AcDbArc
 50
254.5301289395
 51
258.0056740375
  0
ARC
  5
383
100
AcDbEntity
  8
0
100
AcDbCircle
 62
7
  6
BYLAYER
 10
97.2840317437
 20
44.9229131686
 40
1.5587735885
100
AcDbArc
 50
268.2235885458
 51
275.5429950381
  0
ARC
  5
384
100
AcDbEntity
  8
0
100
AcDbCircle
 62
7
  6
BYLAYER
 10
97.280913657
 20
44.8705376298
 40
1.5031770946
100
AcDbArc
 50
260.2287504992
 51
268.2788897788
  0
ARC
  5
385
100
AcDbEntity
  8
0
100
AcDbCircle
 62
7
  6
BYLAYER
 10
97.2801242746
 20
44.8598176893
 40
1.4955885746
100
AcDbArc
 50
260.0740424864
 51
268.2982804432
  0
ARC
  5
386
100
AcDbEntity
  8
0
100
AcDbCircle
 62
7
  6
BYLAYER
 10
97.9462662531
 20
35.8731719818
 40
0.9927138078
100
AcDbArc
 50
350.3626607113
 51
359.9692158504
  0
ARC
  5
387
100
AcDbEntity
  8
0
100
AcDbCircle
 62
7
  6
BYLAYER
 10
97.9462662531
 20
44.8546985702
 40
0.9927138078
100
AcDbArc
 50
350.3626607113
 51
359.9692158505
  0
ARC
  5
388
100
AcDbEntity
  8
0
100
AcDbCircle
 62
7
  6
BYLAYER
 10
83.8603847694
 20
35.8049797805
 40
0.3238415078
100
AcDbArc
 50
342.7511487673
 51
343.6478734037
  0
ARC
  5
389
100
AcDbEntity
  8
0
100
AcDbCircle
 62
7
  6
BYLAYER
 10
94.1040704499
 20
67.8786744886
 40
44.2779939461
100
AcDbArc
 50
244.5458870226
 51
246.8775999189
  0
ARC
  5
38A
100
AcDbEntity
  8
0
100
AcDbCircle
 62
7
  6
BYLAYER
 10
93.8964310338
 20
76.4000793197
 40
43.7732965635
100
AcDbArc
 50
244.5324430423
 51
246.8910438996
  0
ARC
  5
38B
100
AcDbEntity
  8
0
100
AcDbCircle
 62
7
  6
BYLAYER
 10
92.9069210058
 20
65.3378600497
 40
41.4692978142
100
AcDbArc
 50
242.5147933693
 51
244.5305923486
  0
ARC
  5
38C
100
AcDbEntity
  8
0
100
AcDbCircle
 62
7
  6
BYLAYER
 10
92.5853270386
 20
73.6730811384
 40
40.7475106222
100
AcDbArc
 50
242.0737344948
 51
244.548041821
  0
ARC
  5
38D
100
AcDbEntity
  8
0
100
AcDbCircle
 62
7
  6
BYLAYER
 10
92.1259084502
 20
61.3645966174
 40
39.7570767281
100
AcDbArc
 50
242.0664984747
 51
242.4998290462
  0
ARC
  5
38E
100
AcDbEntity
  8
0
100
AcDbCircle
 62
7
  6
BYLAYER
 10
87.1981954631
 20
60.6480275347
 40
26.6561992741
100
AcDbArc
 50
248.1565663155
 51
248.319071586
  0
ARC
  5
38F
100
AcDbEntity
  8
0
100
AcDbCircle
 62
7
  6
BYLAYER
 10
87.1525785347
 20
60.5342279426
 40
26.5335972704
100
AcDbArc
 50
247.9935613294
 51
248.1565667981
  0
ARC
  5
390
100
AcDbEntity
  8
0
100
AcDbCircle
 62
7
  6
BYLAYER
 10
67.0671036238
 20
196.1639973331
 40
8.538886944
100
AcDbArc
 50
232.2863288544
 51
232.7630314498
  0
ARC
  5
391
100
AcDbEntity
  8
0
100
AcDbCircle
 62
7
  6
BYLAYER
 10
66.9949616446
 20
196.070714903
 40
8.4209629139
100
AcDbArc
 50
231.7875546009
 51
232.2863803323
  0
ARC
  5
392
100
AcDbEntity
  8
0
100
AcDbCircle
 62
7
  6
BYLAYER
 10
66.8482545891
 20
195.8854558365
 40
8.1846508005
100
AcDbArc
 50
230.2998597833
 51
231.7922704771
  0
ARC
  5
393
100
AcDbEntity
  8
0
100
AcDbCircle
 62
7
  6
BYLAYER
 10
66.5247517318
 20
195.4995448176
 40
7.6810881875
100
AcDbArc
 50
227.7135119435
 51
230.3177187856
  0
ARC
  5
394
100
AcDbEntity
  8
0
100
AcDbCircle
 62
7
  6
BYLAYER
 10
75.6935954526
 20
170.168412528
 40
34.4830738113
100
AcDbArc
 50
57.3696277178
 51
57.8462757551
  0
ARC
  5
395
100
AcDbEntity
  8
0
100
AcDbCircle
 62
7
  6
BYLAYER
 10
76.5527506281
 20
169.0348114864
 40
32.9115163069
100
AcDbArc
 50
55.3623640114
 51
56.9246308819
  0
ARC
  5
396
100
AcDbEntity
  8
0
100
AcDbCircle
 62
7
  6
BYLAYER
 10
77.9788822154
 20
180.0536562958
 40
0.7766083735
100
AcDbArc
 50
87.5823277712
 51
90.0377328927
  0
ARC
  5
397
100
AcDbEntity
  8
0
100
AcDbCircle
 62
7
  6
BYLAYER
 10
77.9783664436
 20
180.0666495222
 40
0.7636149788
100
AcDbArc
 50
89.9996753978
 51
97.5499557006
  0
ARC
  5
398
100
AcDbEntity
  8
0
100
AcDbCircle
 62
7
  6
BYLAYER
 10
77.5693471495
 20
181.1826938383
 40
0.4287831018
100
AcDbArc
 50
263.6588913293
 51
270.4454107105
  0
ARC
  5
399
100
AcDbEntity
  8
0
100
AcDbCircle
 62
7
  6
BYLAYER
 10
78.5636047605
 20
180.5336325148
 40
0.1337618385
100
AcDbArc
 50
185.1635133398
 51
188.4502230514
  0
ARC
  5
39A
100
AcDbEntity
  8
0
100
AcDbCircle
 62
7
  6
BYLAYER
 10
78.5624179877
 20
180.5335218613
 40
0.1325699231
100
AcDbArc
 50
180.007531623
 51
185.1620452566
  0
ARC
  5
39B
100
AcDbEntity
  8
0
100
AcDbCircle
 62
7
  6
BYLAYER
 10
75.8931579266
 20
188.6088785803
 40
16.3259819009
100
AcDbArc
 50
69.4666022441
 51
69.9534449276
  0
ARC
  5
39C
100
AcDbEntity
  8
0
100
AcDbCircle
 62
7
  6
BYLAYER
 10
82.0872506136
 20
193.3015193574
 40
13.357556724
100
AcDbArc
 50
247.4314448448
 51
248.5850965627
  0
ARC
  5
39D
100
AcDbEntity
  8
0
100
AcDbCircle
 62
7
  6
BYLAYER
 10
82.0599380488
 20
195.6833975335
 40
13.2846243861
100
AcDbArc
 50
247.4282779737
 51
248.5882634338
  0
ARC
  5
39E
100
AcDbEntity
  8
0
100
AcDbCircle
 62
7
  6
BYLAYER
 10
81.9194032236
 20
192.8958442574
 40
12.9185299288
100
AcDbArc
 50
246.2487424399
 51
247.4283416803
  0
ARC
  5
39F
100
AcDbEntity
  8
0
100
AcDbCircle
 62
7
  6
BYLAYER
 10
81.8905116878
 20
195.2778170759
 40
12.8450789555
100
AcDbArc
 50
246.2453697144
 51
247.4317144042
  0
ARC
  5
3A0
100
AcDbEntity
  8
0
100
AcDbCircle
 62
7
  6
BYLAYER
 10
81.9072433036
 20
190.3561715123
 40
10.5705111665
100
AcDbArc
 50
266.7014904224
 51
269.9057730839
  0
ARC
  5
3A1
100
AcDbEntity
  8
0
100
AcDbCircle
 62
7
  6
BYLAYER
 10
81.9025885842
 20
190.2669669185
 40
10.4811865444
100
AcDbArc
 50
266.375626395
 51
266.6988355941
  0
ARC
  5
3A2
100
AcDbEntity
  8
0
100
AcDbCircle
 62
7
  6
BYLAYER
 10
81.8932084884
 20
190.1367611286
 40
10.3506482739
100
AcDbArc
 50
263.4576611109
 51
266.3818835116
  0
ARC
  5
3A3
100
AcDbEntity
  8
0
100
AcDbCircle
 62
7
  6
BYLAYER
 10
81.8731174418
 20
189.95148584
 40
10.1642904541
100
AcDbArc
 50
262.8554330478
 51
263.4511810235
  0
ARC
  5
3A4
100
AcDbEntity
  8
0
100
AcDbCircle
 62
7
  6
BYLAYER
 10
81.8391161626
 20
189.6990818683
 40
9.9096176999
100
AcDbArc
 50
260.1265867434
 51
262.8689912066
  0
ARC
  5
3A5
100
AcDbEntity
  8
0
100
AcDbCircle
 62
7
  6
BYLAYER
 10
81.9331842079
 20
189.4579707248
 40
9.6922485817
100
AcDbArc
 50
262.1424598425
 51
265.8915491712
  0
ARC
  5
3A6
100
AcDbEntity
  8
0
100
AcDbCircle
 62
7
  6
BYLAYER
 10
81.7954750768
 20
189.4440724038
 40
9.6509019857
100
AcDbArc
 50
259.2361263877
 51
260.1222394605
  0
ARC
  5
3A7
100
AcDbEntity
  8
0
100
AcDbCircle
 62
7
  6
BYLAYER
 10
81.9264754195
 20
191.8434653733
 40
9.6279200587
100
AcDbArc
 50
262.1299306394
 51
265.9040783744
  0
ARC
  5
3A8
100
AcDbEntity
  8
0
100
AcDbCircle
 62
7
  6
BYLAYER
 10
81.7651673109
 20
189.2854634285
 40
9.4894233676
100
AcDbArc
 50
258.1030384558
 51
259.2370464967
  0
ARC
  5
3A9
100
AcDbEntity
  8
0
100
AcDbCircle
 62
7
  6
BYLAYER
 10
81.8698136348
 20
188.9871122745
 40
9.2171477163
100
AcDbArc
 50
258.2583178365
 51
262.1325406654
  0
ARC
  5
3AA
100
AcDbEntity
  8
0
100
AcDbCircle
 62
7
  6
BYLAYER
 10
81.8529768753
 20
191.3391914246
 40
9.1183326339
100
AcDbArc
 50
258.2373172884
 51
262.1535412132
  0
ARC
  5
3AB
100
AcDbEntity
  8
0
100
AcDbCircle
 62
7
  6
BYLAYER
 10
81.6563908642
 20
188.7934862431
 40
8.9855907789
100
AcDbArc
 50
254.5637438056
 51
258.135033318
  0
ARC
  5
3AC
100
AcDbEntity
  8
0
100
AcDbCircle
 62
7
  6
BYLAYER
 10
81.5359359322
 20
188.3532657919
 40
8.5291893677
100
AcDbArc
 50
253.0309130125
 51
254.5566097427
  0
ARC
  5
3AD
100
AcDbEntity
  8
0
100
AcDbCircle
 62
7
  6
BYLAYER
 10
81.3596676254
 20
187.7928313701
 40
7.9417116184
100
AcDbArc
 50
249.4739397683
 51
253.0671878451
  0
ARC
  5
3AE
100
AcDbEntity
  8
0
100
AcDbCircle
 62
7
  6
BYLAYER
 10
81.2342479981
 20
187.4522596247
 40
7.5787857633
100
AcDbArc
 50
249.1566246105
 51
249.4591316938
  0
ARC
  5
3AF
100
AcDbEntity
  8
0
100
AcDbCircle
 62
7
  6
BYLAYER
 10
81.6210655989
 20
185.0845428119
 40
5.3056812936
100
AcDbArc
 50
272.9039331831
 51
276.0064859508
  0
ARC
  5
3B0
100
AcDbEntity
  8
0
100
AcDbCircle
 62
7
  6
BYLAYER
 10
81.632480013
 20
184.9727983768
 40
5.1933559241
100
AcDbArc
 50
276.0102514006
 51
277.2766067346
  0
ARC
  5
3B1
100
AcDbEntity
  8
0
100
AcDbCircle
 62
7
  6
BYLAYER
 10
81.6029400233
 20
184.8628967396
 40
5.0853226992
100
AcDbArc
 50
265.8936163536
 51
273.234406721
  0
ARC
  5
3B2
100
AcDbEntity
  8
0
100
AcDbCircle
 62
7
  6
BYLAYER
 10
81.6029400233
 20
187.3124039908
 40
5.085322699
100
AcDbArc
 50
265.8936163536
 51
273.2344067211
  0
ARC
  5
3B3
100
AcDbEntity
  8
0
100
AcDbCircle
 62
7
  6
BYLAYER
 10
81.6562950577
 20
184.7934547525
 40
5.0124403682
100
AcDbArc
 50
277.2662316558
 51
281.7767698519
  0
ARC
  5
3B4
100
AcDbEntity
  8
0
100
AcDbCircle
 62
7
  6
BYLAYER
 10
81.7388693834
 20
184.3878561106
 40
4.5985265499
100
AcDbArc
 50
281.8010185686
 51
286.5717703893
  0
ARC
  5
3B5
100
AcDbEntity
  8
0
100
AcDbCircle
 62
7
  6
BYLAYER
 10
81.8609029526
 20
183.9641280335
 40
4.1575946465
100
AcDbArc
 50
286.6253703385
 51
289.3361534815
  0
ARC
  5
3B6
100
AcDbEntity
  8
0
100
AcDbCircle
 62
7
  6
BYLAYER
 10
81.9530930915
 20
183.7014438453
 40
3.8792028286
100
AcDbArc
 50
289.3359678027
 51
291.8583021035
  0
ARC
  5
3B7
100
AcDbEntity
  8
0
100
AcDbCircle
 62
7
  6
BYLAYER
 10
78.9960872375
 20
187.6168213236
 40
3.6134855693
100
AcDbArc
 50
255.1338532771
 51
255.7007518071
  0
ARC
  5
3B8
100
AcDbEntity
  8
0
100
AcDbCircle
 62
7
  6
BYLAYER
 10
78.4468097459
 20
200.9637872036
 40
3.4654880166
100
AcDbArc
 50
119.4461089042
 51
121.3774466032
  0
ARC
  5
3B9
100
AcDbEntity
  8
0
100
AcDbCircle
 62
7
  6
BYLAYER
 10
78.7576776366
 20
204.8249000146
 40
1.6468931866
100
AcDbArc
 50
240.0214320943
 51
243.8759279705
  0
ARC
  5
3BA
100
AcDbEntity
  8
0
100
AcDbCircle
 62
7
  6
BYLAYER
 10
82.5521346381
 20
192.0031730111
 40
12.3090691871
100
AcDbArc
 50
254.5301289395
 51
258.0056740375
  0
ARC
  5
3BB
100
AcDbEntity
  8
0
100
AcDbCircle
 62
7
  6
BYLAYER
 10
82.5153959241
 20
194.3023380897
 40
12.1543753135
100
AcDbArc
 50
254.508004659
 51
258.0277983179
  0
ARC
  5
3BC
100
AcDbEntity
  8
0
100
AcDbCircle
 62
7
  6
BYLAYER
 10
82.2414146904
 20
193.3364015031
 40
11.1503535602
100
AcDbArc
 50
250.8090216233
 51
254.5389465113
  0
ARC
  5
3BD
100
AcDbEntity
  8
0
100
AcDbCircle
 62
7
  6
BYLAYER
 10
96.4373666548
 20
191.2614555459
 40
3.1799668689
100
AcDbArc
 50
296.0692041319
 51
299.2515299983
  0
ARC
  5
3BE
100
AcDbEntity
  8
0
100
AcDbCircle
 62
7
  6
BYLAYER
 10
82.3133507401
 20
182.9193675327
 40
3.0174254146
100
AcDbArc
 50
297.6633813603
 51
300.6718001891
  0
ARC
  5
3BF
100
AcDbEntity
  8
0
100
AcDbCircle
 62
7
  6
BYLAYER
 10
96.5886441692
 20
190.9901123632
 40
2.869303698
100
AcDbArc
 50
299.2635772386
 51
302.4018727793
  0
ARC
  5
3C0
100
AcDbEntity
  8
0
100
AcDbCircle
 62
7
  6
BYLAYER
 10
93.7766209269
 20
192.555629717
 40
2.8193911165
100
AcDbArc
 50
122.2484353752
 51
123.331003617
  0
ARC
  5
3C1
100
AcDbEntity
  8
0
100
AcDbCircle
 62
7
  6
BYLAYER
 10
82.4457539522
 20
182.6955239865
 40
2.7573553453
100
AcDbArc
 50
300.6781697224
 51
304.2038149718
  0
ARC
  5
3C2
100
AcDbEntity
  8
0
100
AcDbCircle
 62
7
  6
BYLAYER
 10
97.0344426677
 20
190.3709348201
 40
2.105370883
100
AcDbArc
 50
309.6755921375
 51
313.1556506617
  0
ARC
  5
3C3
100
AcDbEntity
  8
0
100
AcDbCircle
 62
7
  6
BYLAYER
 10
97.284093323
 20
189.8536016447
 40
1.5571340405
100
AcDbArc
 50
268.2214950833
 51
272.3797904386
  0
ARC
  5
3C4
100
AcDbEntity
  8
0
100
AcDbCircle
 62
7
  6
BYLAYER
 10
97.2852274138
 20
189.8349761322
 40
1.5384775427
100
AcDbArc
 50
272.3663937499
 51
275.8284599881
  0
ARC
  5
3C5
100
AcDbEntity
  8
0
100
AcDbCircle
 62
7
  6
BYLAYER
 10
97.2835376474
 20
189.8337060294
 40
1.5372307649
100
AcDbArc
 50
264.301721723
 51
268.2191816751
  0
ARC
  5
3C6
100
AcDbEntity
  8
0
100
AcDbCircle
 62
7
  6
BYLAYER
 10
97.2777758899
 20
189.7798150728
 40
1.4830340728
100
AcDbArc
 50
260.4355510618
 51
264.3164977936
  0
ARC
  5
3C7
100
AcDbEntity
  8
0
100
AcDbCircle
 62
7
  6
BYLAYER
 10
97.2932658761
 20
189.7600396095
 40
1.4631121543
100
AcDbArc
 50
275.8133023226
 51
280.6955371496
  0
ARC
  5
3C8
100
AcDbEntity
  8
0
100
AcDbCircle
 62
7
  6
BYLAYER
 10
97.2597870361
 20
189.6747686629
 40
1.3764589358
100
AcDbArc
 50
255.8222657317
 51
260.4473980306
  0
ARC
  5
3C9
100
AcDbEntity
  8
0
100
AcDbCircle
 62
7
  6
BYLAYER
 10
97.3128587181
 20
189.6559640061
 40
1.3572083941
100
AcDbArc
 50
280.6981941663
 51
284.468738285
  0
ARC
  5
3CA
100
AcDbEntity
  8
0
100
AcDbCircle
 62
7
  6
BYLAYER
 10
97.2276832464
 20
189.5483068894
 40
1.2459859191
100
AcDbArc
 50
251.4015016008
 51
255.8292353744
  0
ARC
  5
3CB
100
AcDbEntity
  8
0
100
AcDbCircle
 62
7
  6
BYLAYER
 10
97.775706805
 20
189.8066233734
 40
1.1647997896
100
AcDbArc
 50
339.0248615732
 51
342.4551438798
  0
ARC
  5
3CC
100
AcDbEntity
  8
0
100
AcDbCircle
 62
7
  6
BYLAYER
 10
97.837695808
 20
189.7877866716
 40
1.1000163097
100
AcDbArc
 50
342.4173141446
 51
351.2707207589
  0
ARC
  5
3CD
100
AcDbEntity
  8
0
100
AcDbCircle
 62
7
  6
BYLAYER
 10
97.3998415297
 20
189.3813317197
 40
1.0688410085
100
AcDbArc
 50
290.2436771089
 51
294.0143885912
  0
ARC
  5
3CE
100
AcDbEntity
  8
0
100
AcDbCircle
 62
7
  6
BYLAYER
 10
97.9462662531
 20
189.7870331503
 40
0.9927138078
100
AcDbArc
 50
350.3626607113
 51
359.9692158505
  0
ARC
  5
3CF
100
AcDbEntity
  8
0
100
AcDbCircle
 62
7
  6
BYLAYER
 10
97.9462662531
 20
192.2365404017
 40
0.9927138078
100
AcDbArc
 50
350.3626607113
 51
359.9692158506
  0
ARC
  5
3D0
100
AcDbEntity
  8
0
100
AcDbCircle
 62
7
  6
BYLAYER
 10
97.9473560551
 20
192.235754362
 40
0.9916238947
100
AcDbArc
 50
0.0145991916
 51
12.2550442034
  0
ARC
  5
3D1
100
AcDbEntity
  8
0
100
AcDbCircle
 62
7
  6
BYLAYER
 10
83.6120236758
 20
180.9300223226
 40
0.642210611
100
AcDbArc
 50
306.6938264229
 51
311.9891368457
  0
ARC
  5
3D2
100
AcDbEntity
  8
0
100
AcDbCircle
 62
7
  6
BYLAYER
 10
94.2354895454
 20
222.0656279688
 40
44.5807581423
100
AcDbArc
 50
244.5499429967
 51
246.8600959478
  0
ARC
  5
3D3
100
AcDbEntity
  8
0
100
AcDbCircle
 62
7
  6
BYLAYER
 10
94.0282940393
 20
224.0561408325
 40
44.0772687266
100
AcDbArc
 50
244.5367468767
 51
246.8732920674
  0
ARC
  5
3D4
100
AcDbEntity
  8
0
100
AcDbCircle
 62
7
  6
BYLAYER
 10
92.9459575683
 20
219.3345528519
 40
41.5605639486
100
AcDbArc
 50
242.1167923645
 51
244.5372419397
  0
ARC
  5
3D5
100
AcDbEntity
  8
0
100
AcDbCircle
 62
7
  6
BYLAYER
 10
92.8685937971
 20
221.6335741702
 40
41.3914352311
100
AcDbArc
 50
242.567983077
 51
244.5443728248
  0
ARC
  5
3D6
100
AcDbEntity
  8
0
100
AcDbCircle
 62
7
  6
BYLAYER
 10
92.2519364037
 20
222.8888679657
 40
40.0474100363
100
AcDbArc
 50
242.0947175954
 51
242.563905733
  0
ARC
  5
3D7
100
AcDbEntity
  8
0
100
AcDbCircle
 62
7
  6
BYLAYER
 10
87.1981954645
 20
205.5803621182
 40
26.6561992778
100
AcDbArc
 50
248.1565663156
 51
248.319071586
  0
ARC
  5
3D8
100
AcDbEntity
  8
0
100
AcDbCircle
 62
7
  6
BYLAYER
 10
87.1981954609
 20
208.0298693606
 40
26.6561992682
100
AcDbArc
 50
248.1565663155
 51
248.319071586
  0
ARC
  5
3D9
100
AcDbEntity
  8
0
100
AcDbCircle
 62
7
  6
BYLAYER
 10
87.1525785633
 20
205.4665625936
 40
26.5335973469
100
AcDbArc
 50
247.9935613294
 51
248.156566798
  0
ARC
  5
3DA
100
AcDbEntity
  8
0
100
AcDbCircle
 62
7
  6
BYLAYER
 10
87.1525785387
 20
207.9160697841
 40
26.5335972812
100
AcDbArc
 50
247.9935613292
 51
248.1565667981
  0
ARC
  5
3DB
100
AcDbEntity
  8
0
100
AcDbCircle
 62
7
  6
BYLAYER
 10
93.9106288313
 20
198.5660836328
 40
0.7365192183
100
AcDbArc
 50
59.1144307687
 51
60.0022232275
  0
ARC
  5
3DC
100
AcDbEntity
  8
0
100
AcDbCircle
 62
7
  6
BYLAYER
 10
144.0579047996
 20
162.7667024791
 40
153.6809126927
100
AcDbArc
 50
240.5825141155
 51
242.6704691288
  0
ARC
  5
3DD
100
AcDbEntity
  8
0
100
AcDbCircle
 62
7
  6
BYLAYER
 10
144.0021932435
 20
174.1094990244
 40
153.576947051
100
AcDbArc
 50
241.137052232
 51
242.6738203433
  0
ARC
  5
3DE
100
AcDbEntity
  8
0
100
AcDbCircle
 62
7
  6
BYLAYER
 10
142.1845213226
 20
170.7979464458
 40
149.7993458213
100
AcDbArc
 50
240.8512410494
 51
241.0897971654
  0
ARC
  5
3DF
100
AcDbEntity
  8
0
100
AcDbCircle
 62
7
  6
BYLAYER
 10
139.3627098902
 20
154.3849527451
 40
144.0737381033
100
AcDbArc
 50
238.3921306864
 51
240.571758467
  0
ARC
  5
3E0
100
AcDbEntity
  8
0
100
AcDbCircle
 62
7
  6
BYLAYER
 10
137.7477397814
 20
163.1166983782
 40
140.9284717399
100
AcDbArc
 50
238.3761693294
 51
239.7097421113
  0
ARC
  5
3E1
100
AcDbEntity
  8
0
100
AcDbCircle
 62
7
  6
BYLAYER
 10
144.7104478808
 20
320.285106839
 40
155.006620432
100
AcDbArc
 50
240.5838250067
 51
242.6553020412
  0
ARC
  5
3E2
100
AcDbEntity
  8
0
100
AcDbCircle
 62
7
  6
BYLAYER
 10
143.9431487541
 20
323.7638724056
 40
153.3926208709
100
AcDbArc
 50
240.572925741
 51
242.6662013176
  0
ARC
  5
3E3
100
AcDbEntity
  8
0
100
AcDbCircle
 62
7
  6
BYLAYER
 10
139.2082555631
 20
315.432452835
 40
143.8097839472
100
AcDbArc
 50
238.399685319
 51
240.585137509
  0
ARC
  5
3E4
100
AcDbEntity
  8
0
100
AcDbCircle
 62
7
  6
BYLAYER
 10
124.7741402818
 20
285.5976176828
 40
115.0100374482
100
AcDbArc
 50
241.5690778172
 51
243.5369442122
  0
ARC
  5
3E5
100
AcDbEntity
  8
0
100
AcDbCircle
 62
7
  6
BYLAYER
 10
123.3150548593
 20
282.8827201019
 40
111.9279103671
100
AcDbArc
 50
241.4179039989
 51
241.5642393424
  0
ARC
  5
3E6
100
AcDbEntity
  8
0
100
AcDbCircle
 62
7
  6
BYLAYER
 10
122.5394827975
 20
281.466470727
 40
110.3132085649
100
AcDbArc
 50
240.7093928972
 51
241.4197200992
  0
ARC
  5
3E7
100
AcDbEntity
  8
0
100
AcDbCircle
 62
7
  6
BYLAYER
 10
120.5847104749
 20
278.0149387708
 40
106.3466061765
100
AcDbArc
 50
239.136299353
 51
240.7181359569
  0
ARC
  5
3E8
100
AcDbEntity
  8
0
100
AcDbCircle
 62
7
  6
BYLAYER
 10
118.9003437364
 20
275.1909996015
 40
103.0584888615
100
AcDbArc
 50
238.4853060521
 51
239.134725944
  0
ARC
  5
3E9
100
AcDbEntity
  8
0
100
AcDbCircle
 62
7
  6
BYLAYER
 10
117.7146126981
 20
273.2638573356
 40
100.7957842054
100
AcDbArc
 50
237.7020429092
 51
238.4580551906
  0
ARC
  5
3EA
100
AcDbEntity
  8
0
100
AcDbCircle
 62
7
  6
BYLAYER
 10
116.9125991662
 20
271.9938704105
 40
99.2937548917
100
AcDbArc
 50
237.3352080684
 51
237.7016646563
  0
ARC
  5
3EB
100
AcDbEntity
  8
0
100
AcDbCircle
 62
7
  6
BYLAYER
 10
116.3165823509
 20
271.0642488716
 40
98.1894758285
100
AcDbArc
 50
236.9650147914
 51
237.3352163043
  0
SPLINE
  5
3EC
100
AcDbEntity
  8
0
100
AcDbSpline
 62
7
  6
BYLAYER
 70
0
 71
3
 72
9
 73
5
 74
0
 42
0.0000001
 43
0.0000001
 44
0.0000000001
 40
0.0
 40
0.0
 40
0.0
 40
0.0
 40
0.2411856886
 40
1.0
 40
1.0
 40
1.0
 40
1.0
 10
62.3784801866
 20
35.2052923736
 30
0.0
 10
62.3993293126
 20
35.1933043367
 30
0.0
 10
62.4868763521
 20
35.1455297398
 30
0.0
 10
62.5784669981
 20
35.1052751457
 30
0.0
 10
62.6493049979
 20
35.078681119
 30
0.0
  0
SPLINE
  5
3ED
100
AcDbEntity
  8
0
100
AcDbSpline
 62
7
  6
BYLAYER
 70
0
 71
3
 72
9
 73
5
 74
0
 42
0.0000001
 43
0.0000001
 44
0.0000000001
 40
0.0
 40
0.0
 40
0.0
 40
0.0
 40
0.2408001262
 40
1.0
 40
1.0
 40
1.0
 40
1.0
 10
62.1782558037
 20
35.3450922895
 30
0.0
 10
62.1932121448
 20
35.3323997274
 30
0.0
 10
62.2566668709
 20
35.2812790709
 30
0.0
 10
62.3249701637
 20
35.2363025688
 30
0.0
 10
62.3784801866
 20
35.2052923736
 30
0.0
  0
SPLINE
  5
3EE
100
AcDbEntity
  8
0
100
AcDbSpline
 62
7
  6
BYLAYER
 70
0
 71
3
 72
9
 73
5
 74
0
 42
0.0000001
 43
0.0000001
 44
0.0000000001
 40
0.0
 40
0.0
 40
0.0
 40
0.0
 40
0.4758638669
 40
1.0
 40
1.0
 40
1.0
 40
1.0
 10
61.2973518225
 20
35.9485869134
 30
0.0
 10
61.3615650022
 20
35.8702681263
 30
0.0
 10
61.5153972391
 20
35.7208528706
 30
0.0
 10
61.6926183635
 20
35.6012813496
 30
0.0
 10
61.7892252591
 20
35.5455065942
 30
0.0
  0
SPLINE
  5
3EF
100
AcDbEntity
  8
0
100
AcDbSpline
 62
7
  6
BYLAYER
 70
0
 71
3
 72
9
 73
5
 74
0
 42
0.0000001
 43
0.0000001
 44
0.0000000001
 40
0.0
 40
0.0
 40
0.0
 40
0.0
 40
0.2449366897
 40
1.0
 40
1.0
 40
1.0
 40
1.0
 10
62.1890078379
 20
35.3580159719
 30
0.0
 10
62.2176889432
 20
35.3471904141
 30
0.0
 10
62.3354379526
 20
35.3047349544
 30
0.0
 10
62.455616615
 20
35.2690841224
 30
0.0
 10
62.5471918615
 20
35.2457422122
 30
0.0
  0
SPLINE
  5
3F0
100
AcDbEntity
  8
0
100
AcDbSpline
 62
7
  6
BYLAYER
 70
0
 71
3
 72
12
 73
8
 74
0
 42
0.0000001
 43
0.0000001
 44
0.0000000001
 40
0.0
 40
0.0
 40
0.0
 40
0.0
 40
0.2303463478
 40
0.3555179364
 40
0.4848390583
 40
0.7471151887
 40
1.0
 40
1.0
 40
1.0
 40
1.0
 10
77.9348941399
 20
26.2239957741
 30
0.0
 10
78.0692473262
 20
26.146744049
 30
0.0
 10
78.2939494778
 20
26.0564868892
 30
0.0
 10
78.6118774091
 20
25.9825554107
 30
0.0
 10
78.9571068654
 20
25.9368718415
 30
0.0
 10
79.3930877904
 20
25.9398665677
 30
0.0
 10
79.7360992804
 20
26.0055243632
 30
0.0
 10
79.8986842371
 20
26.0556735211
 30
0.0
  0
SPLINE
  5
3F1
100
AcDbEntity
  8
0
100
AcDbSpline
 62
7
  6
BYLAYER
 70
0
 71
3
 72
9
 73
5
 74
0
 42
0.0000001
 43
0.0000001
 44
0.0000000001
 40
0.0
 40
0.0
 40
0.0
 40
0.0
 40
0.236593015
 40
1.0
 40
1.0
 40
1.0
 40
1.0
 10
77.6667863682
 20
26.4265048098
 30
0.0
 10
77.6854728691
 20
26.4076542221
 30
0.0
 10
77.7676166061
 20
26.3311174648
 30
0.0
 10
77.8607928217
 20
26.2669390624
 30
0.0
 10
77.9348941399
 20
26.2239957741
 30
0.0
  0
SPLINE
  5
3F2
100
AcDbEntity
  8
0
100
AcDbSpline
 62
7
  6
BYLAYER
 70
0
 71
3
 72
9
 73
5
 74
0
 42
0.0000001
 43
0.0000001
 44
0.0000000001
 40
0.0
 40
0.0
 40
0.0
 40
0.0
 40
0.2436059661
 40
1.0
 40
1.0
 40
1.0
 40
1.0
 10
76.7425243008
 20
27.1269698684
 30
0.0
 10
76.7512107669
 20
27.111977004
 30
0.0
 10
76.7883200135
 20
27.05127763
 30
0.0
 10
76.8310252004
 20
26.9940509471
 30
0.0
 10
76.865712843
 20
26.9529246021
 30
0.0
  0
SPLINE
  5
3F3
100
AcDbEntity
  8
0
100
AcDbSpline
 62
7
  6
BYLAYER
 70
0
 71
3
 72
9
 73
5
 74
0
 42
0.0000001
 43
0.0000001
 44
0.0000000001
 40
0.0
 40
0.0
 40
0.0
 40
0.0
 40
0.2330500097
 40
1.0
 40
1.0
 40
1.0
 40
1.0
 10
76.865712843
 20
26.9529246021
 30
0.0
 10
76.8967355658
 20
26.9161434575
 30
0.0
 10
77.0382615668
 20
26.7654108704
 30
0.0
 10
77.2085033398
 20
26.6433836365
 30
0.0
 10
77.3456392123
 20
26.5642099948
 30
0.0
  0
SPLINE
  5
3F4
100
AcDbEntity
  8
0
100
AcDbSpline
 62
7
  6
BYLAYER
 70
0
 71
3
 72
11
 73
7
 74
0
 42
0.0000001
 43
0.0000001
 44
0.0000000001
 40
0.0
 40
0.0
 40
0.0
 40
0.0
 40
0.2279169331
 40
0.4748368042
 40
0.7346763546
 40
1.0
 40
1.0
 40
1.0
 40
1.0
 10
77.3456392123
 20
26.5642099948
 30
0.0
 10
77.4771387588
 20
26.4882904137
 30
0.0
 10
77.7664894548
 20
26.3561429622
 30
0.0
 10
78.2385252877
 20
26.2213372622
 30
0.0
 10
78.7487290538
 20
26.1460785463
 30
0.0
 10
79.0995267102
 20
26.1378810495
 30
0.0
 10
79.2761642045
 20
26.1445319064
 30
0.0
  0
SPLINE
  5
3F5
100
AcDbEntity
  8
0
100
AcDbSpline
 62
7
  6
BYLAYER
 70
0
 71
3
 72
25
 73
21
 74
0
 42
0.0000001
 43
0.0000001
 44
0.0000000001
 40
0.0
 40
0.0
 40
0.0
 40
0.0
 40
0.0623838154
 40
0.1287218294
 40
0.1983148573
 40
0.2702912272
 40
0.3436687702
 40
0.4174007574
 40
0.4904253925
 40
0.5617121105
 40
0.6303096085
 40
0.6953975195
 40
0.7563454242
 40
0.8127829539
 40
0.8646835999
 40
0.9124583193
 40
0.9351029793
 40
0.9571079828
 40
0.9786682505
 40
1.0
 40
1.0
 40
1.0
 40
1.0
 10
86.1844312895
 20
18.1221877187
 30
0.0
 10
85.9688605207
 20
17.9977286202
 30
0.0
 10
85.5068976799
 20
17.7699528532
 30
0.0
 10
84.7616852203
 20
17.4999424396
 30
0.0
 10
83.9563806645
 20
17.2954994748
 30
0.0
 10
83.1081951888
 20
17.1610083895
 30
0.0
 10
82.2351282932
 20
17.0992869993
 30
0.0
 10
81.3558044864
 20
17.111660133
 30
0.0
 10
80.4889810594
 20
17.1978602268
 30
0.0
 10
79.6531288844
 20
17.3560556343
 30
0.0
 10
78.8660051086
 20
17.5829019399
 30
0.0
 10
78.1442477043
 20
17.8736745496
 30
0.0
 10
77.5030272063
 20
18.2224180026
 30
0.0
 10
76.9557514092
 20
18.6223490265
 30
0.0
 10
76.5141446827
 20
19.065721122
 30
0.0
 10
76.2377111261
 20
19.4725102709
 30
0.0
 10
76.0836483016
 20
19.80836202
 30
0.0
 10
76.0019982139
 20
20.0603003949
 30
0.0
 10
75.9527551323
 20
20.3151725496
 30
0.0
 10
75.941781525
 20
20.4865158689
 30
0.0
 10
75.9417813092
 20
20.5716322465
 30
0.0
  0
SPLINE
  5
3F6
100
AcDbEntity
  8
0
100
AcDbSpline
 62
7
  6
BYLAYER
 70
0
 71
3
 72
15
 73
11
 74
0
 42
0.0000001
 43
0.0000001
 44
0.0000000001
 40
0.0
 40
0.0
 40
0.0
 40
0.0
 40
0.108011861
 40
0.2180602797
 40
0.3319970093
 40
0.4513559355
 40
0.5772754707
 40
0.7104908644
 40
0.8514144147
 40
1.0
 40
1.0
 40
1.0
 40
1.0
 10
87.9417645681
 20
20.5716322451
 30
0.0
 10
87.9417648561
 20
20.4580455397
 30
0.0
 10
87.922041879
 20
20.2282693024
 30
0.0
 10
87.83400116
 20
19.8888813816
 30
0.0
 10
87.6886666047
 20
19.5568060704
 30
0.0
 10
87.4878900144
 20
19.2354050437
 30
0.0
 10
87.2339374196
 20
18.9275892193
 30
0.0
 10
86.9293928397
 20
18.636080579
 30
0.0
 10
86.5772965247
 20
18.3635571373
 30
0.0
 10
86.3197519202
 20
18.2003146549
 30
0.0
 10
86.1844312895
 20
18.1221877187
 30
0.0
  0
SPLINE
  5
3F7
100
AcDbEntity
  8
0
100
AcDbSpline
 62
7
  6
BYLAYER
 70
0
 71
3
 72
9
 73
5
 74
0
 42
0.0000001
 43
0.0000001
 44
0.0000000001
 40
0.0
 40
0.0
 40
0.0
 40
0.0
 40
0.5255657768
 40
1.0
 40
1.0
 40
1.0
 40
1.0
 10
78.2990487368
 20
203.4349940703
 30
0.0
 10
78.2669486328
 20
203.4349939931
 30
0.0
 10
78.2057070553
 20
203.4416326295
 30
0.0
 10
78.1473668095
 20
203.4627802164
 30
0.0
 10
78.1222717367
 20
203.4772685357
 30
0.0
  0
SPLINE
  5
3F8
100
AcDbEntity
  8
0
100
AcDbSpline
 62
7
  6
BYLAYER
 70
0
 71
3
 72
9
 73
5
 74
0
 42
0.0000001
 43
0.0000001
 44
0.0000000001
 40
0.0
 40
0.0
 40
0.0
 40
0.0
 40
0.4744336899
 40
1.0
 40
1.0
 40
1.0
 40
1.0
 10
78.4758251273
 20
203.4772693855
 30
0.0
 10
78.45073024
 20
203.4627809321
 30
0.0
 10
78.3923902237
 20
203.4416330553
 30
0.0
 10
78.3311488059
 20
203.4349941474
 30
0.0
 10
78.2990487368
 20
203.4349940703
 30
0.0
  0
SPLINE
  5
3F9
100
AcDbEntity
  8
0
100
AcDbSpline
 62
7
  6
BYLAYER
 70
0
 71
3
 72
9
 73
5
 74
0
 42
0.0000001
 43
0.0000001
 44
0.0000000001
 40
0.0
 40
0.0
 40
0.0
 40
0.0
 40
0.5255663101
 40
1.0
 40
1.0
 40
1.0
 40
1.0
 10
79.1132716728
 20
203.7456538365
 30
0.0
 10
79.0597715578
 20
203.7456537079
 30
0.0
 10
78.9577025284
 20
203.7345888615
 30
0.0
 10
78.8604691679
 20
203.6993424003
 30
0.0
 10
78.8186443559
 20
203.675194978
 30
0.0
  0
SPLINE
  5
3FA
100
AcDbEntity
  8
0
100
AcDbSpline
 62
7
  6
BYLAYER
 70
0
 71
3
 72
9
 73
5
 74
0
 42
0.0000001
 43
0.0000001
 44
0.0000000001
 40
0.0
 40
0.0
 40
0.0
 40
0.0
 40
0.4744342232
 40
1.0
 40
1.0
 40
1.0
 40
1.0
 10
79.4079000064
 20
203.6751963942
 30
0.0
 10
79.3660748851
 20
203.6993435929
 30
0.0
 10
79.2688411421
 20
203.734589571
 30
0.0
 10
79.1667718463
 20
203.7456539651
 30
0.0
 10
79.1132716728
 20
203.7456538365
 30
0.0
  0
SPLINE
  5
3FB
100
AcDbEntity
  8
0
100
AcDbSpline
 62
7
  6
BYLAYER
 70
0
 71
3
 72
9
 73
5
 74
0
 42
0.0000001
 43
0.0000001
 44
0.0000000001
 40
0.0
 40
0.0
 40
0.0
 40
0.0
 40
0.5255657768
 40
1.0
 40
1.0
 40
1.0
 40
1.0
 10
79.9061605436
 20
203.4473175211
 30
0.0
 10
79.8740604396
 20
203.4473174439
 30
0.0
 10
79.8128188621
 20
203.4539560803
 30
0.0
 10
79.7544786163
 20
203.4751036672
 30
0.0
 10
79.7293835435
 20
203.4895919865
 30
0.0
  0
SPLINE
  5
3FC
100
AcDbEntity
  8
0
100
AcDbSpline
 62
7
  6
BYLAYER
 70
0
 71
3
 72
9
 73
5
 74
0
 42
0.0000001
 43
0.0000001
 44
0.0000000001
 40
0.0
 40
0.0
 40
0.0
 40
0.0
 40
0.4744336899
 40
1.0
 40
1.0
 40
1.0
 40
1.0
 10
80.0829369341
 20
203.4895928363
 30
0.0
 10
80.0578420468
 20
203.4751043828
 30
0.0
 10
79.9995020305
 20
203.4539565061
 30
0.0
 10
79.9382606127
 20
203.4473175982
 30
0.0
 10
79.9061605436
 20
203.4473175211
 30
0.0
  0
SPLINE
  5
3FD
100
AcDbEntity
  8
0
100
AcDbSpline
 62
7
  6
BYLAYER
 70
0
 71
3
 72
11
 73
7
 74
0
 42
0.0000001
 43
0.0000001
 44
0.0000000001
 40
0.0
 40
0.0
 40
0.0
 40
0.0
 40
0.2177164324
 40
0.4509408358
 40
0.7102939719
 40
1.0
 40
1.0
 40
1.0
 40
1.0
 10
80.2069588979
 20
203.6209824952
 30
0.0
 10
80.2069589665
 20
203.6114633325
 30
0.0
 10
80.2034339526
 20
203.5916169912
 30
0.0
 10
80.1883994299
 20
203.5639577162
 30
0.0
 10
80.1646040811
 20
203.5389644416
 30
0.0
 10
80.1447060697
 20
203.5252550505
 30
0.0
 10
80.1337363292
 20
203.5189217057
 30
0.0
  0
SPLINE
  5
3FE
100
AcDbEntity
  8
0
100
AcDbSpline
 62
7
  6
BYLAYER
 70
0
 71
3
 72
11
 73
7
 74
0
 42
0.0000001
 43
0.0000001
 44
0.0000000001
 40
0.0
 40
0.0
 40
0.0
 40
0.0
 40
0.2897060281
 40
0.5490591642
 40
0.7822835676
 40
1.0
 40
1.0
 40
1.0
 40
1.0
 10
79.8122488665
 20
204.2488493854
 30
0.0
 10
79.7939659657
 20
204.2382938107
 30
0.0
 10
79.7608026134
 20
204.2154448256
 30
0.0
 10
79.7211436989
 20
204.1737893679
 30
0.0
 10
79.6960861611
 20
204.1276905764
 30
0.0
 10
79.6902111379
 20
204.094613341
 30
0.0
 10
79.6902112523
 20
204.0787480697
 30
0.0
  0
SPLINE
  5
3FF
100
AcDbEntity
  8
0
100
AcDbSpline
 62
7
  6
BYLAYER
 70
0
 71
3
 72
11
 73
7
 74
0
 42
0.0000001
 43
0.0000001
 44
0.0000000001
 40
0.0
 40
0.0
 40
0.0
 40
0.0
 40
0.2177164324
 40
0.4509408358
 40
0.7102939719
 40
1.0
 40
1.0
 40
1.0
 40
1.0
 10
80.2282906638
 20
204.5488357674
 30
0.0
 10
80.2282907325
 20
204.5393166047
 30
0.0
 10
80.2247657186
 20
204.5194702634
 30
0.0
 10
80.2097311958
 20
204.4918109884
 30
0.0
 10
80.1859358471
 20
204.4668177138
 30
0.0
 10
80.1660378357
 20
204.4531083227
 30
0.0
 10
80.1550680951
 20
204.4467749779
 30
0.0
  0
SPLINE
  5
400
100
AcDbEntity
  8
0
100
AcDbSpline
 62
7
  6
BYLAYER
 70
0
 71
3
 72
11
 73
7
 74
0
 42
0.0000001
 43
0.0000001
 44
0.0000000001
 40
0.0
 40
0.0
 40
0.0
 40
0.0
 40
0.2897062311
 40
0.5490596185
 40
0.7822840529
 40
1.0
 40
1.0
 40
1.0
 40
1.0
 10
78.0501265928
 20
204.459089506
 30
0.0
 10
78.039156757
 20
204.4654228004
 30
0.0
 10
78.0192585479
 20
204.4791320976
 30
0.0
 10
77.9954628514
 20
204.5041252445
 30
0.0
 10
77.9804279344
 20
204.5317844228
 30
0.0
 10
77.9769026208
 20
204.5516307656
 30
0.0
 10
77.9769025522
 20
204.5611499435
 30
0.0
  0
SPLINE
  5
401
100
AcDbEntity
  8
0
100
AcDbSpline
 62
7
  6
BYLAYER
 70
0
 71
3
 72
11
 73
7
 74
0
 42
0.0000001
 43
0.0000001
 44
0.0000000001
 40
0.0
 40
0.0
 40
0.0
 40
0.0
 40
0.2177159471
 40
0.4509403815
 40
0.7102937689
 40
1.0
 40
1.0
 40
1.0
 40
1.0
 10
78.5363272893
 20
204.0787452961
 30
0.0
 10
78.5363271749
 20
204.0946105927
 30
0.0
 10
78.5304516522
 20
204.1276878306
 30
0.0
 10
78.5053934573
 20
204.1737864612
 30
0.0
 10
78.4657339631
 20
204.2154417059
 30
0.0
 10
78.4325702813
 20
204.2382905347
 30
0.0
 10
78.4142872215
 20
204.2488460253
 30
0.0
  0
SPLINE
  5
402
100
AcDbEntity
  8
0
100
AcDbSpline
 62
7
  6
BYLAYER
 70
0
 71
3
 72
11
 73
7
 74
0
 42
0.0000001
 43
0.0000001
 44
0.0000000001
 40
0.0
 40
0.0
 40
0.0
 40
0.0
 40
0.2897062311
 40
0.5490596185
 40
0.7822840529
 40
1.0
 40
1.0
 40
1.0
 40
1.0
 10
78.0714719185
 20
203.5065971608
 30
0.0
 10
78.0605020827
 20
203.5129304552
 30
0.0
 10
78.0406038735
 20
203.5266397525
 30
0.0
 10
78.0168081771
 20
203.5516328993
 30
0.0
 10
78.0017732601
 20
203.5792920777
 30
0.0
 10
77.9982479465
 20
203.5991384204
 30
0.0
 10
77.9982478778
 20
203.6086575984
 30
0.0
  0
SPLINE
  5
403
100
AcDbEntity
  8
0
100
AcDbSpline
 62
7
  6
BYLAYER
 70
0
 71
3
 72
11
 73
7
 74
0
 42
0.0000001
 43
0.0000001
 44
0.0000000001
 40
0.0
 40
0.0
 40
0.0
 40
0.0
 40
0.2469001835
 40
0.4944875016
 40
0.7448027338
 40
1.0
 40
1.0
 40
1.0
 40
1.0
 10
76.7098584723
 20
203.9096384156
 30
0.0
 10
76.746266339
 20
204.0036319268
 30
0.0
 10
76.8389461045
 20
204.1847679349
 30
0.0
 10
77.0271034859
 20
204.4256045348
 30
0.0
 10
77.2555079751
 20
204.6333329011
 30
0.0
 10
77.4278302718
 20
204.7483062091
 30
0.0
 10
77.5180570966
 20
204.8004001801
 30
0.0
  0
SPLINE
  5
404
100
AcDbEntity
  8
0
100
AcDbSpline
 62
7
  6
BYLAYER
 70
0
 71
3
 72
11
 73
7
 74
0
 42
0.0000001
 43
0.0000001
 44
0.0000000001
 40
0.0
 40
0.0
 40
0.0
 40
0.0
 40
0.2552218005
 40
0.5053824189
 40
0.7529302382
 40
1.0
 40
1.0
 40
1.0
 40
1.0
 10
80.708481445
 20
204.8004001801
 30
0.0
 10
80.8037715927
 20
204.7453828147
 30
0.0
 10
80.9853460621
 20
204.6232873717
 30
0.0
 10
81.223684804
 20
204.4006499741
 30
0.0
 10
81.4160196898
 20
204.1411656468
 30
0.0
 10
81.5062862166
 20
203.9458368748
 30
0.0
 10
81.5400601753
 20
203.8448152566
 30
0.0
  0
SPLINE
  5
405
100
AcDbEntity
  8
0
100
AcDbSpline
 62
7
  6
BYLAYER
 70
0
 71
3
 72
13
 73
9
 74
0
 42
0.0000001
 43
0.0000001
 44
0.0000000001
 40
0.0
 40
0.0
 40
0.0
 40
0.0
 40
0.2431353558
 40
0.3705688964
 40
0.500006671
 40
0.6294430846
 40
0.7568756268
 40
1.0
 40
1.0
 40
1.0
 40
1.0
 10
77.5180570966
 20
204.8004001801
 30
0.0
 10
77.7508126551
 20
204.9347855065
 30
0.0
 10
78.1410532867
 20
205.0813555027
 30
0.0
 10
78.68586637
 20
205.1774986241
 30
0.0
 10
79.1132633153
 20
205.2021632561
 30
0.0
 10
79.5406595488
 20
205.1775018859
 30
0.0
 10
80.0854575575
 20
205.0813583335
 30
0.0
 10
80.4756872385
 20
204.934800938
 30
0.0
 10
80.7084352632
 20
204.8004268432
 30
0.0
  0
SPLINE
  5
406
100
AcDbEntity
  8
0
100
AcDbSpline
 62
7
  6
BYLAYER
 70
0
 71
3
 72
9
 73
5
 74
0
 42
0.0000001
 43
0.0000001
 44
0.0000000001
 40
0.0
 40
0.0
 40
0.0
 40
0.0
 40
0.4744336899
 40
1.0
 40
1.0
 40
1.0
 40
1.0
 10
78.100924516
 20
204.6925396024
 30
0.0
 10
78.1260194033
 20
204.7070280559
 30
0.0
 10
78.1843594196
 20
204.7281759327
 30
0.0
 10
78.2456008373
 20
204.7348148405
 30
0.0
 10
78.2777009064
 20
204.7348149177
 30
0.0
  0
SPLINE
  5
407
100
AcDbEntity
  8
0
100
AcDbSpline
 62
7
  6
BYLAYER
 70
0
 71
3
 72
11
 73
7
 74
0
 42
0.0000001
 43
0.0000001
 44
0.0000000001
 40
0.0
 40
0.0
 40
0.0
 40
0.0
 40
0.2177164324
 40
0.4509408358
 40
0.7102939719
 40
1.0
 40
1.0
 40
1.0
 40
1.0
 10
77.9769025522
 20
204.5611499435
 30
0.0
 10
77.9769024835
 20
204.5706691063
 30
0.0
 10
77.9804274974
 20
204.5905154476
 30
0.0
 10
77.9954620202
 20
204.6181747225
 30
0.0
 10
78.0192573689
 20
204.6431679971
 30
0.0
 10
78.0391553803
 20
204.6568773882
 30
0.0
 10
78.0501251209
 20
204.6632107331
 30
0.0
  0
SPLINE
  5
408
100
AcDbEntity
  8
0
100
AcDbSpline
 62
7
  6
BYLAYER
 70
0
 71
3
 72
11
 73
7
 74
0
 42
0.0000001
 43
0.0000001
 44
0.0000000001
 40
0.0
 40
0.0
 40
0.0
 40
0.0
 40
0.2897062311
 40
0.5490596185
 40
0.7822840529
 40
1.0
 40
1.0
 40
1.0
 40
1.0
 10
80.1337348572
 20
203.7230429328
 30
0.0
 10
80.144704693
 20
203.7167096384
 30
0.0
 10
80.1646029022
 20
203.7030003411
 30
0.0
 10
80.1883985986
 20
203.6780071943
 30
0.0
 10
80.2034335156
 20
203.6503480159
 30
0.0
 10
80.2069588292
 20
203.6305016732
 30
0.0
 10
80.2069588979
 20
203.6209824952
 30
0.0
  0
SPLINE
  5
409
100
AcDbEntity
  8
0
100
AcDbSpline
 62
7
  6
BYLAYER
 70
0
 71
3
 72
11
 73
7
 74
0
 42
0.0000001
 43
0.0000001
 44
0.0000000001
 40
0.0
 40
0.0
 40
0.0
 40
0.0
 40
0.2177159471
 40
0.4509403815
 40
0.7102937689
 40
1.0
 40
1.0
 40
1.0
 40
1.0
 10
79.6902112523
 20
204.0787480697
 30
0.0
 10
79.6902113667
 20
204.0628827731
 30
0.0
 10
79.6960868895
 20
204.0298055352
 30
0.0
 10
79.7211450844
 20
203.9837069046
 30
0.0
 10
79.7608045785
 20
203.9420516599
 30
0.0
 10
79.7939682604
 20
203.9192028311
 30
0.0
 10
79.8122513202
 20
203.9086473405
 30
0.0
  0
SPLINE
  5
40A
100
AcDbEntity
  8
0
100
AcDbSpline
 62
7
  6
BYLAYER
 70
0
 71
3
 72
11
 73
7
 74
0
 42
0.0000001
 43
0.0000001
 44
0.0000000001
 40
0.0
 40
0.0
 40
0.0
 40
0.0
 40
0.2897060281
 40
0.5490591642
 40
0.7822835676
 40
1.0
 40
1.0
 40
1.0
 40
1.0
 10
78.4142896751
 20
203.9086439804
 30
0.0
 10
78.432572576
 20
203.9191995551
 30
0.0
 10
78.4657359283
 20
203.9420485402
 30
0.0
 10
78.5053948427
 20
203.9837039979
 30
0.0
 10
78.5304523806
 20
204.0298027894
 30
0.0
 10
78.5363274037
 20
204.0628800248
 30
0.0
 10
78.5363272893
 20
204.0787452961
 30
0.0
  0
SPLINE
  5
40B
100
AcDbEntity
  8
0
100
AcDbSpline
 62
7
  6
BYLAYER
 70
0
 71
3
 72
11
 73
7
 74
0
 42
0.0000001
 43
0.0000001
 44
0.0000000001
 40
0.0
 40
0.0
 40
0.0
 40
0.0
 40
0.2177164324
 40
0.4509408358
 40
0.7102939719
 40
1.0
 40
1.0
 40
1.0
 40
1.0
 10
77.9982478778
 20
203.6086575984
 30
0.0
 10
77.9982478092
 20
203.6181767612
 30
0.0
 10
78.0017728231
 20
203.6380231024
 30
0.0
 10
78.0168073458
 20
203.6656823774
 30
0.0
 10
78.0406026946
 20
203.690675652
 30
0.0
 10
78.060500706
 20
203.7043850431
 30
0.0
 10
78.0714704465
 20
203.7107183879
 30
0.0
  0
SPLINE
  5
40C
100
AcDbEntity
  8
0
100
AcDbSpline
 62
7
  6
BYLAYER
 70
0
 71
3
 72
17
 73
13
 74
0
 42
0.0000001
 43
0.0000001
 44
0.0000000001
 40
0.0
 40
0.0
 40
0.0
 40
0.0
 40
0.1486547103
 40
0.2813662715
 40
0.3996031666
 40
0.4548775681
 40
0.5086637816
 40
0.5620379175
 40
0.6161205716
 40
0.7300914057
 40
0.857164896
 40
1.0
 40
1.0
 40
1.0
 40
1.0
 10
80.1996533983
 20
203.3490268197
 30
0.0
 10
80.2819597913
 20
203.3898762527
 30
0.0
 10
80.4322523737
 20
203.4795876729
 30
0.0
 10
80.6162744306
 20
203.6472171659
 30
0.0
 10
80.7206830494
 20
203.8086947951
 30
0.0
 10
80.7660791206
 20
203.9423069171
 30
0.0
 10
80.7817127871
 20
204.042020505
 30
0.0
 10
80.7792730361
 20
204.1422004721
 30
0.0
 10
80.7517180218
 20
204.2769324118
 30
0.0
 10
80.6688053483
 20
204.4431788623
 30
0.0
 10
80.506327551
 20
204.6191946691
 30
0.0
 10
80.3682346308
 20
204.7150090034
 30
0.0
 10
80.2917739362
 20
204.7591526073
 30
0.0
  0
SPLINE
  5
40D
100
AcDbEntity
  8
0
100
AcDbSpline
 62
7
  6
BYLAYER
 70
0
 71
3
 72
25
 73
21
 74
0
 42
0.0000001
 43
0.0000001
 44
0.0000000001
 40
0.0
 40
0.0
 40
0.0
 40
0.0
 40
0.0665637937
 40
0.138391792
 40
0.2139921413
 40
0.2915606686
 40
0.3691293309
 40
0.4447312631
 40
0.5165547627
 40
0.5831195928
 40
0.6434789023
 40
0.6974753975
 40
0.7460421602
 40
0.7690127253
 40
0.7915574428
 40
0.8141023608
 40
0.8370730709
 40
0.885638978
 40
0.9396409962
 40
1.0
 40
1.0
 40
1.0
 40
1.0
 10
80.2917739362
 20
204.7591526073
 30
0.0
 10
80.2110982529
 20
204.8057296811
 30
0.0
 10
80.0346774006
 20
204.8878775862
 30
0.0
 10
79.7473929887
 20
204.9752009654
 30
0.0
 10
79.4363565222
 20
205.0289389536
 30
0.0
 10
79.1132674942
 20
205.0470766971
 30
0.0
 10
78.7901687816
 20
205.0289353193
 30
0.0
 10
78.4791584778
 20
204.9752003147
 30
0.0
 10
78.1918062353
 20
204.8878402178
 30
0.0
 10
77.938676591
 20
204.7699984785
 30
0.0
 10
77.7289563672
 20
204.6255443392
 30
0.0
 10
77.5703737813
 20
204.4589971969
 30
0.0
 10
77.4852627487
 20
204.3021121092
 30
0.0
 10
77.4520997131
 20
204.1741174663
 30
0.0
 10
77.4438941601
 20
204.0787531485
 30
0.0
 10
77.4520964238
 20
203.9833880378
 30
0.0
 10
77.4852542076
 20
203.8553941472
 30
0.0
 10
77.5703659482
 20
203.6984892841
 30
0.0
 10
77.7289100005
 20
203.5319721892
 30
0.0
 10
77.8616091614
 20
203.4405761183
 30
0.0
 10
77.9347646053
 20
203.3983407586
 30
0.0
  0
SPLINE
  5
40E
100
AcDbEntity
  8
0
100
AcDbSpline
 62
7
  6
BYLAYER
 70
0
 71
3
 72
11
 73
7
 74
0
 42
0.0000001
 43
0.0000001
 44
0.0000000001
 40
0.0
 40
0.0
 40
0.0
 40
0.0
 40
0.2897062311
 40
0.5490596185
 40
0.7822840529
 40
1.0
 40
1.0
 40
1.0
 40
1.0
 10
80.1550666232
 20
204.650896205
 30
0.0
 10
80.166036459
 20
204.6445629106
 30
0.0
 10
80.1859346681
 20
204.6308536133
 30
0.0
 10
80.2097303646
 20
204.6058604665
 30
0.0
 10
80.2247652816
 20
204.5782012881
 30
0.0
 10
80.2282905952
 20
204.5583549454
 30
0.0
 10
80.2282906638
 20
204.5488357674
 30
0.0
  0
SPLINE
  5
40F
100
AcDbEntity
  8
0
100
AcDbSpline
 62
7
  6
BYLAYER
 70
0
 71
3
 72
9
 73
5
 74
0
 42
0.0000001
 43
0.0000001
 44
0.0000000001
 40
0.0
 40
0.0
 40
0.0
 40
0.0
 40
0.5255657768
 40
1.0
 40
1.0
 40
1.0
 40
1.0
 10
79.9274898048
 20
204.7224992956
 30
0.0
 10
79.9595899089
 20
204.7224993727
 30
0.0
 10
80.0208314864
 20
204.7158607363
 30
0.0
 10
80.0791717322
 20
204.6947131494
 30
0.0
 10
80.104266805
 20
204.6802248302
 30
0.0
  0
SPLINE
  5
410
100
AcDbEntity
  8
0
100
AcDbSpline
 62
7
  6
BYLAYER
 70
0
 71
3
 72
9
 73
5
 74
0
 42
0.0000001
 43
0.0000001
 44
0.0000000001
 40
0.0
 40
0.0
 40
0.0
 40
0.0
 40
0.4744336899
 40
1.0
 40
1.0
 40
1.0
 40
1.0
 10
79.7507134144
 20
204.6802239803
 30
0.0
 10
79.7758083017
 20
204.6947124338
 30
0.0
 10
79.834148318
 20
204.7158603106
 30
0.0
 10
79.8953897358
 20
204.7224992184
 30
0.0
 10
79.9274898048
 20
204.7224992956
 30
0.0
  0
SPLINE
  5
411
100
AcDbEntity
  8
0
100
AcDbSpline
 62
7
  6
BYLAYER
 70
0
 71
3
 72
9
 73
5
 74
0
 42
0.0000001
 43
0.0000001
 44
0.0000000001
 40
0.0
 40
0.0
 40
0.0
 40
0.0
 40
0.5255663101
 40
1.0
 40
1.0
 40
1.0
 40
1.0
 10
79.1132668688
 20
204.4118395293
 30
0.0
 10
79.1667669838
 20
204.4118396579
 30
0.0
 10
79.2688360133
 20
204.4229045043
 30
0.0
 10
79.3660693737
 20
204.4581509655
 30
0.0
 10
79.4078941858
 20
204.4822983879
 30
0.0
  0
SPLINE
  5
412
100
AcDbEntity
  8
0
100
AcDbSpline
 62
7
  6
BYLAYER
 70
0
 71
3
 72
9
 73
5
 74
0
 42
0.0000001
 43
0.0000001
 44
0.0000000001
 40
0.0
 40
0.0
 40
0.0
 40
0.0
 40
0.4744342232
 40
1.0
 40
1.0
 40
1.0
 40
1.0
 10
78.8186385352
 20
204.4822969716
 30
0.0
 10
78.8604636565
 20
204.4581497729
 30
0.0
 10
78.9576973996
 20
204.4229037948
 30
0.0
 10
79.0597666954
 20
204.4118394007
 30
0.0
 10
79.1132668688
 20
204.4118395293
 30
0.0
  0
SPLINE
  5
413
100
AcDbEntity
  8
0
100
AcDbSpline
 62
7
  6
BYLAYER
 70
0
 71
3
 72
9
 73
5
 74
0
 42
0.0000001
 43
0.0000001
 44
0.0000000001
 40
0.0
 40
0.0
 40
0.0
 40
0.0
 40
0.5255657768
 40
1.0
 40
1.0
 40
1.0
 40
1.0
 10
78.2777009064
 20
204.7348149177
 30
0.0
 10
78.3098010105
 20
204.7348149948
 30
0.0
 10
78.371042588
 20
204.7281763584
 30
0.0
 10
78.4293828338
 20
204.7070287715
 30
0.0
 10
78.4544779066
 20
204.6925404523
 30
0.0
  0
SPLINE
  5
414
100
AcDbEntity
  8
0
100
AcDbSpline
 62
7
  6
BYLAYER
 70
0
 71
3
 72
9
 73
5
 74
0
 42
0.0000001
 43
0.0000001
 44
0.0000000001
 40
0.0
 40
0.0
 40
0.0
 40
0.0
 40
0.5255657768
 40
1.0
 40
1.0
 40
1.0
 40
1.0
 10
93.8554626901
 20
194.4323869786
 30
0.0
 10
93.823362586
 20
194.4323869014
 30
0.0
 10
93.7621210085
 20
194.4390255379
 30
0.0
 10
93.7037807627
 20
194.4601731247
 30
0.0
 10
93.6786856899
 20
194.474661444
 30
0.0
  0
SPLINE
  5
415
100
AcDbEntity
  8
0
100
AcDbSpline
 62
7
  6
BYLAYER
 70
0
 71
3
 72
9
 73
5
 74
0
 42
0.0000001
 43
0.0000001
 44
0.0000000001
 40
0.0
 40
0.0
 40
0.0
 40
0.0
 40
0.4744336899
 40
1.0
 40
1.0
 40
1.0
 40
1.0
 10
94.0322390805
 20
194.4746622938
 30
0.0
 10
94.0071441932
 20
194.4601738404
 30
0.0
 10
93.9488041769
 20
194.4390259636
 30
0.0
 10
93.8875627591
 20
194.4323870558
 30
0.0
 10
93.8554626901
 20
194.4323869786
 30
0.0
  0
SPLINE
  5
416
100
AcDbEntity
  8
0
100
AcDbSpline
 62
7
  6
BYLAYER
 70
0
 71
3
 72
9
 73
5
 74
0
 42
0.0000001
 43
0.0000001
 44
0.0000000001
 40
0.0
 40
0.0
 40
0.0
 40
0.0
 40
0.5255663101
 40
1.0
 40
1.0
 40
1.0
 40
1.0
 10
94.6696856261
 20
194.7430467448
 30
0.0
 10
94.616185511
 20
194.7430466162
 30
0.0
 10
94.5141164816
 20
194.7319817699
 30
0.0
 10
94.4168831212
 20
194.6967353087
 30
0.0
 10
94.3750583091
 20
194.6725878863
 30
0.0
  0
SPLINE
  5
417
100
AcDbEntity
  8
0
100
AcDbSpline
 62
7
  6
BYLAYER
 70
0
 71
3
 72
9
 73
5
 74
0
 42
0.0000001
 43
0.0000001
 44
0.0000000001
 40
0.0
 40
0.0
 40
0.0
 40
0.0
 40
0.4744342232
 40
1.0
 40
1.0
 40
1.0
 40
1.0
 10
94.9643139597
 20
194.6725893025
 30
0.0
 10
94.9224888383
 20
194.6967365013
 30
0.0
 10
94.8252550953
 20
194.7319824794
 30
0.0
 10
94.7231857995
 20
194.7430468734
 30
0.0
 10
94.6696856261
 20
194.7430467448
 30
0.0
  0
SPLINE
  5
418
100
AcDbEntity
  8
0
100
AcDbSpline
 62
7
  6
BYLAYER
 70
0
 71
3
 72
9
 73
5
 74
0
 42
0.0000001
 43
0.0000001
 44
0.0000000001
 40
0.0
 40
0.0
 40
0.0
 40
0.0
 40
0.5255657768
 40
1.0
 40
1.0
 40
1.0
 40
1.0
 10
95.4625744969
 20
194.4447104294
 30
0.0
 10
95.4304743928
 20
194.4447103522
 30
0.0
 10
95.3692328153
 20
194.4513489887
 30
0.0
 10
95.3108925695
 20
194.4724965755
 30
0.0
 10
95.2857974967
 20
194.4869848948
 30
0.0
  0
SPLINE
  5
419
100
AcDbEntity
  8
0
100
AcDbSpline
 62
7
  6
BYLAYER
 70
0
 71
3
 72
9
 73
5
 74
0
 42
0.0000001
 43
0.0000001
 44
0.0000000001
 40
0.0
 40
0.0
 40
0.0
 40
0.0
 40
0.4744336899
 40
1.0
 40
1.0
 40
1.0
 40
1.0
 10
95.6393508873
 20
194.4869857446
 30
0.0
 10
95.614256
 20
194.4724972912
 30
0.0
 10
95.5559159837
 20
194.4513494144
 30
0.0
 10
95.4946745659
 20
194.4447105065
 30
0.0
 10
95.4625744969
 20
194.4447104294
 30
0.0
  0
SPLINE
  5
41A
100
AcDbEntity
  8
0
100
AcDbSpline
 62
7
  6
BYLAYER
 70
0
 71
3
 72
11
 73
7
 74
0
 42
0.0000001
 43
0.0000001
 44
0.0000000001
 40
0.0
 40
0.0
 40
0.0
 40
0.0
 40
0.2177164324
 40
0.4509408358
 40
0.7102939719
 40
1.0
 40
1.0
 40
1.0
 40
1.0
 10
95.7633728511
 20
194.6183754036
 30
0.0
 10
95.7633729198
 20
194.6088562408
 30
0.0
 10
95.7598479059
 20
194.5890098995
 30
0.0
 10
95.7448133831
 20
194.5613506245
 30
0.0
 10
95.7210180344
 20
194.5363573499
 30
0.0
 10
95.7011200229
 20
194.5226479588
 30
0.0
 10
95.6901502824
 20
194.516314614
 30
0.0
  0
SPLINE
  5
41B
100
AcDbEntity
  8
0
100
AcDbSpline
 62
7
  6
BYLAYER
 70
0
 71
3
 72
11
 73
7
 74
0
 42
0.0000001
 43
0.0000001
 44
0.0000000001
 40
0.0
 40
0.0
 40
0.0
 40
0.0
 40
0.2897060281
 40
0.5490591642
 40
0.7822835676
 40
1.0
 40
1.0
 40
1.0
 40
1.0
 10
95.3686628198
 20
195.2462422937
 30
0.0
 10
95.3503799189
 20
195.235686719
 30
0.0
 10
95.3172165666
 20
195.2128377339
 30
0.0
 10
95.2775576522
 20
195.1711822762
 30
0.0
 10
95.2525001143
 20
195.1250834847
 30
0.0
 10
95.2466250912
 20
195.0920062493
 30
0.0
 10
95.2466252056
 20
195.076140978
 30
0.0
  0
SPLINE
  5
41C
100
AcDbEntity
  8
0
100
AcDbSpline
 62
7
  6
BYLAYER
 70
0
 71
3
 72
11
 73
7
 74
0
 42
0.0000001
 43
0.0000001
 44
0.0000000001
 40
0.0
 40
0.0
 40
0.0
 40
0.0
 40
0.2177164324
 40
0.4509408358
 40
0.7102939719
 40
1.0
 40
1.0
 40
1.0
 40
1.0
 10
95.7847046171
 20
195.5462286758
 30
0.0
 10
95.7847046857
 20
195.536709513
 30
0.0
 10
95.7811796718
 20
195.5168631717
 30
0.0
 10
95.7661451491
 20
195.4892038968
 30
0.0
 10
95.7423498003
 20
195.4642106221
 30
0.0
 10
95.7224517889
 20
195.450501231
 30
0.0
 10
95.7114820484
 20
195.4441678862
 30
0.0
  0
SPLINE
  5
41D
100
AcDbEntity
  8
0
100
AcDbSpline
 62
7
  6
BYLAYER
 70
0
 71
3
 72
11
 73
7
 74
0
 42
0.0000001
 43
0.0000001
 44
0.0000000001
 40
0.0
 40
0.0
 40
0.0
 40
0.0
 40
0.2897062311
 40
0.5490596185
 40
0.7822840529
 40
1.0
 40
1.0
 40
1.0
 40
1.0
 10
93.6065405461
 20
195.4564824143
 30
0.0
 10
93.5955707102
 20
195.4628157087
 30
0.0
 10
93.5756725011
 20
195.476525006
 30
0.0
 10
93.5518768046
 20
195.5015181528
 30
0.0
 10
93.5368418877
 20
195.5291773312
 30
0.0
 10
93.533316574
 20
195.5490236739
 30
0.0
 10
93.5333165054
 20
195.5585428518
 30
0.0
  0
SPLINE
  5
41E
100
AcDbEntity
  8
0
100
AcDbSpline
 62
7
  6
BYLAYER
 70
0
 71
3
 72
11
 73
7
 74
0
 42
0.0000001
 43
0.0000001
 44
0.0000000001
 40
0.0
 40
0.0
 40
0.0
 40
0.0
 40
0.2177159471
 40
0.4509403815
 40
0.7102937689
 40
1.0
 40
1.0
 40
1.0
 40
1.0
 10
94.0927412426
 20
195.0761382044
 30
0.0
 10
94.0927411282
 20
195.092003501
 30
0.0
 10
94.0868656054
 20
195.1250807389
 30
0.0
 10
94.0618074105
 20
195.1711793695
 30
0.0
 10
94.0221479164
 20
195.2128346142
 30
0.0
 10
93.9889842345
 20
195.235683443
 30
0.0
 10
93.9707011747
 20
195.2462389337
 30
0.0
  0
SPLINE
  5
41F
100
AcDbEntity
  8
0
100
AcDbSpline
 62
7
  6
BYLAYER
 70
0
 71
3
 72
11
 73
7
 74
0
 42
0.0000001
 43
0.0000001
 44
0.0000000001
 40
0.0
 40
0.0
 40
0.0
 40
0.0
 40
0.2897062311
 40
0.5490596185
 40
0.7822840529
 40
1.0
 40
1.0
 40
1.0
 40
1.0
 10
93.6278858717
 20
194.5039900692
 30
0.0
 10
93.6169160359
 20
194.5103233636
 30
0.0
 10
93.5970178268
 20
194.5240326608
 30
0.0
 10
93.5732221303
 20
194.5490258077
 30
0.0
 10
93.5581872133
 20
194.576684986
 30
0.0
 10
93.5546618997
 20
194.5965313288
 30
0.0
 10
93.554661831
 20
194.6060505067
 30
0.0
  0
SPLINE
  5
420
100
AcDbEntity
  8
0
100
AcDbSpline
 62
7
  6
BYLAYER
 70
0
 71
3
 72
15
 73
11
 74
0
 42
0.0000001
 43
0.0000001
 44
0.0000000001
 40
0.0
 40
0.0
 40
0.0
 40
0.0
 40
0.0972927074
 40
0.1987250585
 40
0.3076309575
 40
0.4261295375
 40
0.555122274
 40
0.694483775
 40
0.8432867166
 40
1.0
 40
1.0
 40
1.0
 40
1.0
 10
97.1696761849
 20
193.7153022573
 30
0.0
 10
97.1696695063
 20
193.6429955949
 30
0.0
 10
97.1500184037
 20
193.4946583936
 30
0.0
 10
97.0636095528
 20
193.2807735593
 30
0.0
 10
96.9235570243
 20
193.0783997113
 30
0.0
 10
96.7339402441
 20
192.891626126
 30
0.0
 10
96.4992511161
 20
192.7238378937
 30
0.0
 10
96.2246171867
 20
192.5782877021
 30
0.0
 10
95.9160015551
 20
192.4579358513
 30
0.0
 10
95.6966968333
 20
192.3974866284
 30
0.0
 10
95.5831103902
 20
192.3717428658
 30
0.0
  0
SPLINE
  5
421
100
AcDbEntity
  8
0
100
AcDbSpline
 62
7
  6
BYLAYER
 70
0
 71
3
 72
11
 73
7
 74
0
 42
0.0000001
 43
0.0000001
 44
0.0000000001
 40
0.0
 40
0.0
 40
0.0
 40
0.0
 40
0.2469625363
 40
0.4945333068
 40
0.7447951605
 40
1.0
 40
1.0
 40
1.0
 40
1.0
 10
92.2574709657
 20
194.883726564
 30
0.0
 10
92.292999782
 20
194.9802618477
 30
0.0
 10
92.3849325217
 20
195.1665035457
 30
0.0
 10
92.5747033107
 20
195.4140258608
 30
0.0
 10
92.8067423153
 20
195.6271021221
 30
0.0
 10
92.9824142113
 20
195.7446425282
 30
0.0
 10
93.0744710498
 20
195.7977930883
 30
0.0
  0
SPLINE
  5
422
100
AcDbEntity
  8
0
100
AcDbSpline
 62
7
  6
BYLAYER
 70
0
 71
3
 72
13
 73
9
 74
0
 42
0.0000001
 43
0.0000001
 44
0.0000000001
 40
0.0
 40
0.0
 40
0.0
 40
0.0
 40
0.2547136527
 40
0.5036455312
 40
0.6276145894
 40
0.7516483046
 40
0.8756553856
 40
1.0
 40
1.0
 40
1.0
 40
1.0
 10
96.2648953982
 20
195.7977930883
 30
0.0
 10
96.3933431733
 20
195.7236316105
 30
0.0
 10
96.6346874863
 20
195.5530194839
 30
0.0
 10
96.8805850696
 20
195.277194995
 30
0.0
 10
97.0265366906
 20
195.0263487966
 30
0.0
 10
97.1078833528
 20
194.8247129772
 30
0.0
 10
97.1583415406
 20
194.6130020023
 30
0.0
 10
97.169683224
 20
194.4681267866
 30
0.0
 10
97.169683224
 20
194.3957209103
 30
0.0
  0
SPLINE
  5
423
100
AcDbEntity
  8
0
100
AcDbSpline
 62
7
  6
BYLAYER
 70
0
 71
3
 72
13
 73
9
 74
0
 42
0.0000001
 43
0.0000001
 44
0.0000000001
 40
0.0
 40
0.0
 40
0.0
 40
0.0
 40
0.2431353558
 40
0.3705688964
 40
0.500006671
 40
0.6294430846
 40
0.7568756268
 40
1.0
 40
1.0
 40
1.0
 40
1.0
 10
93.0744710498
 20
195.7977930883
 30
0.0
 10
93.3072266083
 20
195.9321784148
 30
0.0
 10
93.6974672399
 20
196.078748411
 30
0.0
 10
94.2422803233
 20
196.1748915323
 30
0.0
 10
94.6696772685
 20
196.1995561644
 30
0.0
 10
95.097073502
 20
196.1748947942
 30
0.0
 10
95.6418715107
 20
196.0787512417
 30
0.0
 10
96.0321011918
 20
195.9321938462
 30
0.0
 10
96.2648492165
 20
195.7978197515
 30
0.0
  0
SPLINE
  5
424
100
AcDbEntity
  8
0
100
AcDbSpline
 62
7
  6
BYLAYER
 70
0
 71
3
 72
9
 73
5
 74
0
 42
0.0000001
 43
0.0000001
 44
0.0000000001
 40
0.0
 40
0.0
 40
0.0
 40
0.0
 40
0.4744336899
 40
1.0
 40
1.0
 40
1.0
 40
1.0
 10
93.6573384692
 20
195.6899325108
 30
0.0
 10
93.6824333565
 20
195.7044209642
 30
0.0
 10
93.7407733728
 20
195.725568841
 30
0.0
 10
93.8020147906
 20
195.7322077489
 30
0.0
 10
93.8341148596
 20
195.732207826
 30
0.0
  0
SPLINE
  5
425
100
AcDbEntity
  8
0
100
AcDbSpline
 62
7
  6
BYLAYER
 70
0
 71
3
 72
11
 73
7
 74
0
 42
0.0000001
 43
0.0000001
 44
0.0000000001
 40
0.0
 40
0.0
 40
0.0
 40
0.0
 40
0.2177164324
 40
0.4509408358
 40
0.7102939719
 40
1.0
 40
1.0
 40
1.0
 40
1.0
 10
93.5333165054
 20
195.5585428518
 30
0.0
 10
93.5333164367
 20
195.5680620146
 30
0.0
 10
93.5368414506
 20
195.5879083559
 30
0.0
 10
93.5518759734
 20
195.6155676309
 30
0.0
 10
93.5756713221
 20
195.6405609055
 30
0.0
 10
93.5955693336
 20
195.6542702966
 30
0.0
 10
93.6065390741
 20
195.6606036414
 30
0.0
  0
SPLINE
  5
426
100
AcDbEntity
  8
0
100
AcDbSpline
 62
7
  6
BYLAYER
 70
0
 71
3
 72
11
 73
7
 74
0
 42
0.0000001
 43
0.0000001
 44
0.0000000001
 40
0.0
 40
0.0
 40
0.0
 40
0.0
 40
0.2897062311
 40
0.5490596185
 40
0.7822840529
 40
1.0
 40
1.0
 40
1.0
 40
1.0
 10
95.6901488104
 20
194.7204358411
 30
0.0
 10
95.7011186463
 20
194.7141025467
 30
0.0
 10
95.7210168554
 20
194.7003932494
 30
0.0
 10
95.7448125519
 20
194.6754001026
 30
0.0
 10
95.7598474688
 20
194.6477409242
 30
0.0
 10
95.7633727825
 20
194.6278945815
 30
0.0
 10
95.7633728511
 20
194.6183754036
 30
0.0
  0
SPLINE
  5
427
100
AcDbEntity
  8
0
100
AcDbSpline
 62
7
  6
BYLAYER
 70
0
 71
3
 72
11
 73
7
 74
0
 42
0.0000001
 43
0.0000001
 44
0.0000000001
 40
0.0
 40
0.0
 40
0.0
 40
0.0
 40
0.2177159471
 40
0.4509403815
 40
0.7102937689
 40
1.0
 40
1.0
 40
1.0
 40
1.0
 10
95.2466252056
 20
195.076140978
 30
0.0
 10
95.24662532
 20
195.0602756815
 30
0.0
 10
95.2525008427
 20
195.0271984436
 30
0.0
 10
95.2775590376
 20
194.981099813
 30
0.0
 10
95.3172185318
 20
194.9394445682
 30
0.0
 10
95.3503822136
 20
194.9165957395
 30
0.0
 10
95.3686652734
 20
194.9060402488
 30
0.0
  0
SPLINE
  5
428
100
AcDbEntity
  8
0
100
AcDbSpline
 62
7
  6
BYLAYER
 70
0
 71
3
 72
11
 73
7
 74
0
 42
0.0000001
 43
0.0000001
 44
0.0000000001
 40
0.0
 40
0.0
 40
0.0
 40
0.0
 40
0.2897060281
 40
0.5490591642
 40
0.7822835676
 40
1.0
 40
1.0
 40
1.0
 40
1.0
 10
93.9707036284
 20
194.9060368887
 30
0.0
 10
93.9889865292
 20
194.9165924635
 30
0.0
 10
94.0221498815
 20
194.9394414486
 30
0.0
 10
94.061808796
 20
194.9810969062
 30
0.0
 10
94.0868663338
 20
195.0271956977
 30
0.0
 10
94.092741357
 20
195.0602729332
 30
0.0
 10
94.0927412426
 20
195.0761382044
 30
0.0
  0
SPLINE
  5
429
100
AcDbEntity
  8
0
100
AcDbSpline
 62
7
  6
BYLAYER
 70
0
 71
3
 72
11
 73
7
 74
0
 42
0.0000001
 43
0.0000001
 44
0.0000000001
 40
0.0
 40
0.0
 40
0.0
 40
0.0
 40
0.2177164324
 40
0.4509408358
 40
0.7102939719
 40
1.0
 40
1.0
 40
1.0
 40
1.0
 10
93.554661831
 20
194.6060505067
 30
0.0
 10
93.5546617624
 20
194.6155696695
 30
0.0
 10
93.5581867763
 20
194.6354160108
 30
0.0
 10
93.5732212991
 20
194.6630752857
 30
0.0
 10
93.5970166478
 20
194.6880685603
 30
0.0
 10
93.6169146592
 20
194.7017779514
 30
0.0
 10
93.6278843998
 20
194.7081112963
 30
0.0
  0
SPLINE
  5
42A
100
AcDbEntity
  8
0
100
AcDbSpline
 62
7
  6
BYLAYER
 70
0
 71
3
 72
25
 73
21
 74
0
 42
0.0000001
 43
0.0000001
 44
0.0000000001
 40
0.0
 40
0.0
 40
0.0
 40
0.0
 40
0.0665637937
 40
0.138391792
 40
0.2139921413
 40
0.2915606686
 40
0.3691293309
 40
0.4447312631
 40
0.5165547627
 40
0.5831195928
 40
0.6434789023
 40
0.6974753975
 40
0.7460421602
 40
0.7690127253
 40
0.7915574428
 40
0.8141023608
 40
0.8370730709
 40
0.885638978
 40
0.9396409962
 40
1.0
 40
1.0
 40
1.0
 40
1.0
 10
93.4911785586
 20
194.3957336669
 30
0.0
 10
93.5718542419
 20
194.3491565931
 30
0.0
 10
93.7482750943
 20
194.2670086879
 30
0.0
 10
94.0355595061
 20
194.1796853088
 30
0.0
 10
94.3465959727
 20
194.1259473205
 30
0.0
 10
94.6696850007
 20
194.107809577
 30
0.0
 10
94.9927837132
 20
194.1259509549
 30
0.0
 10
95.303794017
 20
194.1796859595
 30
0.0
 10
95.5911462595
 20
194.2670460564
 30
0.0
 10
95.8442759038
 20
194.3848877957
 30
0.0
 10
96.0539961276
 20
194.5293419349
 30
0.0
 10
96.2125787135
 20
194.6958890773
 30
0.0
 10
96.2976897461
 20
194.852774165
 30
0.0
 10
96.3308527818
 20
194.9807688079
 30
0.0
 10
96.3390583348
 20
195.0761331257
 30
0.0
 10
96.330856071
 20
195.1714982363
 30
0.0
 10
96.2976982872
 20
195.299492127
 30
0.0
 10
96.2125865466
 20
195.4563969901
 30
0.0
 10
96.0540424943
 20
195.622914085
 30
0.0
 10
95.9213433334
 20
195.7143101559
 30
0.0
 10
95.8481878895
 20
195.7565455156
 30
0.0
  0
SPLINE
  5
42B
100
AcDbEntity
  8
0
100
AcDbSpline
 62
7
  6
BYLAYER
 70
0
 71
3
 72
15
 73
11
 74
0
 42
0.0000001
 43
0.0000001
 44
0.0000000001
 40
0.0
 40
0.0
 40
0.0
 40
0.0
 40
0.1570595056
 40
0.3066641387
 40
0.4469315148
 40
0.5766101058
 40
0.6953114901
 40
0.8037826588
 40
0.9041579956
 40
1.0
 40
1.0
 40
1.0
 40
1.0
 10
95.420828981
 20
193.0190567327
 30
0.0
 10
95.5441825257
 20
193.0414882035
 30
0.0
 10
95.7831544121
 20
193.0967716261
 30
0.0
 10
96.1211226308
 20
193.213214123
 30
0.0
 10
96.4236848366
 20
193.3588604775
 30
0.0
 10
96.683523774
 20
193.5303878133
 30
0.0
 10
96.894353761
 20
193.7240876801
 30
0.0
 10
97.0507010169
 20
193.9361082904
 30
0.0
 10
97.1475560677
 20
194.1618220586
 30
0.0
 10
97.1696717569
 20
194.3192127398
 30
0.0
 10
97.1696785536
 20
194.3957209104
 30
0.0
  0
SPLINE
  5
42C
100
AcDbEntity
  8
0
100
AcDbSpline
 62
7
  6
BYLAYER
 70
0
 71
3
 72
25
 73
21
 74
0
 42
0.0000001
 43
0.0000001
 44
0.0000000001
 40
0.0
 40
0.0
 40
0.0
 40
0.0
 40
0.0665637937
 40
0.138391792
 40
0.2139921413
 40
0.2915606686
 40
0.3691293309
 40
0.4447312631
 40
0.5165547627
 40
0.5831195928
 40
0.6434789023
 40
0.6974753975
 40
0.7460421602
 40
0.7690127253
 40
0.7915574428
 40
0.8141023608
 40
0.8370730709
 40
0.885638978
 40
0.9396409962
 40
1.0
 40
1.0
 40
1.0
 40
1.0
 10
95.8481878895
 20
195.7565455156
 30
0.0
 10
95.7675122062
 20
195.8031225894
 30
0.0
 10
95.5910913538
 20
195.8852704946
 30
0.0
 10
95.303806942
 20
195.9725938737
 30
0.0
 10
94.9927704754
 20
196.026331862
 30
0.0
 10
94.6696814474
 20
196.0444696055
 30
0.0
 10
94.3465827349
 20
196.0263282276
 30
0.0
 10
94.035572431
 20
195.972593223
 30
0.0
 10
93.7482201885
 20
195.8852331261
 30
0.0
 10
93.4950905443
 20
195.7673913869
 30
0.0
 10
93.2853703204
 20
195.6229372476
 30
0.0
 10
93.1267877345
 20
195.4563901052
 30
0.0
 10
93.0416767019
 20
195.2995050176
 30
0.0
 10
93.0085136663
 20
195.1715103746
 30
0.0
 10
93.0003081133
 20
195.0761460568
 30
0.0
 10
93.0085103771
 20
194.9807809462
 30
0.0
 10
93.0416681609
 20
194.8527870555
 30
0.0
 10
93.1267799015
 20
194.6958821924
 30
0.0
 10
93.2853239537
 20
194.5293650975
 30
0.0
 10
93.4180231147
 20
194.4379690266
 30
0.0
 10
93.4911785586
 20
194.3957336669
 30
0.0
  0
SPLINE
  5
42D
100
AcDbEntity
  8
0
100
AcDbSpline
 62
7
  6
BYLAYER
 70
0
 71
3
 72
11
 73
7
 74
0
 42
0.0000001
 43
0.0000001
 44
0.0000000001
 40
0.0
 40
0.0
 40
0.0
 40
0.0
 40
0.2897062311
 40
0.5490596185
 40
0.7822840529
 40
1.0
 40
1.0
 40
1.0
 40
1.0
 10
95.7114805764
 20
195.6482891133
 30
0.0
 10
95.7224504122
 20
195.6419558189
 30
0.0
 10
95.7423486214
 20
195.6282465216
 30
0.0
 10
95.7661443178
 20
195.6032533748
 30
0.0
 10
95.7811792348
 20
195.5755941964
 30
0.0
 10
95.7847045484
 20
195.5557478537
 30
0.0
 10
95.7847046171
 20
195.5462286758
 30
0.0
  0
SPLINE
  5
42E
100
AcDbEntity
  8
0
100
AcDbSpline
 62
7
  6
BYLAYER
 70
0
 71
3
 72
9
 73
5
 74
0
 42
0.0000001
 43
0.0000001
 44
0.0000000001
 40
0.0
 40
0.0
 40
0.0
 40
0.0
 40
0.5255657768
 40
1.0
 40
1.0
 40
1.0
 40
1.0
 10
95.4839037581
 20
195.7198922039
 30
0.0
 10
95.5160038621
 20
195.719892281
 30
0.0
 10
95.5772454396
 20
195.7132536446
 30
0.0
 10
95.6355856854
 20
195.6921060577
 30
0.0
 10
95.6606807582
 20
195.6776177385
 30
0.0
  0
SPLINE
  5
42F
100
AcDbEntity
  8
0
100
AcDbSpline
 62
7
  6
BYLAYER
 70
0
 71
3
 72
9
 73
5
 74
0
 42
0.0000001
 43
0.0000001
 44
0.0000000001
 40
0.0
 40
0.0
 40
0.0
 40
0.0
 40
0.4744336899
 40
1.0
 40
1.0
 40
1.0
 40
1.0
 10
95.3071273676
 20
195.6776168886
 30
0.0
 10
95.3322222549
 20
195.6921053421
 30
0.0
 10
95.3905622712
 20
195.7132532189
 30
0.0
 10
95.451803689
 20
195.7198921267
 30
0.0
 10
95.4839037581
 20
195.7198922039
 30
0.0
  0
SPLINE
  5
430
100
AcDbEntity
  8
0
100
AcDbSpline
 62
7
  6
BYLAYER
 70
0
 71
3
 72
9
 73
5
 74
0
 42
0.0000001
 43
0.0000001
 44
0.0000000001
 40
0.0
 40
0.0
 40
0.0
 40
0.0
 40
0.5255663101
 40
1.0
 40
1.0
 40
1.0
 40
1.0
 10
94.669680822
 20
195.4092324376
 30
0.0
 10
94.7231809371
 20
195.4092325662
 30
0.0
 10
94.8252499665
 20
195.4202974126
 30
0.0
 10
94.922483327
 20
195.4555438738
 30
0.0
 10
94.964308139
 20
195.4796912962
 30
0.0
  0
SPLINE
  5
431
100
AcDbEntity
  8
0
100
AcDbSpline
 62
7
  6
BYLAYER
 70
0
 71
3
 72
9
 73
5
 74
0
 42
0.0000001
 43
0.0000001
 44
0.0000000001
 40
0.0
 40
0.0
 40
0.0
 40
0.0
 40
0.4744342232
 40
1.0
 40
1.0
 40
1.0
 40
1.0
 10
94.3750524885
 20
195.47968988
 30
0.0
 10
94.4168776098
 20
195.4555426812
 30
0.0
 10
94.5141113528
 20
195.4202967031
 30
0.0
 10
94.6161806486
 20
195.409232309
 30
0.0
 10
94.669680822
 20
195.4092324376
 30
0.0
  0
SPLINE
  5
432
100
AcDbEntity
  8
0
100
AcDbSpline
 62
7
  6
BYLAYER
 70
0
 71
3
 72
9
 73
5
 74
0
 42
0.0000001
 43
0.0000001
 44
0.0000000001
 40
0.0
 40
0.0
 40
0.0
 40
0.0
 40
0.5255657768
 40
1.0
 40
1.0
 40
1.0
 40
1.0
 10
93.8341148596
 20
195.732207826
 30
0.0
 10
93.8662149637
 20
195.7322079032
 30
0.0
 10
93.9274565412
 20
195.7255692667
 30
0.0
 10
93.985796787
 20
195.7044216799
 30
0.0
 10
94.0108918598
 20
195.6899333606
 30
0.0
  0
SPLINE
  5
433
100
AcDbEntity
  8
0
100
AcDbSpline
 62
7
  6
BYLAYER
 70
0
 71
3
 72
9
 73
5
 74
0
 42
0.0000001
 43
0.0000001
 44
0.0000000001
 40
0.0
 40
0.0
 40
0.0
 40
0.0
 40
0.5255657768
 40
1.0
 40
1.0
 40
1.0
 40
1.0
 10
62.7427643181
 20
194.4536226851
 30
0.0
 10
62.7106642141
 20
194.4536226079
 30
0.0
 10
62.6494226366
 20
194.4602612444
 30
0.0
 10
62.5910823907
 20
194.4814088312
 30
0.0
 10
62.565987318
 20
194.4958971505
 30
0.0
  0
SPLINE
  5
434
100
AcDbEntity
  8
0
100
AcDbSpline
 62
7
  6
BYLAYER
 70
0
 71
3
 72
9
 73
5
 74
0
 42
0.0000001
 43
0.0000001
 44
0.0000000001
 40
0.0
 40
0.0
 40
0.0
 40
0.0
 40
0.4744336899
 40
1.0
 40
1.0
 40
1.0
 40
1.0
 10
62.9195407085
 20
194.4958980003
 30
0.0
 10
62.8944458213
 20
194.4814095469
 30
0.0
 10
62.8361058049
 20
194.4602616701
 30
0.0
 10
62.7748643872
 20
194.4536227622
 30
0.0
 10
62.7427643181
 20
194.4536226851
 30
0.0
  0
SPLINE
  5
435
100
AcDbEntity
  8
0
100
AcDbSpline
 62
7
  6
BYLAYER
 70
0
 71
3
 72
9
 73
5
 74
0
 42
0.0000001
 43
0.0000001
 44
0.0000000001
 40
0.0
 40
0.0
 40
0.0
 40
0.0
 40
0.5255663101
 40
1.0
 40
1.0
 40
1.0
 40
1.0
 10
63.5569872541
 20
194.7642824513
 30
0.0
 10
63.5034871391
 20
194.7642823227
 30
0.0
 10
63.4014181096
 20
194.7532174764
 30
0.0
 10
63.3041847492
 20
194.7179710152
 30
0.0
 10
63.2623599372
 20
194.6938235928
 30
0.0
  0
SPLINE
  5
436
100
AcDbEntity
  8
0
100
AcDbSpline
 62
7
  6
BYLAYER
 70
0
 71
3
 72
9
 73
5
 74
0
 42
0.0000001
 43
0.0000001
 44
0.0000000001
 40
0.0
 40
0.0
 40
0.0
 40
0.0
 40
0.4744342232
 40
1.0
 40
1.0
 40
1.0
 40
1.0
 10
63.8516155877
 20
194.693825009
 30
0.0
 10
63.8097904664
 20
194.7179722078
 30
0.0
 10
63.7125567234
 20
194.7532181859
 30
0.0
 10
63.6104874276
 20
194.7642825799
 30
0.0
 10
63.5569872541
 20
194.7642824513
 30
0.0
  0
SPLINE
  5
437
100
AcDbEntity
  8
0
100
AcDbSpline
 62
7
  6
BYLAYER
 70
0
 71
3
 72
9
 73
5
 74
0
 42
0.0000001
 43
0.0000001
 44
0.0000000001
 40
0.0
 40
0.0
 40
0.0
 40
0.0
 40
0.5255657768
 40
1.0
 40
1.0
 40
1.0
 40
1.0
 10
64.3498761249
 20
194.4659461359
 30
0.0
 10
64.3177760209
 20
194.4659460587
 30
0.0
 10
64.2565344434
 20
194.4725846952
 30
0.0
 10
64.1981941976
 20
194.493732282
 30
0.0
 10
64.1730991248
 20
194.5082206013
 30
0.0
  0
SPLINE
  5
438
100
AcDbEntity
  8
0
100
AcDbSpline
 62
7
  6
BYLAYER
 70
0
 71
3
 72
9
 73
5
 74
0
 42
0.0000001
 43
0.0000001
 44
0.0000000001
 40
0.0
 40
0.0
 40
0.0
 40
0.0
 40
0.4744336899
 40
1.0
 40
1.0
 40
1.0
 40
1.0
 10
64.5266525154
 20
194.5082214511
 30
0.0
 10
64.5015576281
 20
194.4937329977
 30
0.0
 10
64.4432176118
 20
194.4725851209
 30
0.0
 10
64.381976194
 20
194.465946213
 30
0.0
 10
64.3498761249
 20
194.4659461359
 30
0.0
  0
SPLINE
  5
439
100
AcDbEntity
  8
0
100
AcDbSpline
 62
7
  6
BYLAYER
 70
0
 71
3
 72
11
 73
7
 74
0
 42
0.0000001
 43
0.0000001
 44
0.0000000001
 40
0.0
 40
0.0
 40
0.0
 40
0.0
 40
0.2177164324
 40
0.4509408358
 40
0.7102939719
 40
1.0
 40
1.0
 40
1.0
 40
1.0
 10
64.6506744792
 20
194.63961111
 30
0.0
 10
64.6506745478
 20
194.6300919473
 30
0.0
 10
64.6471495339
 20
194.610245606
 30
0.0
 10
64.6321150112
 20
194.582586331
 30
0.0
 10
64.6083196624
 20
194.5575930564
 30
0.0
 10
64.588421651
 20
194.5438836653
 30
0.0
 10
64.5774519105
 20
194.5375503205
 30
0.0
  0
SPLINE
  5
43A
100
AcDbEntity
  8
0
100
AcDbSpline
 62
7
  6
BYLAYER
 70
0
 71
3
 72
11
 73
7
 74
0
 42
0.0000001
 43
0.0000001
 44
0.0000000001
 40
0.0
 40
0.0
 40
0.0
 40
0.0
 40
0.2897060281
 40
0.5490591642
 40
0.7822835676
 40
1.0
 40
1.0
 40
1.0
 40
1.0
 10
64.2559644478
 20
195.2674780002
 30
0.0
 10
64.237681547
 20
195.2569224255
 30
0.0
 10
64.2045181947
 20
195.2340734404
 30
0.0
 10
64.1648592802
 20
195.1924179827
 30
0.0
 10
64.1398017424
 20
195.1463191912
 30
0.0
 10
64.1339267192
 20
195.1132419558
 30
0.0
 10
64.1339268336
 20
195.0973766845
 30
0.0
  0
SPLINE
  5
43B
100
AcDbEntity
  8
0
100
AcDbSpline
 62
7
  6
BYLAYER
 70
0
 71
3
 72
11
 73
7
 74
0
 42
0.0000001
 43
0.0000001
 44
0.0000000001
 40
0.0
 40
0.0
 40
0.0
 40
0.0
 40
0.2177164324
 40
0.4509408358
 40
0.7102939719
 40
1.0
 40
1.0
 40
1.0
 40
1.0
 10
64.6720062451
 20
195.5674643823
 30
0.0
 10
64.6720063138
 20
195.5579452195
 30
0.0
 10
64.6684812999
 20
195.5380988782
 30
0.0
 10
64.6534467771
 20
195.5104396032
 30
0.0
 10
64.6296514284
 20
195.4854463286
 30
0.0
 10
64.609753417
 20
195.4717369375
 30
0.0
 10
64.5987836764
 20
195.4654035927
 30
0.0
  0
SPLINE
  5
43C
100
AcDbEntity
  8
0
100
AcDbSpline
 62
7
  6
BYLAYER
 70
0
 71
3
 72
11
 73
7
 74
0
 42
0.0000001
 43
0.0000001
 44
0.0000000001
 40
0.0
 40
0.0
 40
0.0
 40
0.0
 40
0.2897062311
 40
0.5490596185
 40
0.7822840529
 40
1.0
 40
1.0
 40
1.0
 40
1.0
 10
62.4938421741
 20
195.4777181208
 30
0.0
 10
62.4828723383
 20
195.4840514152
 30
0.0
 10
62.4629741292
 20
195.4977607125
 30
0.0
 10
62.4391784327
 20
195.5227538593
 30
0.0
 10
62.4241435157
 20
195.5504130377
 30
0.0
 10
62.4206182021
 20
195.5702593804
 30
0.0
 10
62.4206181334
 20
195.5797785583
 30
0.0
  0
SPLINE
  5
43D
100
AcDbEntity
  8
0
100
AcDbSpline
 62
7
  6
BYLAYER
 70
0
 71
3
 72
11
 73
7
 74
0
 42
0.0000001
 43
0.0000001
 44
0.0000000001
 40
0.0
 40
0.0
 40
0.0
 40
0.0
 40
0.2177159471
 40
0.4509403815
 40
0.7102937689
 40
1.0
 40
1.0
 40
1.0
 40
1.0
 10
62.9800428706
 20
195.0973739109
 30
0.0
 10
62.9800427562
 20
195.1132392075
 30
0.0
 10
62.9741672335
 20
195.1463164454
 30
0.0
 10
62.9491090386
 20
195.192415076
 30
0.0
 10
62.9094495445
 20
195.2340703207
 30
0.0
 10
62.8762858626
 20
195.2569191495
 30
0.0
 10
62.8580028028
 20
195.2674746401
 30
0.0
  0
SPLINE
  5
43E
100
AcDbEntity
  8
0
100
AcDbSpline
 62
7
  6
BYLAYER
 70
0
 71
3
 72
11
 73
7
 74
0
 42
0.0000001
 43
0.0000001
 44
0.0000000001
 40
0.0
 40
0.0
 40
0.0
 40
0.0
 40
0.2897062311
 40
0.5490596185
 40
0.7822840529
 40
1.0
 40
1.0
 40
1.0
 40
1.0
 10
62.5151874998
 20
194.5252257757
 30
0.0
 10
62.504217664
 20
194.5315590701
 30
0.0
 10
62.4843194548
 20
194.5452683673
 30
0.0
 10
62.4605237584
 20
194.5702615142
 30
0.0
 10
62.4454888414
 20
194.5979206925
 30
0.0
 10
62.4419635278
 20
194.6177670353
 30
0.0
 10
62.4419634591
 20
194.6272862132
 30
0.0
  0
SPLINE
  5
43F
100
AcDbEntity
  8
0
100
AcDbSpline
 62
7
  6
BYLAYER
 70
0
 71
3
 72
13
 73
9
 74
0
 42
0.0000001
 43
0.0000001
 44
0.0000000001
 40
0.0
 40
0.0
 40
0.0
 40
0.0
 40
0.2894101561
 40
0.5482967255
 40
0.6677460471
 40
0.7817746147
 40
0.8919062022
 40
1.0
 40
1.0
 40
1.0
 40
1.0
 10
61.7892252591
 20
192.7159275512
 30
0.0
 10
61.679486008
 20
192.7792841041
 30
0.0
 10
61.4804945281
 20
192.9161984434
 30
0.0
 10
61.2770170635
 20
193.1302956049
 30
0.0
 10
61.1624594111
 20
193.3136892838
 30
0.0
 10
61.1018887615
 20
193.4520561772
 30
0.0
 10
61.0652128679
 20
193.5934703738
 30
0.0
 10
61.0569875198
 20
193.6892101524
 30
0.0
 10
61.0569918912
 20
193.736537908
 30
0.0
  0
SPLINE
  5
440
100
AcDbEntity
  8
0
100
AcDbSpline
 62
7
  6
BYLAYER
 70
0
 71
3
 72
11
 73
7
 74
0
 42
0.0000001
 43
0.0000001
 44
0.0000000001
 40
0.0
 40
0.0
 40
0.0
 40
0.0
 40
0.2659302623
 40
0.5253368941
 40
0.7717756854
 40
1.0
 40
1.0
 40
1.0
 40
1.0
 10
63.5877811175
 20
192.2932973224
 30
0.0
 10
63.4222962557
 20
192.2921159603
 30
0.0
 10
63.0949387824
 20
192.3084476169
 30
0.0
 10
62.6201736208
 20
192.3882003279
 30
0.0
 10
62.1814935416
 20
192.5199831023
 30
0.0
 10
61.9122228414
 20
192.6449164704
 30
0.0
 10
61.7892252591
 20
192.7159275512
 30
0.0
  0
SPLINE
  5
441
100
AcDbEntity
  8
0
100
AcDbSpline
 62
7
  6
BYLAYER
 70
0
 71
3
 72
13
 73
9
 74
0
 42
0.0000001
 43
0.0000001
 44
0.0000000001
 40
0.0
 40
0.0
 40
0.0
 40
0.0
 40
0.1243404898
 40
0.2483447021
 40
0.3723810364
 40
0.4963522686
 40
0.7452862416
 40
1.0
 40
1.0
 40
1.0
 40
1.0
 10
61.0569848521
 20
194.4169566168
 30
0.0
 10
61.0569848521
 20
194.489360091
 30
0.0
 10
61.0683231726
 20
194.6342316303
 30
0.0
 10
61.1187849219
 20
194.8459390313
 30
0.0
 10
61.2001262345
 20
195.0475780919
 30
0.0
 10
61.3460819287
 20
195.2984268887
 30
0.0
 10
61.5919786149
 20
195.574255161
 30
0.0
 10
61.8333248505
 20
195.7448672869
 30
0.0
 10
61.9617726779
 20
195.8190287949
 30
0.0
  0
SPLINE
  5
442
100
AcDbEntity
  8
0
100
AcDbSpline
 62
7
  6
BYLAYER
 70
0
 71
3
 72
11
 73
7
 74
0
 42
0.0000001
 43
0.0000001
 44
0.0000000001
 40
0.0
 40
0.0
 40
0.0
 40
0.0
 40
0.2552177596
 40
0.5054319754
 40
0.752992448
 40
1.0
 40
1.0
 40
1.0
 40
1.0
 10
65.1521970263
 20
195.8190287949
 30
0.0
 10
65.2456406203
 20
195.7650775682
 30
0.0
 10
65.4238435139
 20
195.6455904015
 30
0.0
 10
65.6585968049
 20
195.4284345933
 30
0.0
 10
65.8495115319
 20
195.1758170872
 30
0.0
 10
65.9407825345
 20
194.9856932935
 30
0.0
 10
65.975592832
 20
194.8872368532
 30
0.0
  0
SPLINE
  5
443
100
AcDbEntity
  8
0
100
AcDbSpline
 62
7
  6
BYLAYER
 70
0
 71
3
 72
13
 73
9
 74
0
 42
0.0000001
 43
0.0000001
 44
0.0000000001
 40
0.0
 40
0.0
 40
0.0
 40
0.0
 40
0.2431353558
 40
0.3705688964
 40
0.500006671
 40
0.6294430846
 40
0.7568756268
 40
1.0
 40
1.0
 40
1.0
 40
1.0
 10
61.9617726779
 20
195.8190287949
 30
0.0
 10
62.1945282364
 20
195.9534141213
 30
0.0
 10
62.584768868
 20
196.0999841175
 30
0.0
 10
63.1295819513
 20
196.1961272389
 30
0.0
 10
63.5569788966
 20
196.220791871
 30
0.0
 10
63.9843751301
 20
196.1961305008
 30
0.0
 10
64.5291731388
 20
196.0999869483
 30
0.0
 10
64.9194028198
 20
195.9534295528
 30
0.0
 10
65.1521508445
 20
195.819055458
 30
0.0
  0
SPLINE
  5
444
100
AcDbEntity
  8
0
100
AcDbSpline
 62
7
  6
BYLAYER
 70
0
 71
3
 72
9
 73
5
 74
0
 42
0.0000001
 43
0.0000001
 44
0.0000000001
 40
0.0
 40
0.0
 40
0.0
 40
0.0
 40
0.4744336899
 40
1.0
 40
1.0
 40
1.0
 40
1.0
 10
62.5446400973
 20
195.7111682173
 30
0.0
 10
62.5697349845
 20
195.7256566707
 30
0.0
 10
62.6280750009
 20
195.7468045475
 30
0.0
 10
62.6893164186
 20
195.7534434553
 30
0.0
 10
62.7214164877
 20
195.7534435325
 30
0.0
  0
SPLINE
  5
445
100
AcDbEntity
  8
0
100
AcDbSpline
 62
7
  6
BYLAYER
 70
0
 71
3
 72
11
 73
7
 74
0
 42
0.0000001
 43
0.0000001
 44
0.0000000001
 40
0.0
 40
0.0
 40
0.0
 40
0.0
 40
0.2177164324
 40
0.4509408358
 40
0.7102939719
 40
1.0
 40
1.0
 40
1.0
 40
1.0
 10
62.4206181334
 20
195.5797785583
 30
0.0
 10
62.4206180648
 20
195.5892977211
 30
0.0
 10
62.4241430787
 20
195.6091440624
 30
0.0
 10
62.4391776015
 20
195.6368033373
 30
0.0
 10
62.4629729502
 20
195.661796612
 30
0.0
 10
62.4828709616
 20
195.6755060031
 30
0.0
 10
62.4938407022
 20
195.6818393479
 30
0.0
  0
SPLINE
  5
446
100
AcDbEntity
  8
0
100
AcDbSpline
 62
7
  6
BYLAYER
 70
0
 71
3
 72
11
 73
7
 74
0
 42
0.0000001
 43
0.0000001
 44
0.0000000001
 40
0.0
 40
0.0
 40
0.0
 40
0.0
 40
0.2897062311
 40
0.5490596185
 40
0.7822840529
 40
1.0
 40
1.0
 40
1.0
 40
1.0
 10
64.5774504385
 20
194.7416715476
 30
0.0
 10
64.5884202743
 20
194.7353382532
 30
0.0
 10
64.6083184835
 20
194.7216289559
 30
0.0
 10
64.6321141799
 20
194.6966358091
 30
0.0
 10
64.6471490969
 20
194.6689766307
 30
0.0
 10
64.6506744105
 20
194.649130288
 30
0.0
 10
64.6506744792
 20
194.63961111
 30
0.0
  0
SPLINE
  5
447
100
AcDbEntity
  8
0
100
AcDbSpline
 62
7
  6
BYLAYER
 70
0
 71
3
 72
11
 73
7
 74
0
 42
0.0000001
 43
0.0000001
 44
0.0000000001
 40
0.0
 40
0.0
 40
0.0
 40
0.0
 40
0.2177159471
 40
0.4509403815
 40
0.7102937689
 40
1.0
 40
1.0
 40
1.0
 40
1.0
 10
64.1339268336
 20
195.0973766845
 30
0.0
 10
64.133926948
 20
195.081511388
 30
0.0
 10
64.1398024708
 20
195.0484341501
 30
0.0
 10
64.1648606657
 20
195.0023355195
 30
0.0
 10
64.2045201598
 20
194.9606802747
 30
0.0
 10
64.2376838417
 20
194.937831446
 30
0.0
 10
64.2559669015
 20
194.9272759553
 30
0.0
  0
SPLINE
  5
448
100
AcDbEntity
  8
0
100
AcDbSpline
 62
7
  6
BYLAYER
 70
0
 71
3
 72
11
 73
7
 74
0
 42
0.0000001
 43
0.0000001
 44
0.0000000001
 40
0.0
 40
0.0
 40
0.0
 40
0.0
 40
0.2897060281
 40
0.5490591642
 40
0.7822835676
 40
1.0
 40
1.0
 40
1.0
 40
1.0
 10
62.8580052564
 20
194.9272725952
 30
0.0
 10
62.8762881573
 20
194.93782817
 30
0.0
 10
62.9094515096
 20
194.9606771551
 30
0.0
 10
62.949110424
 20
195.0023326127
 30
0.0
 10
62.9741679619
 20
195.0484314042
 30
0.0
 10
62.980042985
 20
195.0815086397
 30
0.0
 10
62.9800428706
 20
195.0973739109
 30
0.0
  0
SPLINE
  5
449
100
AcDbEntity
  8
0
100
AcDbSpline
 62
7
  6
BYLAYER
 70
0
 71
3
 72
11
 73
7
 74
0
 42
0.0000001
 43
0.0000001
 44
0.0000000001
 40
0.0
 40
0.0
 40
0.0
 40
0.0
 40
0.2177164324
 40
0.4509408358
 40
0.7102939719
 40
1.0
 40
1.0
 40
1.0
 40
1.0
 10
62.4419634591
 20
194.6272862132
 30
0.0
 10
62.4419633905
 20
194.636805376
 30
0.0
 10
62.4454884044
 20
194.6566517173
 30
0.0
 10
62.4605229271
 20
194.6843109922
 30
0.0
 10
62.4843182759
 20
194.7093042668
 30
0.0
 10
62.5042162873
 20
194.7230136579
 30
0.0
 10
62.5151860278
 20
194.7293470028
 30
0.0
  0
SPLINE
  5
44A
100
AcDbEntity
  8
0
100
AcDbSpline
 62
7
  6
BYLAYER
 70
0
 71
3
 72
25
 73
21
 74
0
 42
0.0000001
 43
0.0000001
 44
0.0000000001
 40
0.0
 40
0.0
 40
0.0
 40
0.0
 40
0.0665637937
 40
0.138391792
 40
0.2139921413
 40
0.2915606686
 40
0.3691293309
 40
0.4447312631
 40
0.5165547627
 40
0.5831195928
 40
0.6434789023
 40
0.6974753975
 40
0.7460421602
 40
0.7690127253
 40
0.7915574428
 40
0.8141023608
 40
0.8370730709
 40
0.885638978
 40
0.9396409962
 40
1.0
 40
1.0
 40
1.0
 40
1.0
 10
62.3784801866
 20
194.4169693734
 30
0.0
 10
62.45915587
 20
194.3703922996
 30
0.0
 10
62.6355767223
 20
194.2882443944
 30
0.0
 10
62.9228611342
 20
194.2009210153
 30
0.0
 10
63.2338976007
 20
194.147183027
 30
0.0
 10
63.5569866287
 20
194.1290452835
 30
0.0
 10
63.8800853413
 20
194.1471866614
 30
0.0
 10
64.1910956451
 20
194.200921666
 30
0.0
 10
64.4784478876
 20
194.2882817629
 30
0.0
 10
64.7315775319
 20
194.4061235021
 30
0.0
 10
64.9412977557
 20
194.5505776414
 30
0.0
 10
65.0998803416
 20
194.7171247838
 30
0.0
 10
65.1849913742
 20
194.8740098715
 30
0.0
 10
65.2181544098
 20
195.0020045144
 30
0.0
 10
65.2263599628
 20
195.0973688322
 30
0.0
 10
65.218157699
 20
195.1927339428
 30
0.0
 10
65.1849999153
 20
195.3207278335
 30
0.0
 10
65.0998881747
 20
195.4776326966
 30
0.0
 10
64.9413441224
 20
195.6441497915
 30
0.0
 10
64.8086449615
 20
195.7355458624
 30
0.0
 10
64.7354895175
 20
195.7777812221
 30
0.0
  0
SPLINE
  5
44B
100
AcDbEntity
  8
0
100
AcDbSpline
 62
7
  6
BYLAYER
 70
0
 71
3
 72
9
 73
5
 74
0
 42
0.0000001
 43
0.0000001
 44
0.0000000001
 40
0.0
 40
0.0
 40
0.0
 40
0.0
 40
0.4823167273
 40
1.0
 40
1.0
 40
1.0
 40
1.0
 10
61.7892252591
 20
193.3963462322
 30
0.0
 10
61.8980073055
 20
193.3335423092
 30
0.0
 10
62.1340363621
 20
193.2211200359
 30
0.0
 10
62.3822836227
 20
193.1401745951
 30
0.0
 10
62.5125910528
 20
193.1055835287
 30
0.0
  0
SPLINE
  5
44C
100
AcDbEntity
  8
0
100
AcDbSpline
 62
7
  6
BYLAYER
 70
0
 71
3
 72
9
 73
5
 74
0
 42
0.0000001
 43
0.0000001
 44
0.0000000001
 40
0.0
 40
0.0
 40
0.0
 40
0.0
 40
0.4928068345
 40
1.0
 40
1.0
 40
1.0
 40
1.0
 10
62.5471918615
 20
193.0965818502
 30
0.0
 10
62.7143219872
 20
193.0539815129
 30
0.0
 10
63.0598251663
 20
192.9913549016
 30
0.0
 10
63.4102808959
 20
192.9724475863
 30
0.0
 10
63.5877853054
 20
192.9737146663
 30
0.0
  0
SPLINE
  5
44D
100
AcDbEntity
  8
0
100
AcDbSpline
 62
7
  6
BYLAYER
 70
0
 71
3
 72
25
 73
21
 74
0
 42
0.0000001
 43
0.0000001
 44
0.0000000001
 40
0.0
 40
0.0
 40
0.0
 40
0.0
 40
0.0665637937
 40
0.138391792
 40
0.2139921413
 40
0.2915606686
 40
0.3691293309
 40
0.4447312631
 40
0.5165547627
 40
0.5831195928
 40
0.6434789023
 40
0.6974753975
 40
0.7460421602
 40
0.7690127253
 40
0.7915574428
 40
0.8141023608
 40
0.8370730709
 40
0.885638978
 40
0.9396409962
 40
1.0
 40
1.0
 40
1.0
 40
1.0
 10
64.7354895175
 20
195.7777812221
 30
0.0
 10
64.6548138342
 20
195.8243582959
 30
0.0
 10
64.4783929819
 20
195.9065062011
 30
0.0
 10
64.19110857
 20
195.9938295802
 30
0.0
 10
63.8800721035
 20
196.0475675685
 30
0.0
 10
63.5569830755
 20
196.065705312
 30
0.0
 10
63.2338843629
 20
196.0475639341
 30
0.0
 10
62.9228740591
 20
195.9938289295
 30
0.0
 10
62.6355218166
 20
195.9064688326
 30
0.0
 10
62.3823921723
 20
195.7886270934
 30
0.0
 10
62.1726719485
 20
195.6441729541
 30
0.0
 10
62.0140893626
 20
195.4776258117
 30
0.0
 10
61.92897833
 20
195.3207407241
 30
0.0
 10
61.8958152944
 20
195.1927460811
 30
0.0
 10
61.8876097413
 20
195.0973817633
 30
0.0
 10
61.8958120051
 20
195.0020166527
 30
0.0
 10
61.9289697889
 20
194.874022762
 30
0.0
 10
62.0140815295
 20
194.7171178989
 30
0.0
 10
62.1726255818
 20
194.550600804
 30
0.0
 10
62.3053247427
 20
194.4592047331
 30
0.0
 10
62.3784801866
 20
194.4169693734
 30
0.0
  0
SPLINE
  5
44E
100
AcDbEntity
  8
0
100
AcDbSpline
 62
7
  6
BYLAYER
 70
0
 71
3
 72
11
 73
7
 74
0
 42
0.0000001
 43
0.0000001
 44
0.0000000001
 40
0.0
 40
0.0
 40
0.0
 40
0.0
 40
0.2897062311
 40
0.5490596185
 40
0.7822840529
 40
1.0
 40
1.0
 40
1.0
 40
1.0
 10
64.5987822044
 20
195.6695248198
 30
0.0
 10
64.6097520403
 20
195.6631915254
 30
0.0
 10
64.6296502494
 20
195.6494822281
 30
0.0
 10
64.6534459459
 20
195.6244890813
 30
0.0
 10
64.6684808628
 20
195.5968299029
 30
0.0
 10
64.6720061765
 20
195.5769835602
 30
0.0
 10
64.6720062451
 20
195.5674643823
 30
0.0
  0
SPLINE
  5
44F
100
AcDbEntity
  8
0
100
AcDbSpline
 62
7
  6
BYLAYER
 70
0
 71
3
 72
9
 73
5
 74
0
 42
0.0000001
 43
0.0000001
 44
0.0000000001
 40
0.0
 40
0.0
 40
0.0
 40
0.0
 40
0.5255657768
 40
1.0
 40
1.0
 40
1.0
 40
1.0
 10
64.3712053861
 20
195.7411279104
 30
0.0
 10
64.4033054902
 20
195.7411279875
 30
0.0
 10
64.4645470677
 20
195.7344893511
 30
0.0
 10
64.5228873135
 20
195.7133417642
 30
0.0
 10
64.5479823863
 20
195.698853445
 30
0.0
  0
SPLINE
  5
450
100
AcDbEntity
  8
0
100
AcDbSpline
 62
7
  6
BYLAYER
 70
0
 71
3
 72
9
 73
5
 74
0
 42
0.0000001
 43
0.0000001
 44
0.0000000001
 40
0.0
 40
0.0
 40
0.0
 40
0.0
 40
0.4744336899
 40
1.0
 40
1.0
 40
1.0
 40
1.0
 10
64.1944289957
 20
195.6988525951
 30
0.0
 10
64.219523883
 20
195.7133410486
 30
0.0
 10
64.2778638993
 20
195.7344889254
 30
0.0
 10
64.3391053171
 20
195.7411278332
 30
0.0
 10
64.3712053861
 20
195.7411279104
 30
0.0
  0
SPLINE
  5
451
100
AcDbEntity
  8
0
100
AcDbSpline
 62
7
  6
BYLAYER
 70
0
 71
3
 72
13
 73
9
 74
0
 42
0.0000001
 43
0.0000001
 44
0.0000000001
 40
0.0
 40
0.0
 40
0.0
 40
0.0
 40
0.1080943257
 40
0.2182275668
 40
0.3322566908
 40
0.4517053976
 40
0.7105907388
 40
1.0
 40
1.0
 40
1.0
 40
1.0
 10
61.0569895225
 20
194.4169566167
 30
0.0
 10
61.056985318
 20
194.3696285961
 30
0.0
 10
61.0652123173
 20
194.2738879347
 30
0.0
 10
61.1018882788
 20
194.1324725062
 30
0.0
 10
61.1624595494
 20
193.9941049198
 30
0.0
 10
61.2770182126
 20
193.8107123699
 30
0.0
 10
61.4804953347
 20
193.5966164237
 30
0.0
 10
61.6794862691
 20
193.4597026342
 30
0.0
 10
61.7892252591
 20
193.3963462322
 30
0.0
  0
SPLINE
  5
452
100
AcDbEntity
  8
0
100
AcDbSpline
 62
7
  6
BYLAYER
 70
0
 71
3
 72
9
 73
5
 74
0
 42
0.0000001
 43
0.0000001
 44
0.0000000001
 40
0.0
 40
0.0
 40
0.0
 40
0.0
 40
0.5255663101
 40
1.0
 40
1.0
 40
1.0
 40
1.0
 10
63.5569824501
 20
195.4304681441
 30
0.0
 10
63.6104825651
 20
195.4304682727
 30
0.0
 10
63.7125515946
 20
195.4415331191
 30
0.0
 10
63.809784955
 20
195.4767795803
 30
0.0
 10
63.8516097671
 20
195.5009270027
 30
0.0
  0
SPLINE
  5
453
100
AcDbEntity
  8
0
100
AcDbSpline
 62
7
  6
BYLAYER
 70
0
 71
3
 72
9
 73
5
 74
0
 42
0.0000001
 43
0.0000001
 44
0.0000000001
 40
0.0
 40
0.0
 40
0.0
 40
0.0
 40
0.4744342232
 40
1.0
 40
1.0
 40
1.0
 40
1.0
 10
63.2623541165
 20
195.5009255865
 30
0.0
 10
63.3041792378
 20
195.4767783877
 30
0.0
 10
63.4014129809
 20
195.4415324096
 30
0.0
 10
63.5034822767
 20
195.4304680155
 30
0.0
 10
63.5569824501
 20
195.4304681441
 30
0.0
  0
SPLINE
  5
454
100
AcDbEntity
  8
0
100
AcDbSpline
 62
7
  6
BYLAYER
 70
0
 71
3
 72
9
 73
5
 74
0
 42
0.0000001
 43
0.0000001
 44
0.0000000001
 40
0.0
 40
0.0
 40
0.0
 40
0.0
 40
0.5255657768
 40
1.0
 40
1.0
 40
1.0
 40
1.0
 10
62.7214164877
 20
195.7534435325
 30
0.0
 10
62.7535165918
 20
195.7534436097
 30
0.0
 10
62.8147581692
 20
195.7468049732
 30
0.0
 10
62.8730984151
 20
195.7256573864
 30
0.0
 10
62.8981934879
 20
195.7111690671
 30
0.0
  0
SPLINE
  5
455
100
AcDbEntity
  8
0
100
AcDbSpline
 62
7
  6
BYLAYER
 70
0
 71
3
 72
9
 73
5
 74
0
 42
0.0000001
 43
0.0000001
 44
0.0000000001
 40
0.0
 40
0.0
 40
0.0
 40
0.0
 40
0.5255657768
 40
1.0
 40
1.0
 40
1.0
 40
1.0
 10
78.2991782713
 20
185.4723260856
 30
0.0
 10
78.2670781673
 20
185.4723260085
 30
0.0
 10
78.2058365898
 20
185.4789646449
 30
0.0
 10
78.147496344
 20
185.5001122318
 30
0.0
 10
78.1224012712
 20
185.514600551
 30
0.0
  0
SPLINE
  5
456
100
AcDbEntity
  8
0
100
AcDbSpline
 62
7
  6
BYLAYER
 70
0
 71
3
 72
9
 73
5
 74
0
 42
0.0000001
 43
0.0000001
 44
0.0000000001
 40
0.0
 40
0.0
 40
0.0
 40
0.0
 40
0.4744336899
 40
1.0
 40
1.0
 40
1.0
 40
1.0
 10
78.4759546618
 20
185.5146014009
 30
0.0
 10
78.4508597745
 20
185.5001129474
 30
0.0
 10
78.3925197582
 20
185.4789650706
 30
0.0
 10
78.3312783404
 20
185.4723261628
 30
0.0
 10
78.2991782713
 20
185.4723260856
 30
0.0
  0
SPLINE
  5
457
100
AcDbEntity
  8
0
100
AcDbSpline
 62
7
  6
BYLAYER
 70
0
 71
3
 72
9
 73
5
 74
0
 42
0.0000001
 43
0.0000001
 44
0.0000000001
 40
0.0
 40
0.0
 40
0.0
 40
0.0
 40
0.5255663101
 40
1.0
 40
1.0
 40
1.0
 40
1.0
 10
79.1134012074
 20
185.7829858519
 30
0.0
 10
79.0599010923
 20
185.7829857233
 30
0.0
 10
78.9578320629
 20
185.7719208769
 30
0.0
 10
78.8605987025
 20
185.7366744157
 30
0.0
 10
78.8187738904
 20
185.7125269933
 30
0.0
  0
SPLINE
  5
458
100
AcDbEntity
  8
0
100
AcDbSpline
 62
7
  6
BYLAYER
 70
0
 71
3
 72
9
 73
5
 74
0
 42
0.0000001
 43
0.0000001
 44
0.0000000001
 40
0.0
 40
0.0
 40
0.0
 40
0.0
 40
0.4744342232
 40
1.0
 40
1.0
 40
1.0
 40
1.0
 10
79.4080295409
 20
185.7125284096
 30
0.0
 10
79.3662044196
 20
185.7366756083
 30
0.0
 10
79.2689706766
 20
185.7719215864
 30
0.0
 10
79.1669013808
 20
185.7829859805
 30
0.0
 10
79.1134012074
 20
185.7829858519
 30
0.0
  0
SPLINE
  5
459
100
AcDbEntity
  8
0
100
AcDbSpline
 62
7
  6
BYLAYER
 70
0
 71
3
 72
9
 73
5
 74
0
 42
0.0000001
 43
0.0000001
 44
0.0000000001
 40
0.0
 40
0.0
 40
0.0
 40
0.0
 40
0.5255657768
 40
1.0
 40
1.0
 40
1.0
 40
1.0
 10
79.9062900782
 20
185.4846495364
 30
0.0
 10
79.8741899741
 20
185.4846494593
 30
0.0
 10
79.8129483966
 20
185.4912880957
 30
0.0
 10
79.7546081508
 20
185.5124356826
 30
0.0
 10
79.729513078
 20
185.5269240018
 30
0.0
  0
SPLINE
  5
45A
100
AcDbEntity
  8
0
100
AcDbSpline
 62
7
  6
BYLAYER
 70
0
 71
3
 72
9
 73
5
 74
0
 42
0.0000001
 43
0.0000001
 44
0.0000000001
 40
0.0
 40
0.0
 40
0.0
 40
0.0
 40
0.4744336899
 40
1.0
 40
1.0
 40
1.0
 40
1.0
 10
80.0830664686
 20
185.5269248517
 30
0.0
 10
80.0579715813
 20
185.5124363982
 30
0.0
 10
79.999631565
 20
185.4912885214
 30
0.0
 10
79.9383901472
 20
185.4846496136
 30
0.0
 10
79.9062900782
 20
185.4846495364
 30
0.0
  0
SPLINE
  5
45B
100
AcDbEntity
  8
0
100
AcDbSpline
 62
7
  6
BYLAYER
 70
0
 71
3
 72
11
 73
7
 74
0
 42
0.0000001
 43
0.0000001
 44
0.0000000001
 40
0.0
 40
0.0
 40
0.0
 40
0.0
 40
0.2177164324
 40
0.4509408358
 40
0.7102939719
 40
1.0
 40
1.0
 40
1.0
 40
1.0
 10
80.2070884324
 20
185.6583145106
 30
0.0
 10
80.2070885011
 20
185.6487953478
 30
0.0
 10
80.2035634872
 20
185.6289490065
 30
0.0
 10
80.1885289644
 20
185.6012897316
 30
0.0
 10
80.1647336157
 20
185.576296457
 30
0.0
 10
80.1448356042
 20
185.5625870659
 30
0.0
 10
80.1338658637
 20
185.556253721
 30
0.0
  0
SPLINE
  5
45C
100
AcDbEntity
  8
0
100
AcDbSpline
 62
7
  6
BYLAYER
 70
0
 71
3
 72
11
 73
7
 74
0
 42
0.0000001
 43
0.0000001
 44
0.0000000001
 40
0.0
 40
0.0
 40
0.0
 40
0.0
 40
0.2897060281
 40
0.5490591642
 40
0.7822835676
 40
1.0
 40
1.0
 40
1.0
 40
1.0
 10
79.8123784011
 20
186.2861814008
 30
0.0
 10
79.7940955002
 20
186.2756258261
 30
0.0
 10
79.7609321479
 20
186.2527768409
 30
0.0
 10
79.7212732335
 20
186.2111213833
 30
0.0
 10
79.6962156956
 20
186.1650225918
 30
0.0
 10
79.6903406724
 20
186.1319453563
 30
0.0
 10
79.6903407869
 20
186.1160800851
 30
0.0
  0
SPLINE
  5
45D
100
AcDbEntity
  8
0
100
AcDbSpline
 62
7
  6
BYLAYER
 70
0
 71
3
 72
11
 73
7
 74
0
 42
0.0000001
 43
0.0000001
 44
0.0000000001
 40
0.0
 40
0.0
 40
0.0
 40
0.0
 40
0.2177164324
 40
0.4509408358
 40
0.7102939719
 40
1.0
 40
1.0
 40
1.0
 40
1.0
 10
80.2284201984
 20
186.5861677828
 30
0.0
 10
80.228420267
 20
186.57664862
 30
0.0
 10
80.2248952531
 20
186.5568022787
 30
0.0
 10
80.2098607304
 20
186.5291430038
 30
0.0
 10
80.1860653816
 20
186.5041497292
 30
0.0
 10
80.1661673702
 20
186.4904403381
 30
0.0
 10
80.1551976297
 20
186.4841069932
 30
0.0
  0
SPLINE
  5
45E
100
AcDbEntity
  8
0
100
AcDbSpline
 62
7
  6
BYLAYER
 70
0
 71
3
 72
11
 73
7
 74
0
 42
0.0000001
 43
0.0000001
 44
0.0000000001
 40
0.0
 40
0.0
 40
0.0
 40
0.0
 40
0.2897062311
 40
0.5490596185
 40
0.7822840529
 40
1.0
 40
1.0
 40
1.0
 40
1.0
 10
78.0502561274
 20
186.4964215214
 30
0.0
 10
78.0392862915
 20
186.5027548158
 30
0.0
 10
78.0193880824
 20
186.516464113
 30
0.0
 10
77.9955923859
 20
186.5414572599
 30
0.0
 10
77.980557469
 20
186.5691164382
 30
0.0
 10
77.9770321553
 20
186.5889627809
 30
0.0
 10
77.9770320867
 20
186.5984819589
 30
0.0
  0
SPLINE
  5
45F
100
AcDbEntity
  8
0
100
AcDbSpline
 62
7
  6
BYLAYER
 70
0
 71
3
 72
11
 73
7
 74
0
 42
0.0000001
 43
0.0000001
 44
0.0000000001
 40
0.0
 40
0.0
 40
0.0
 40
0.0
 40
0.2177159471
 40
0.4509403815
 40
0.7102937689
 40
1.0
 40
1.0
 40
1.0
 40
1.0
 10
78.5364568239
 20
186.1160773115
 30
0.0
 10
78.5364567095
 20
186.1319426081
 30
0.0
 10
78.5305811867
 20
186.165019846
 30
0.0
 10
78.5055229918
 20
186.2111184765
 30
0.0
 10
78.4658634977
 20
186.2527737213
 30
0.0
 10
78.4326998158
 20
186.27562255
 30
0.0
 10
78.4144167561
 20
186.2861780407
 30
0.0
  0
SPLINE
  5
460
100
AcDbEntity
  8
0
100
AcDbSpline
 62
7
  6
BYLAYER
 70
0
 71
3
 72
11
 73
7
 74
0
 42
0.0000001
 43
0.0000001
 44
0.0000000001
 40
0.0
 40
0.0
 40
0.0
 40
0.0
 40
0.2897062311
 40
0.5490596185
 40
0.7822840529
 40
1.0
 40
1.0
 40
1.0
 40
1.0
 10
78.071601453
 20
185.5439291762
 30
0.0
 10
78.0606316172
 20
185.5502624706
 30
0.0
 10
78.0407334081
 20
185.5639717679
 30
0.0
 10
78.0169377116
 20
185.5889649147
 30
0.0
 10
78.0019027946
 20
185.6166240931
 30
0.0
 10
77.998377481
 20
185.6364704358
 30
0.0
 10
77.9983774123
 20
185.6459896138
 30
0.0
  0
SPLINE
  5
461
100
AcDbEntity
  8
0
100
AcDbSpline
 62
7
  6
BYLAYER
 70
0
 71
3
 72
13
 73
9
 74
0
 42
0.0000001
 43
0.0000001
 44
0.0000000001
 40
0.0
 40
0.0
 40
0.0
 40
0.0
 40
0.2894101561
 40
0.5482967255
 40
0.6677460471
 40
0.7817746147
 40
0.8919062022
 40
1.0
 40
1.0
 40
1.0
 40
1.0
 10
77.3456392123
 20
183.7346309518
 30
0.0
 10
77.2358999612
 20
183.7979875046
 30
0.0
 10
77.0369084814
 20
183.9349018439
 30
0.0
 10
76.8334310167
 20
184.1489990055
 30
0.0
 10
76.7188733644
 20
184.3323926844
 30
0.0
 10
76.6583027148
 20
184.4707595777
 30
0.0
 10
76.6216268211
 20
184.6121737744
 30
0.0
 10
76.613401473
 20
184.7079135529
 30
0.0
 10
76.6134058444
 20
184.7552413086
 30
0.0
  0
SPLINE
  5
462
100
AcDbEntity
  8
0
100
AcDbSpline
 62
7
  6
BYLAYER
 70
0
 71
3
 72
21
 73
17
 74
0
 42
0.0000001
 43
0.0000001
 44
0.0000000001
 40
0.0
 40
0.0
 40
0.0
 40
0.0
 40
0.0428257674
 40
0.0874200528
 40
0.1352163799
 40
0.1871398601
 40
0.2436015976
 40
0.3045755793
 40
0.3696916997
 40
0.4383188091
 40
0.5825503465
 40
0.7295878911
 40
0.801597174
 40
0.8712157582
 40
0.9375955855
 40
1.0
 40
1.0
 40
1.0
 40
1.0
 10
81.6133917662
 20
184.7552413644
 30
0.0
 10
81.6133851927
 20
184.6840726378
 30
0.0
 10
81.5943737724
 20
184.5381765975
 30
0.0
 10
81.5106914777
 20
184.3275181749
 30
0.0
 10
81.374915914
 20
184.1278198472
 30
0.0
 10
81.1908944991
 20
183.9430279537
 30
0.0
 10
80.9628714997
 20
183.7764054024
 30
0.0
 10
80.6957012766
 20
183.6310923852
 30
0.0
 10
80.3949614128
 20
183.509929323
 30
0.0
 10
79.950433247
 20
183.3818757483
 30
0.0
 10
79.3548482905
 20
183.2983345794
 30
0.0
 10
78.74835505
 20
183.3149976985
 30
0.0
 10
78.2740234798
 20
183.3901839062
 30
0.0
 10
77.9384464609
 20
183.4753610515
 30
0.0
 10
77.6279499906
 20
183.5878803796
 30
0.0
 10
77.4354508144
 20
183.6827793722
 30
0.0
 10
77.3456392123
 20
183.7346309518
 30
0.0
  0
SPLINE
  5
463
100
AcDbEntity
  8
0
100
AcDbSpline
 62
7
  6
BYLAYER
 70
0
 71
3
 72
13
 73
9
 74
0
 42
0.0000001
 43
0.0000001
 44
0.0000000001
 40
0.0
 40
0.0
 40
0.0
 40
0.0
 40
0.1243404898
 40
0.2483447021
 40
0.3723810364
 40
0.4963522686
 40
0.7452862416
 40
1.0
 40
1.0
 40
1.0
 40
1.0
 10
76.6133988053
 20
185.4356600174
 30
0.0
 10
76.6133988053
 20
185.5080634915
 30
0.0
 10
76.6247371258
 20
185.6529350308
 30
0.0
 10
76.6751988751
 20
185.8646424318
 30
0.0
 10
76.7565401878
 20
186.0662814924
 30
0.0
 10
76.902495882
 20
186.3171302893
 30
0.0
 10
77.1483925682
 20
186.5929585615
 30
0.0
 10
77.3897388037
 20
186.7635706874
 30
0.0
 10
77.5181866311
 20
186.8377321955
 30
0.0
  0
SPLINE
  5
464
100
AcDbEntity
  8
0
100
AcDbSpline
 62
7
  6
BYLAYER
 70
0
 71
3
 72
13
 73
9
 74
0
 42
0.0000001
 43
0.0000001
 44
0.0000000001
 40
0.0
 40
0.0
 40
0.0
 40
0.0
 40
0.2547136527
 40
0.5036455312
 40
0.6276145894
 40
0.7516483046
 40
0.8756553856
 40
1.0
 40
1.0
 40
1.0
 40
1.0
 10
80.7086109795
 20
186.8377321955
 30
0.0
 10
80.8370587546
 20
186.7635707176
 30
0.0
 10
81.0784030676
 20
186.592958591
 30
0.0
 10
81.3243006509
 20
186.3171341021
 30
0.0
 10
81.4702522719
 20
186.0662879037
 30
0.0
 10
81.5515989341
 20
185.8646520843
 30
0.0
 10
81.6020571219
 20
185.6529411094
 30
0.0
 10
81.6133988053
 20
185.5080658938
 30
0.0
 10
81.6133988053
 20
185.4356600174
 30
0.0
  0
SPLINE
  5
465
100
AcDbEntity
  8
0
100
AcDbSpline
 62
7
  6
BYLAYER
 70
0
 71
3
 72
13
 73
9
 74
0
 42
0.0000001
 43
0.0000001
 44
0.0000000001
 40
0.0
 40
0.0
 40
0.0
 40
0.0
 40
0.2431353558
 40
0.3705688964
 40
0.500006671
 40
0.6294430846
 40
0.7568756268
 40
1.0
 40
1.0
 40
1.0
 40
1.0
 10
77.5181866311
 20
186.8377321955
 30
0.0
 10
77.7509421896
 20
186.9721175219
 30
0.0
 10
78.1411828212
 20
187.1186875181
 30
0.0
 10
78.6859959046
 20
187.2148306395
 30
0.0
 10
79.1133928498
 20
187.2394952715
 30
0.0
 10
79.5407890833
 20
187.2148339013
 30
0.0
 10
80.085587092
 20
187.1186903489
 30
0.0
 10
80.4758167731
 20
186.9721329533
 30
0.0
 10
80.7085647978
 20
186.8377588586
 30
0.0
  0
SPLINE
  5
466
100
AcDbEntity
  8
0
100
AcDbSpline
 62
7
  6
BYLAYER
 70
0
 71
3
 72
9
 73
5
 74
0
 42
0.0000001
 43
0.0000001
 44
0.0000000001
 40
0.0
 40
0.0
 40
0.0
 40
0.0
 40
0.4744336899
 40
1.0
 40
1.0
 40
1.0
 40
1.0
 10
78.1010540505
 20
186.7298716178
 30
0.0
 10
78.1261489378
 20
186.7443600713
 30
0.0
 10
78.1844889541
 20
186.7655079481
 30
0.0
 10
78.2457303719
 20
186.7721468559
 30
0.0
 10
78.2778304409
 20
186.7721469331
 30
0.0
  0
SPLINE
  5
467
100
AcDbEntity
  8
0
100
AcDbSpline
 62
7
  6
BYLAYER
 70
0
 71
3
 72
11
 73
7
 74
0
 42
0.0000001
 43
0.0000001
 44
0.0000000001
 40
0.0
 40
0.0
 40
0.0
 40
0.0
 40
0.2177164324
 40
0.4509408358
 40
0.7102939719
 40
1.0
 40
1.0
 40
1.0
 40
1.0
 10
77.9770320867
 20
186.5984819589
 30
0.0
 10
77.977032018
 20
186.6080011217
 30
0.0
 10
77.9805570319
 20
186.627847463
 30
0.0
 10
77.9955915547
 20
186.6555067379
 30
0.0
 10
78.0193869034
 20
186.6805000125
 30
0.0
 10
78.0392849149
 20
186.6942094036
 30
0.0
 10
78.0502546554
 20
186.7005427485
 30
0.0
  0
SPLINE
  5
468
100
AcDbEntity
  8
0
100
AcDbSpline
 62
7
  6
BYLAYER
 70
0
 71
3
 72
11
 73
7
 74
0
 42
0.0000001
 43
0.0000001
 44
0.0000000001
 40
0.0
 40
0.0
 40
0.0
 40
0.0
 40
0.2897062311
 40
0.5490596185
 40
0.7822840529
 40
1.0
 40
1.0
 40
1.0
 40
1.0
 10
80.1338643917
 20
185.7603749481
 30
0.0
 10
80.1448342276
 20
185.7540416537
 30
0.0
 10
80.1647324367
 20
185.7403323565
 30
0.0
 10
80.1885281332
 20
185.7153392096
 30
0.0
 10
80.2035630501
 20
185.6876800313
 30
0.0
 10
80.2070883638
 20
185.6678336886
 30
0.0
 10
80.2070884324
 20
185.6583145106
 30
0.0
  0
SPLINE
  5
469
100
AcDbEntity
  8
0
100
AcDbSpline
 62
7
  6
BYLAYER
 70
0
 71
3
 72
11
 73
7
 74
0
 42
0.0000001
 43
0.0000001
 44
0.0000000001
 40
0.0
 40
0.0
 40
0.0
 40
0.0
 40
0.2177159471
 40
0.4509403815
 40
0.7102937689
 40
1.0
 40
1.0
 40
1.0
 40
1.0
 10
79.6903407869
 20
186.1160800851
 30
0.0
 10
79.6903409013
 20
186.1002147885
 30
0.0
 10
79.696216424
 20
186.0671375506
 30
0.0
 10
79.7212746189
 20
186.02103892
 30
0.0
 10
79.7609341131
 20
185.9793836753
 30
0.0
 10
79.794097795
 20
185.9565348465
 30
0.0
 10
79.8123808547
 20
185.9459793558
 30
0.0
  0
SPLINE
  5
46A
100
AcDbEntity
  8
0
100
AcDbSpline
 62
7
  6
BYLAYER
 70
0
 71
3
 72
11
 73
7
 74
0
 42
0.0000001
 43
0.0000001
 44
0.0000000001
 40
0.0
 40
0.0
 40
0.0
 40
0.0
 40
0.2897060281
 40
0.5490591642
 40
0.7822835676
 40
1.0
 40
1.0
 40
1.0
 40
1.0
 10
78.4144192097
 20
185.9459759958
 30
0.0
 10
78.4327021105
 20
185.9565315705
 30
0.0
 10
78.4658654628
 20
185.9793805556
 30
0.0
 10
78.5055243773
 20
186.0210360133
 30
0.0
 10
78.5305819151
 20
186.0671348048
 30
0.0
 10
78.5364569383
 20
186.1002120402
 30
0.0
 10
78.5364568239
 20
186.1160773115
 30
0.0
  0
SPLINE
  5
46B
100
AcDbEntity
  8
0
100
AcDbSpline
 62
7
  6
BYLAYER
 70
0
 71
3
 72
11
 73
7
 74
0
 42
0.0000001
 43
0.0000001
 44
0.0000000001
 40
0.0
 40
0.0
 40
0.0
 40
0.0
 40
0.2177164324
 40
0.4509408358
 40
0.7102939719
 40
1.0
 40
1.0
 40
1.0
 40
1.0
 10
77.9983774123
 20
185.6459896138
 30
0.0
 10
77.9983773437
 20
185.6555087765
 30
0.0
 10
78.0019023576
 20
185.6753551178
 30
0.0
 10
78.0169368804
 20
185.7030143928
 30
0.0
 10
78.0407322291
 20
185.7280076674
 30
0.0
 10
78.0606302405
 20
185.7417170585
 30
0.0
 10
78.0715999811
 20
185.7480504033
 30
0.0
  0
SPLINE
  5
46C
100
AcDbEntity
  8
0
100
AcDbSpline
 62
7
  6
BYLAYER
 70
0
 71
3
 72
25
 73
21
 74
0
 42
0.0000001
 43
0.0000001
 44
0.0000000001
 40
0.0
 40
0.0
 40
0.0
 40
0.0
 40
0.0665637937
 40
0.138391792
 40
0.2139921413
 40
0.2915606686
 40
0.3691293309
 40
0.4447312631
 40
0.5165547627
 40
0.5831195928
 40
0.6434789023
 40
0.6974753975
 40
0.7460421602
 40
0.7690127253
 40
0.7915574428
 40
0.8141023608
 40
0.8370730709
 40
0.885638978
 40
0.9396409962
 40
1.0
 40
1.0
 40
1.0
 40
1.0
 10
77.9348941399
 20
185.4356727739
 30
0.0
 10
78.0155698232
 20
185.3890957002
 30
0.0
 10
78.1919906756
 20
185.306947795
 30
0.0
 10
78.4792750874
 20
185.2196244158
 30
0.0
 10
78.790311554
 20
185.1658864276
 30
0.0
 10
79.113400582
 20
185.1477486841
 30
0.0
 10
79.4364992945
 20
185.165890062
 30
0.0
 10
79.7475095983
 20
185.2196250666
 30
0.0
 10
80.0348618408
 20
185.3069851634
 30
0.0
 10
80.2879914851
 20
185.4248269027
 30
0.0
 10
80.4977117089
 20
185.569281042
 30
0.0
 10
80.6562942948
 20
185.7358281844
 30
0.0
 10
80.7414053274
 20
185.892713272
 30
0.0
 10
80.7745683631
 20
186.020707915
 30
0.0
 10
80.7827739161
 20
186.1160722327
 30
0.0
 10
80.7745716523
 20
186.2114373434
 30
0.0
 10
80.7414138685
 20
186.3394312341
 30
0.0
 10
80.6563021279
 20
186.4963360972
 30
0.0
 10
80.4977580756
 20
186.6628531921
 30
0.0
 10
80.3650589147
 20
186.7542492629
 30
0.0
 10
80.2919034708
 20
186.7964846227
 30
0.0
  0
SPLINE
  5
46D
100
AcDbEntity
  8
0
100
AcDbSpline
 62
7
  6
BYLAYER
 70
0
 71
3
 72
9
 73
5
 74
0
 42
0.0000001
 43
0.0000001
 44
0.0000000001
 40
0.0
 40
0.0
 40
0.0
 40
0.0
 40
0.4823167273
 40
1.0
 40
1.0
 40
1.0
 40
1.0
 10
77.3456392123
 20
184.4150496327
 30
0.0
 10
77.4544212588
 20
184.3522457097
 30
0.0
 10
77.6904503153
 20
184.2398234364
 30
0.0
 10
77.938697576
 20
184.1588779957
 30
0.0
 10
78.0690050061
 20
184.1242869292
 30
0.0
  0
SPLINE
  5
46E
100
AcDbEntity
  8
0
100
AcDbSpline
 62
7
  6
BYLAYER
 70
0
 71
3
 72
18
 73
14
 74
0
 42
0.0000001
 43
0.0000001
 44
0.0000000001
 40
0.0
 40
0.0
 40
0.0
 40
0.0
 40
0.1444072008
 40
0.2928721717
 40
0.4393637854
 40
0.5780979214
 40
0.7043486381
 40
0.7619380086
 40
0.815640052
 40
0.8656468231
 40
0.9124512062
 40
0.9568676176
 40
1.0
 40
1.0
 40
1.0
 40
1.0
 10
78.1036058148
 20
184.1152852507
 30
0.0
 10
78.2980269674
 20
184.0657286155
 30
0.0
 10
78.7010376759
 20
183.997360244
 30
0.0
 10
79.3131822271
 20
183.9823765471
 30
0.0
 10
79.9138179531
 20
184.0529809077
 30
0.0
 10
80.4672660083
 20
184.2050482841
 30
0.0
 10
80.8752341575
 20
184.3984950819
 30
0.0
 10
81.1457713962
 20
184.5888034656
 30
0.0
 10
81.3116843679
 20
184.740507963
 30
0.0
 10
81.4441744831
 20
184.9034218488
 30
0.0
 10
81.5409611002
 20
185.0753655908
 30
0.0
 10
81.6000757176
 20
185.2537110562
 30
0.0
 10
81.6133888112
 20
185.3757324142
 30
0.0
 10
81.6133941349
 20
185.4356600175
 30
0.0
  0
SPLINE
  5
46F
100
AcDbEntity
  8
0
100
AcDbSpline
 62
7
  6
BYLAYER
 70
0
 71
3
 72
25
 73
21
 74
0
 42
0.0000001
 43
0.0000001
 44
0.0000000001
 40
0.0
 40
0.0
 40
0.0
 40
0.0
 40
0.0665637937
 40
0.138391792
 40
0.2139921413
 40
0.2915606686
 40
0.3691293309
 40
0.4447312631
 40
0.5165547627
 40
0.5831195928
 40
0.6434789023
 40
0.6974753975
 40
0.7460421602
 40
0.7690127253
 40
0.7915574428
 40
0.8141023608
 40
0.8370730709
 40
0.885638978
 40
0.9396409962
 40
1.0
 40
1.0
 40
1.0
 40
1.0
 10
80.2919034708
 20
186.7964846227
 30
0.0
 10
80.2112277875
 20
186.8430616964
 30
0.0
 10
80.0348069351
 20
186.9252096016
 30
0.0
 10
79.7475225233
 20
187.0125329808
 30
0.0
 10
79.4364860567
 20
187.066270969
 30
0.0
 10
79.1133970287
 20
187.0844087125
 30
0.0
 10
78.7902983162
 20
187.0662673347
 30
0.0
 10
78.4792880123
 20
187.0125323301
 30
0.0
 10
78.1919357698
 20
186.9251722332
 30
0.0
 10
77.9388061256
 20
186.8073304939
 30
0.0
 10
77.7290859017
 20
186.6628763546
 30
0.0
 10
77.5705033158
 20
186.4963292122
 30
0.0
 10
77.4853922832
 20
186.3394441246
 30
0.0
 10
77.4522292476
 20
186.2114494817
 30
0.0
 10
77.4440236946
 20
186.1160851639
 30
0.0
 10
77.4522259584
 20
186.0207200532
 30
0.0
 10
77.4853837421
 20
185.8927261625
 30
0.0
 10
77.5704954828
 20
185.7358212995
 30
0.0
 10
77.729039535
 20
185.5693042045
 30
0.0
 10
77.8617386959
 20
185.4779081337
 30
0.0
 10
77.9348941399
 20
185.4356727739
 30
0.0
  0
SPLINE
  5
470
100
AcDbEntity
  8
0
100
AcDbSpline
 62
7
  6
BYLAYER
 70
0
 71
3
 72
11
 73
7
 74
0
 42
0.0000001
 43
0.0000001
 44
0.0000000001
 40
0.0
 40
0.0
 40
0.0
 40
0.0
 40
0.2897062311
 40
0.5490596185
 40
0.7822840529
 40
1.0
 40
1.0
 40
1.0
 40
1.0
 10
80.1551961577
 20
186.6882282203
 30
0.0
 10
80.1661659935
 20
186.6818949259
 30
0.0
 10
80.1860642027
 20
186.6681856287
 30
0.0
 10
80.2098598991
 20
186.6431924818
 30
0.0
 10
80.2248948161
 20
186.6155333035
 30
0.0
 10
80.2284201297
 20
186.5956869608
 30
0.0
 10
80.2284201984
 20
186.5861677828
 30
0.0
  0
SPLINE
  5
471
100
AcDbEntity
  8
0
100
AcDbSpline
 62
7
  6
BYLAYER
 70
0
 71
3
 72
9
 73
5
 74
0
 42
0.0000001
 43
0.0000001
 44
0.0000000001
 40
0.0
 40
0.0
 40
0.0
 40
0.0
 40
0.5255657768
 40
1.0
 40
1.0
 40
1.0
 40
1.0
 10
79.9276193394
 20
186.7598313109
 30
0.0
 10
79.9597194434
 20
186.7598313881
 30
0.0
 10
80.0209610209
 20
186.7531927517
 30
0.0
 10
80.0793012667
 20
186.7320451648
 30
0.0
 10
80.1043963395
 20
186.7175568455
 30
0.0
  0
SPLINE
  5
472
100
AcDbEntity
  8
0
100
AcDbSpline
 62
7
  6
BYLAYER
 70
0
 71
3
 72
9
 73
5
 74
0
 42
0.0000001
 43
0.0000001
 44
0.0000000001
 40
0.0
 40
0.0
 40
0.0
 40
0.0
 40
0.4744336899
 40
1.0
 40
1.0
 40
1.0
 40
1.0
 10
79.7508429489
 20
186.7175559957
 30
0.0
 10
79.7759378362
 20
186.7320444491
 30
0.0
 10
79.8342778525
 20
186.7531923259
 30
0.0
 10
79.8955192703
 20
186.7598312338
 30
0.0
 10
79.9276193394
 20
186.7598313109
 30
0.0
  0
SPLINE
  5
473
100
AcDbEntity
  8
0
100
AcDbSpline
 62
7
  6
BYLAYER
 70
0
 71
3
 72
13
 73
9
 74
0
 42
0.0000001
 43
0.0000001
 44
0.0000000001
 40
0.0
 40
0.0
 40
0.0
 40
0.0
 40
0.1080943257
 40
0.2182275668
 40
0.3322566908
 40
0.4517053976
 40
0.7105907388
 40
1.0
 40
1.0
 40
1.0
 40
1.0
 10
76.6134034757
 20
185.4356600173
 30
0.0
 10
76.6133992713
 20
185.3883319967
 30
0.0
 10
76.6216262706
 20
185.2925913353
 30
0.0
 10
76.658302232
 20
185.1511759068
 30
0.0
 10
76.7188735026
 20
185.0128083203
 30
0.0
 10
76.8334321659
 20
184.8294157705
 30
0.0
 10
77.0369092879
 20
184.6153198243
 30
0.0
 10
77.2359002223
 20
184.4784060348
 30
0.0
 10
77.3456392123
 20
184.4150496327
 30
0.0
  0
SPLINE
  5
474
100
AcDbEntity
  8
0
100
AcDbSpline
 62
7
  6
BYLAYER
 70
0
 71
3
 72
9
 73
5
 74
0
 42
0.0000001
 43
0.0000001
 44
0.0000000001
 40
0.0
 40
0.0
 40
0.0
 40
0.0
 40
0.5255663101
 40
1.0
 40
1.0
 40
1.0
 40
1.0
 10
79.1133964033
 20
186.4491715447
 30
0.0
 10
79.1668965184
 20
186.4491716733
 30
0.0
 10
79.2689655478
 20
186.4602365197
 30
0.0
 10
79.3661989083
 20
186.4954829809
 30
0.0
 10
79.4080237203
 20
186.5196304032
 30
0.0
  0
SPLINE
  5
475
100
AcDbEntity
  8
0
100
AcDbSpline
 62
7
  6
BYLAYER
 70
0
 71
3
 72
9
 73
5
 74
0
 42
0.0000001
 43
0.0000001
 44
0.0000000001
 40
0.0
 40
0.0
 40
0.0
 40
0.0
 40
0.4744342232
 40
1.0
 40
1.0
 40
1.0
 40
1.0
 10
78.8187680697
 20
186.519628987
 30
0.0
 10
78.8605931911
 20
186.4954817883
 30
0.0
 10
78.9578269341
 20
186.4602358102
 30
0.0
 10
79.0598962299
 20
186.4491714161
 30
0.0
 10
79.1133964033
 20
186.4491715447
 30
0.0
  0
SPLINE
  5
476
100
AcDbEntity
  8
0
100
AcDbSpline
 62
7
  6
BYLAYER
 70
0
 71
3
 72
9
 73
5
 74
0
 42
0.0000001
 43
0.0000001
 44
0.0000000001
 40
0.0
 40
0.0
 40
0.0
 40
0.0
 40
0.5255657768
 40
1.0
 40
1.0
 40
1.0
 40
1.0
 10
78.2778304409
 20
186.7721469331
 30
0.0
 10
78.309930545
 20
186.7721470102
 30
0.0
 10
78.3711721225
 20
186.7655083738
 30
0.0
 10
78.4295123683
 20
186.7443607869
 30
0.0
 10
78.4546074411
 20
186.7298724677
 30
0.0
  0
SPLINE
  5
477
100
AcDbEntity
  8
0
100
AcDbSpline
 62
7
  6
BYLAYER
 70
0
 71
3
 72
9
 73
5
 74
0
 42
0.0000001
 43
0.0000001
 44
0.0000000001
 40
0.0
 40
0.0
 40
0.0
 40
0.0
 40
0.5255657768
 40
1.0
 40
1.0
 40
1.0
 40
1.0
 10
74.342315966
 20
25.9693813292
 30
0.0
 10
74.239595633
 20
25.9693810823
 30
0.0
 10
74.0436225851
 20
25.9906247189
 30
0.0
 10
73.8569337984
 20
26.0582969968
 30
0.0
 10
73.7766295655
 20
26.1046596184
 30
0.0
  0
SPLINE
  5
478
100
AcDbEntity
  8
0
100
AcDbSpline
 62
7
  6
BYLAYER
 70
0
 71
3
 72
9
 73
5
 74
0
 42
0.0000001
 43
0.0000001
 44
0.0000000001
 40
0.0
 40
0.0
 40
0.0
 40
0.0
 40
0.4744336899
 40
1.0
 40
1.0
 40
1.0
 40
1.0
 10
74.9080004154
 20
26.1046623379
 30
0.0
 10
74.8276967761
 20
26.0582992869
 30
0.0
 10
74.6410087239
 20
25.9906260812
 30
0.0
 10
74.445036187
 20
25.9693815761
 30
0.0
 10
74.342315966
 20
25.9693813292
 30
0.0
  0
SPLINE
  5
479
100
AcDbEntity
  8
0
100
AcDbSpline
 62
7
  6
BYLAYER
 70
0
 71
3
 72
11
 73
7
 74
0
 42
0.0000001
 43
0.0000001
 44
0.0000000001
 40
0.0
 40
0.0
 40
0.0
 40
0.0
 40
0.2068559305
 40
0.4365751433
 40
0.7006923235
 40
1.0
 40
1.0
 40
1.0
 40
1.0
 10
78.4318769933
 20
26.659526427
 30
0.0
 10
78.4311090904
 20
26.6811062588
 30
0.0
 10
78.419144382
 20
26.7266507416
 30
0.0
 10
78.3747335118
 20
26.7863579161
 30
0.0
 10
78.308240394
 20
26.8370024547
 30
0.0
 10
78.2545848813
 20
26.8620810686
 30
0.0
 10
78.2252971248
 20
26.8729641856
 30
0.0
  0
SPLINE
  5
47A
100
AcDbEntity
  8
0
100
AcDbSpline
 62
7
  6
BYLAYER
 70
0
 71
3
 72
15
 73
11
 74
0
 42
0.0000001
 43
0.0000001
 44
0.0000000001
 40
0.0
 40
0.0
 40
0.0
 40
0.0
 40
0.1160876616
 40
0.23944565
 40
0.3682703344
 40
0.5000002978
 40
0.6317302146
 40
0.7605546944
 40
0.8839122652
 40
1.0
 40
1.0
 40
1.0
 40
1.0
 10
75.784786667
 20
24.6047676033
 30
0.0
 10
76.2136703171
 20
24.3571444329
 30
0.0
 10
77.1433430742
 20
23.9223153796
 30
0.0
 10
78.649776066
 20
23.4619715208
 30
0.0
 10
80.2672907495
 20
23.1807334913
 30
0.0
 10
81.9417125913
 20
23.0861670079
 30
0.0
 10
83.6161343466
 20
23.1807195971
 30
0.0
 10
85.2336485602
 20
23.4619431609
 30
0.0
 10
86.7400840415
 20
23.9222703629
 30
0.0
 10
87.6697608752
 20
24.3570867764
 30
0.0
 10
88.0986485014
 20
24.6047036848
 30
0.0
  0
SPLINE
  5
47B
100
AcDbEntity
  8
0
100
AcDbSpline
 62
7
  6
BYLAYER
 70
0
 71
3
 72
14
 73
10
 74
0
 42
0.0000001
 43
0.0000001
 44
0.0000000001
 40
0.0
 40
0.0
 40
0.0
 40
0.0
 40
0.2722417157
 40
0.4012695465
 40
0.5261631259
 40
0.6476434643
 40
0.7665654788
 40
0.8837481392
 40
1.0
 40
1.0
 40
1.0
 40
1.0
 10
88.0987592103
 20
24.6047676033
 30
0.0
 10
88.5014259178
 20
24.8372539822
 30
0.0
 10
89.0697972973
 20
25.2297976821
 30
0.0
 10
89.7210683157
 20
25.851104432
 30
0.0
 10
90.132209193
 20
26.3451883441
 30
0.0
 10
90.4681139816
 20
26.8731145474
 30
0.0
 10
90.7216649975
 20
27.4311295354
 30
0.0
 10
90.8861522399
 20
28.0124028054
 30
0.0
 10
90.9326300619
 20
28.4104391423
 30
0.0
 10
90.9395461239
 20
28.6088656998
 30
0.0
  0
SPLINE
  5
47C
100
AcDbEntity
  8
0
100
AcDbSpline
 62
7
  6
BYLAYER
 70
0
 71
3
 72
9
 73
5
 74
0
 42
0.0000001
 43
0.0000001
 44
0.0000000001
 40
0.0
 40
0.0
 40
0.0
 40
0.0
 40
0.2396039715
 40
1.0
 40
1.0
 40
1.0
 40
1.0
 10
74.0616847683
 20
25.9806767102
 30
0.0
 10
74.178432291
 20
25.8482169235
 30
0.0
 10
74.6924067124
 20
25.3189724439
 30
0.0
 10
75.2995198215
 20
24.8849445576
 30
0.0
 10
75.784786667
 20
24.6047676033
 30
0.0
  0
SPLINE
  5
47D
100
AcDbEntity
  8
0
100
AcDbSpline
 62
7
  6
BYLAYER
 70
0
 71
3
 72
11
 73
7
 74
0
 42
0.0000001
 43
0.0000001
 44
0.0000000001
 40
0.0
 40
0.0
 40
0.0
 40
0.0
 40
0.2857492054
 40
0.5435709782
 40
0.7783450801
 40
1.0
 40
1.0
 40
1.0
 40
1.0
 10
63.7840211741
 20
31.7298588736
 30
0.0
 10
63.7541852599
 20
31.7496038607
 30
0.0
 10
63.7001590823
 20
31.7916941055
 30
0.0
 10
63.6364216103
 20
31.8665116575
 30
0.0
 10
63.5967429428
 20
31.9478442976
 30
0.0
 10
63.5875082821
 20
32.0053121148
 30
0.0
 10
63.5875105826
 20
32.033064811
 30
0.0
  0
LINE
  5
47E
100
AcDbEntity
  8
0
100
AcDbLine
 62
7
  6
BYLAYER
 10
63.8532485541
 20
31.6838392221
 11
63.7840211741
 21
31.7298588736
  0
SPLINE
  5
47F
100
AcDbEntity
  8
0
100
AcDbSpline
 62
7
  6
BYLAYER
 70
0
 71
3
 72
9
 73
5
 74
0
 42
0.0000001
 43
0.0000001
 44
0.0000000001
 40
0.0
 40
0.0
 40
0.0
 40
0.0
 40
0.5255657768
 40
1.0
 40
1.0
 40
1.0
 40
1.0
 10
84.947035477
 20
25.3559516505
 30
0.0
 10
84.844315144
 20
25.3559514035
 30
0.0
 10
84.648342096
 20
25.3771950401
 30
0.0
 10
84.4616533094
 20
25.4448673181
 30
0.0
 10
84.3813490765
 20
25.4912299397
 30
0.0
  0
SPLINE
  5
480
100
AcDbEntity
  8
0
100
AcDbSpline
 62
7
  6
BYLAYER
 70
0
 71
3
 72
9
 73
5
 74
0
 42
0.0000001
 43
0.0000001
 44
0.0000000001
 40
0.0
 40
0.0
 40
0.0
 40
0.0
 40
0.4744336898
 40
1.0
 40
1.0
 40
1.0
 40
1.0
 10
85.5127199271
 20
25.4912326595
 30
0.0
 10
85.4324162876
 20
25.4448696084
 30
0.0
 10
85.2457282353
 20
25.3771964025
 30
0.0
 10
85.0497556981
 20
25.3559518974
 30
0.0
 10
84.947035477
 20
25.3559516505
 30
0.0
  0
SPLINE
  5
481
100
AcDbEntity
  8
0
100
AcDbSpline
 62
7
  6
BYLAYER
 70
0
 71
3
 72
11
 73
7
 74
0
 42
0.0000001
 43
0.0000001
 44
0.0000000001
 40
0.0
 40
0.0
 40
0.0
 40
0.0
 40
0.2177164324
 40
0.4509408358
 40
0.7102939719
 40
1.0
 40
1.0
 40
1.0
 40
1.0
 10
95.4929327711
 20
31.4924207254
 30
0.0
 10
95.4929330457
 20
31.4543440744
 30
0.0
 10
95.4788329901
 20
31.3749587092
 30
0.0
 10
95.418694899
 20
31.2643216094
 30
0.0
 10
95.323513504
 20
31.1643485109
 30
0.0
 10
95.2439214583
 20
31.1095109465
 30
0.0
 10
95.2000424962
 20
31.0841775671
 30
0.0
  0
SPLINE
  5
482
100
AcDbEntity
  8
0
100
AcDbSpline
 62
7
  6
BYLAYER
 70
0
 71
3
 72
9
 73
5
 74
0
 42
0.0000001
 43
0.0000001
 44
0.0000000001
 40
0.0
 40
0.0
 40
0.0
 40
0.0
 40
0.2372066285
 40
1.0
 40
1.0
 40
1.0
 40
1.0
 10
62.6927082867
 20
35.2550968409
 30
0.0
 10
62.6885768456
 20
35.2602522179
 30
0.0
 10
62.6702539668
 20
35.2812572347
 30
0.0
 10
62.6487074272
 20
35.2993380339
 30
0.0
 10
62.6313002565
 20
35.3115174701
 30
0.0
  0
SPLINE
  5
483
100
AcDbEntity
  8
0
100
AcDbSpline
 62
7
  6
BYLAYER
 70
0
 71
3
 72
9
 73
5
 74
0
 42
0.0000001
 43
0.0000001
 44
0.0000000001
 40
0.0
 40
0.0
 40
0.0
 40
0.0
 40
0.2601874101
 40
1.0
 40
1.0
 40
1.0
 40
1.0
 10
77.5559278312
 20
26.8556732789
 30
0.0
 10
77.5377210968
 20
26.856234577
 30
0.0
 10
77.4679001651
 20
26.8611654798
 30
0.0
 10
77.3985260212
 20
26.8769441911
 30
0.0
 10
77.3503968061
 20
26.8960786375
 30
0.0
  0
SPLINE
  5
484
100
AcDbEntity
  8
0
100
AcDbSpline
 62
7
  6
BYLAYER
 70
0
 71
3
 72
9
 73
5
 74
0
 42
0.0000001
 43
0.0000001
 44
0.0000000001
 40
0.0
 40
0.0
 40
0.0
 40
0.0
 40
0.2412953819
 40
1.0
 40
1.0
 40
1.0
 40
1.0
 10
77.7677430315
 20
26.883212208
 30
0.0
 10
77.7513030698
 20
26.8780719331
 30
0.0
 10
77.6821766132
 20
26.8600276597
 30
0.0
 10
77.6100621124
 20
26.8540043649
 30
0.0
 10
77.5559278312
 20
26.8556732789
 30
0.0
  0
SPLINE
  5
485
100
AcDbEntity
  8
0
100
AcDbSpline
 62
7
  6
BYLAYER
 70
0
 71
3
 72
9
 73
5
 74
0
 42
0.0000001
 43
0.0000001
 44
0.0000000001
 40
0.0
 40
0.0
 40
0.0
 40
0.0
 40
0.4965566634
 40
1.0
 40
1.0
 40
1.0
 40
1.0
 10
78.2252971248
 20
26.8729641856
 30
0.0
 10
78.1534096444
 20
26.8996770499
 30
0.0
 10
77.9980444781
 20
26.9253558365
 30
0.0
 10
77.8419855831
 20
26.9063141121
 30
0.0
 10
77.7677430315
 20
26.883212208
 30
0.0
  0
SPLINE
  5
486
100
AcDbEntity
  8
0
100
AcDbSpline
 62
7
  6
BYLAYER
 70
0
 71
3
 72
9
 73
5
 74
0
 42
0.0000001
 43
0.0000001
 44
0.0000000001
 40
0.0
 40
0.0
 40
0.0
 40
0.0
 40
0.5181657412
 40
1.0
 40
1.0
 40
1.0
 40
1.0
 10
78.4617481572
 20
26.5291512035
 30
0.0
 10
78.4517838242
 20
26.54250073
 30
0.0
 10
78.4356641776
 20
26.5709336244
 30
0.0
 10
78.4297233407
 20
26.6032916419
 30
0.0
 10
78.4297226823
 20
26.6187819031
 30
0.0
  0
SPLINE
  5
487
100
AcDbEntity
  8
0
100
AcDbSpline
 62
7
  6
BYLAYER
 70
0
 71
3
 72
9
 73
5
 74
0
 42
0.0000001
 43
0.0000001
 44
0.0000000001
 40
0.0
 40
0.0
 40
0.0
 40
0.0
 40
0.2759147208
 40
1.0
 40
1.0
 40
1.0
 40
1.0
 10
78.5760933936
 20
26.4423254
 30
0.0
 10
78.5640549211
 20
26.4479174751
 30
0.0
 10
78.5214811899
 20
26.4701185296
 30
0.0
 10
78.4825849797
 20
26.5012354651
 30
0.0
 10
78.4617481572
 20
26.5291512035
 30
0.0
  0
SPLINE
  5
488
100
AcDbEntity
  8
0
100
AcDbSpline
 62
7
  6
BYLAYER
 70
0
 71
3
 72
9
 73
5
 74
0
 42
0.0000001
 43
0.0000001
 44
0.0000000001
 40
0.0
 40
0.0
 40
0.0
 40
0.0
 40
0.2469319429
 40
1.0
 40
1.0
 40
1.0
 40
1.0
 10
82.5269070463
 20
25.9495699163
 30
0.0
 10
82.4749964106
 20
25.9396677991
 30
0.0
 10
82.2640958606
 20
25.9031872383
 30
0.0
 10
82.0507688731
 20
25.8809077688
 30
0.0
 10
81.8898593668
 20
25.8718134719
 30
0.0
  0
SPLINE
  5
489
100
AcDbEntity
  8
0
100
AcDbSpline
 62
7
  6
BYLAYER
 70
0
 71
3
 72
9
 73
5
 74
0
 42
0.0000001
 43
0.0000001
 44
0.0000000001
 40
0.0
 40
0.0
 40
0.0
 40
0.0
 40
0.2439727904
 40
1.0
 40
1.0
 40
1.0
 40
1.0
 10
83.2306221975
 20
26.1404636774
 30
0.0
 10
83.174655951
 20
26.1207832609
 30
0.0
 10
82.9437252018
 20
26.0445198511
 30
0.0
 10
82.7072227273
 20
25.9853922097
 30
0.0
 10
82.5269070463
 20
25.9495699163
 30
0.0
  0
SPLINE
  5
48A
100
AcDbEntity
  8
0
100
AcDbSpline
 62
7
  6
BYLAYER
 70
0
 71
3
 72
9
 73
5
 74
0
 42
0.0000001
 43
0.0000001
 44
0.0000000001
 40
0.0
 40
0.0
 40
0.0
 40
0.0
 40
0.2413147141
 40
1.0
 40
1.0
 40
1.0
 40
1.0
 10
83.8472814667
 20
26.4138768911
 30
0.0
 10
83.7997417763
 20
26.387647226
 30
0.0
 10
83.6002341087
 20
26.2835158356
 30
0.0
 10
83.3916593721
 20
26.1970920717
 30
0.0
 10
83.2306221975
 20
26.1404636774
 30
0.0
  0
SPLINE
  5
48B
100
AcDbEntity
  8
0
100
AcDbSpline
 62
7
  6
BYLAYER
 70
0
 71
3
 72
11
 73
7
 74
0
 42
0.0000001
 43
0.0000001
 44
0.0000000001
 40
0.0
 40
0.0
 40
0.0
 40
0.0
 40
0.2146357478
 40
0.4503772866
 40
0.7120213265
 40
1.0
 40
1.0
 40
1.0
 40
1.0
 10
84.1711267424
 20
26.7322789171
 30
0.0
 10
84.1617244519
 20
26.7002320709
 30
0.0
 10
84.1313555523
 20
26.6358727536
 30
0.0
 10
84.0597111634
 20
26.5501827945
 30
0.0
 10
83.9632563219
 20
26.4740252224
 30
0.0
 10
83.887933603
 20
26.4327271843
 30
0.0
 10
83.8472814667
 20
26.4138768911
 30
0.0
  0
SPLINE
  5
48C
100
AcDbEntity
  8
0
100
AcDbSpline
 62
7
  6
BYLAYER
 70
0
 71
3
 72
9
 73
5
 74
0
 42
0.0000001
 43
0.0000001
 44
0.0000000001
 40
0.0
 40
0.0
 40
0.0
 40
0.0
 40
0.5118166122
 40
1.0
 40
1.0
 40
1.0
 40
1.0
 10
97.4345978555
 20
34.3899018248
 30
0.0
 10
97.3267455318
 20
34.3793539208
 30
0.0
 10
97.1133998767
 20
34.3809170545
 30
0.0
 10
96.9044428729
 20
34.4265016056
 30
0.0
 10
96.8072142928
 20
34.4615803491
 30
0.0
  0
SPLINE
  5
48D
100
AcDbEntity
  8
0
100
AcDbSpline
 62
7
  6
BYLAYER
 70
0
 71
3
 72
9
 73
5
 74
0
 42
0.0000001
 43
0.0000001
 44
0.0000000001
 40
0.0
 40
0.0
 40
0.0
 40
0.0
 40
0.4682831591
 40
1.0
 40
1.0
 40
1.0
 40
1.0
 10
97.9860915295
 20
34.5768739604
 30
0.0
 10
97.9116811837
 20
34.5233839944
 30
0.0
 10
97.7315685117
 20
34.4386858588
 30
0.0
 10
97.5381584868
 20
34.4000300033
 30
0.0
 10
97.4345978555
 20
34.3899018248
 30
0.0
  0
SPLINE
  5
48E
100
AcDbEntity
  8
0
100
AcDbSpline
 62
7
  6
BYLAYER
 70
0
 71
3
 72
9
 73
5
 74
0
 42
0.0000001
 43
0.0000001
 44
0.0000000001
 40
0.0
 40
0.0
 40
0.0
 40
0.0
 40
0.2389907174
 40
1.0
 40
1.0
 40
1.0
 40
1.0
 10
98.4596587421
 20
34.9328995421
 30
0.0
 10
98.4253661702
 20
34.9003933259
 30
0.0
 10
98.2776983627
 20
34.768802845
 30
0.0
 10
98.1148731529
 20
34.6546760153
 30
0.0
 10
97.9860915295
 20
34.5768739604
 30
0.0
  0
SPLINE
  5
48F
100
AcDbEntity
  8
0
100
AcDbSpline
 62
7
  6
BYLAYER
 70
0
 71
3
 72
9
 73
5
 74
0
 42
0.0000001
 43
0.0000001
 44
0.0000000001
 40
0.0
 40
0.0
 40
0.0
 40
0.0
 40
0.23914411
 40
1.0
 40
1.0
 40
1.0
 40
1.0
 10
98.7902953023
 20
35.3391854554
 30
0.0
 10
98.7688787106
 20
35.3032512083
 30
0.0
 10
98.6734621313
 20
35.1564963651
 30
0.0
 10
98.5562517288
 20
35.0244608437
 30
0.0
 10
98.4596587421
 20
34.9328995421
 30
0.0
  0
SPLINE
  5
490
100
AcDbEntity
  8
0
100
AcDbSpline
 62
7
  6
BYLAYER
 70
0
 71
3
 72
9
 73
5
 74
0
 42
0.0000001
 43
0.0000001
 44
0.0000000001
 40
0.0
 40
0.0
 40
0.0
 40
0.0
 40
0.4897455464
 40
1.0
 40
1.0
 40
1.0
 40
1.0
 10
98.9249700355
 20
35.7069804941
 30
0.0
 10
98.9142400353
 20
35.6436932879
 30
0.0
 10
98.8798497912
 20
35.5163366844
 30
0.0
 10
98.8235126704
 20
35.3972314116
 30
0.0
 10
98.7902953023
 20
35.3391854554
 30
0.0
  0
LINE
  5
491
100
AcDbEntity
  8
0
100
AcDbLine
 62
7
  6
BYLAYER
 10
63.7836824252
 20
34.1795907379
 11
63.5875289205
 21
34.3096474251
  0
LINE
  5
492
100
AcDbEntity
  8
0
100
AcDbLine
 62
7
  6
BYLAYER
 10
63.5079542855
 20
34.3622681457
 11
63.3226689205
 21
34.4844810251
  0
SPLINE
  5
493
100
AcDbEntity
  8
0
100
AcDbSpline
 62
7
  6
BYLAYER
 70
0
 71
3
 72
9
 73
5
 74
0
 42
0.0000001
 43
0.0000001
 44
0.0000000001
 40
0.0
 40
0.0
 40
0.0
 40
0.0
 40
0.5368572366
 40
1.0
 40
1.0
 40
1.0
 40
1.0
 10
62.7889752119
 20
34.8340852569
 30
0.0
 10
62.7673602376
 20
34.8481723969
 30
0.0
 10
62.7296483643
 20
34.8789653578
 30
0.0
 10
62.7034600977
 20
34.9208624376
 30
0.0
 10
62.69616907
 20
34.9418921006
 30
0.0
  0
SPLINE
  5
494
100
AcDbEntity
  8
0
100
AcDbSpline
 62
7
  6
BYLAYER
 70
0
 71
3
 72
9
 73
5
 74
0
 42
0.0000001
 43
0.0000001
 44
0.0000000001
 40
0.0
 40
0.0
 40
0.0
 40
0.0
 40
0.2543559946
 40
1.0
 40
1.0
 40
1.0
 40
1.0
 10
62.69616907
 20
34.9418921006
 30
0.0
 10
62.6948884584
 20
34.9455857954
 30
0.0
 10
62.6904255958
 20
34.9602980135
 30
0.0
 10
62.6883893689
 20
34.9757582322
 30
0.0
 10
62.6883885383
 20
34.9872186061
 30
0.0
  0
SPLINE
  5
495
100
AcDbEntity
  8
0
100
AcDbSpline
 62
7
  6
BYLAYER
 70
0
 71
3
 72
10
 73
6
 74
0
 42
0.0000001
 43
0.0000001
 44
0.0000000001
 40
0.0
 40
0.0
 40
0.0
 40
0.0
 40
0.2225825156
 40
0.4698155579
 40
1.0
 40
1.0
 40
1.0
 40
1.0
 10
62.6313002565
 20
35.3115174701
 30
0.0
 10
62.6053929842
 20
35.329644251
 30
0.0
 10
62.5457231934
 20
35.3609351593
 30
0.0
 10
62.4094940221
 20
35.4027082751
 30
0.0
 10
62.2970100972
 20
35.4095248336
 30
0.0
 10
62.2219382894
 20
35.4034689928
 30
0.0
  0
SPLINE
  5
496
100
AcDbEntity
  8
0
100
AcDbSpline
 62
7
  6
BYLAYER
 70
0
 71
3
 72
9
 73
5
 74
0
 42
0.0000001
 43
0.0000001
 44
0.0000000001
 40
0.0
 40
0.0
 40
0.0
 40
0.0
 40
0.2532145011
 40
1.0
 40
1.0
 40
1.0
 40
1.0
 10
62.2219382894
 20
35.4034689928
 30
0.0
 10
62.2041320014
 20
35.4020326075
 30
0.0
 10
62.1336297307
 20
35.3991407945
 30
0.0
 10
62.0625693824
 20
35.4068980441
 30
0.0
 10
62.0113748101
 20
35.419342022
 30
0.0
  0
SPLINE
  5
497
100
AcDbEntity
  8
0
100
AcDbSpline
 62
7
  6
BYLAYER
 70
0
 71
3
 72
9
 73
5
 74
0
 42
0.0000001
 43
0.0000001
 44
0.0000000001
 40
0.0
 40
0.0
 40
0.0
 40
0.0
 40
0.2714876873
 40
1.0
 40
1.0
 40
1.0
 40
1.0
 10
62.0113748101
 20
35.419342022
 30
0.0
 10
61.9951973176
 20
35.4232743208
 30
0.0
 10
61.9363484113
 20
35.4402498797
 30
0.0
 10
61.8797195711
 20
35.4676452096
 30
0.0
 10
61.8445549004
 20
35.4952004076
 30
0.0
  0
SPLINE
  5
498
100
AcDbEntity
  8
0
100
AcDbSpline
 62
7
  6
BYLAYER
 70
0
 71
3
 72
9
 73
5
 74
0
 42
0.0000001
 43
0.0000001
 44
0.0000000001
 40
0.0
 40
0.0
 40
0.0
 40
0.0
 40
0.2551707188
 40
1.0
 40
1.0
 40
1.0
 40
1.0
 10
61.8445549004
 20
35.4952004076
 30
0.0
 10
61.7834205452
 20
35.5431055701
 30
0.0
 10
61.5461172266
 20
35.7337232825
 30
0.0
 10
61.3181609658
 20
35.9360558901
 30
0.0
 10
61.1549847556
 20
36.0934416741
 30
0.0
  0
SPLINE
  5
499
100
AcDbEntity
  8
0
100
AcDbSpline
 62
7
  6
BYLAYER
 70
0
 71
3
 72
9
 73
5
 74
0
 42
0.0000001
 43
0.0000001
 44
0.0000000001
 40
0.0
 40
0.0
 40
0.0
 40
0.0
 40
0.2552371616
 40
1.0
 40
1.0
 40
1.0
 40
1.0
 10
61.1549847556
 20
36.0934416741
 30
0.0
 10
61.1020600536
 20
36.1444883046
 30
0.0
 10
60.8974098496
 20
36.3472600407
 30
0.0
 10
60.703866168
 20
36.5613235054
 30
0.0
 10
60.5674814841
 20
36.7269559472
 30
0.0
  0
SPLINE
  5
49A
100
AcDbEntity
  8
0
100
AcDbSpline
 62
7
  6
BYLAYER
 70
0
 71
3
 72
9
 73
5
 74
0
 42
0.0000001
 43
0.0000001
 44
0.0000000001
 40
0.0
 40
0.0
 40
0.0
 40
0.0
 40
0.5166174518
 40
1.0
 40
1.0
 40
1.0
 40
1.0
 10
60.5674814841
 20
36.7269559472
 30
0.0
 10
60.5086767624
 20
36.8027997699
 30
0.0
 10
60.4079950342
 20
36.960661723
 30
0.0
 10
60.3451536763
 20
37.1376597116
 30
0.0
 10
60.3261796924
 20
37.2254284941
 30
0.0
  0
SPLINE
  5
49B
100
AcDbEntity
  8
0
100
AcDbSpline
 62
7
  6
BYLAYER
 70
0
 71
3
 72
9
 73
5
 74
0
 42
0.0000001
 43
0.0000001
 44
0.0000000001
 40
0.0
 40
0.0
 40
0.0
 40
0.0
 40
0.4957057874
 40
1.0
 40
1.0
 40
1.0
 40
1.0
 10
90.9393429435
 20
28.6160113226
 30
0.0
 10
90.9335057519
 20
28.4710895363
 30
0.0
 10
90.9004233789
 20
28.179225022
 30
0.0
 10
90.8263752404
 20
27.8950760066
 30
0.0
 10
90.779726118
 20
27.7550920449
 30
0.0
  0
SPLINE
  5
49C
100
AcDbEntity
  8
0
100
AcDbSpline
 62
7
  6
BYLAYER
 70
0
 71
3
 72
11
 73
7
 74
0
 42
0.0000001
 43
0.0000001
 44
0.0000000001
 40
0.0
 40
0.0
 40
0.0
 40
0.0
 40
0.2207680759
 40
0.4589080927
 40
0.7182254242
 40
1.0
 40
1.0
 40
1.0
 40
1.0
 10
90.779726118
 20
27.7550920449
 30
0.0
 10
90.692914388
 20
27.494588754
 30
0.0
 10
90.4441861188
 20
26.9743272447
 30
0.0
 10
89.8946375025
 20
26.2633927199
 30
0.0
 10
89.1724271653
 20
25.6106982719
 30
0.0
 10
88.6092735499
 20
25.2377219417
 30
0.0
 10
88.305760465
 20
25.0624896264
 30
0.0
  0
SPLINE
  5
49D
100
AcDbEntity
  8
0
100
AcDbSpline
 62
7
  6
BYLAYER
 70
0
 71
3
 72
9
 73
5
 74
0
 42
0.0000001
 43
0.0000001
 44
0.0000000001
 40
0.0
 40
0.0
 40
0.0
 40
0.0
 40
0.2731948011
 40
1.0
 40
1.0
 40
1.0
 40
1.0
 10
78.2252971248
 20
35.854490774
 30
0.0
 10
78.2402213951
 20
35.8489450239
 30
0.0
 10
78.2938586022
 20
35.8263662792
 30
0.0
 10
78.3441991585
 20
35.7939013419
 30
0.0
 10
78.3738102368
 20
35.7636143724
 30
0.0
  0
SPLINE
  5
49E
100
AcDbEntity
  8
0
100
AcDbSpline
 62
7
  6
BYLAYER
 70
0
 71
3
 72
9
 73
5
 74
0
 42
0.0000001
 43
0.0000001
 44
0.0000000001
 40
0.0
 40
0.0
 40
0.0
 40
0.0
 40
0.2548730682
 40
1.0
 40
1.0
 40
1.0
 40
1.0
 10
78.3839809316
 20
35.7526017609
 30
0.0
 10
78.3855113274
 20
35.7508441373
 30
0.0
 10
78.3914185735
 20
35.7438642396
 30
0.0
 10
78.3969272103
 20
35.7365447032
 30
0.0
 10
78.4007607847
 20
35.7309121763
 30
0.0
  0
SPLINE
  5
49F
100
AcDbEntity
  8
0
100
AcDbSpline
 62
7
  6
BYLAYER
 70
0
 71
3
 72
9
 73
5
 74
0
 42
0.0000001
 43
0.0000001
 44
0.0000000001
 40
0.0
 40
0.0
 40
0.0
 40
0.0
 40
0.2412038708
 40
1.0
 40
1.0
 40
1.0
 40
1.0
 10
77.7677430315
 20
35.8647387964
 30
0.0
 10
77.7856945385
 20
35.8703247305
 30
0.0
 10
77.861170081
 20
35.8900232077
 30
0.0
 10
77.9398142278
 20
35.8970032525
 30
0.0
 10
77.9989433749
 20
35.8956789133
 30
0.0
  0
SPLINE
  5
4A0
100
AcDbEntity
  8
0
100
AcDbSpline
 62
7
  6
BYLAYER
 70
0
 71
3
 72
9
 73
5
 74
0
 42
0.0000001
 43
0.0000001
 44
0.0000000001
 40
0.0
 40
0.0
 40
0.0
 40
0.0
 40
0.2590867806
 40
1.0
 40
1.0
 40
1.0
 40
1.0
 10
77.9989433749
 20
35.8956789133
 30
0.0
 10
78.0188569973
 20
35.8952329
 30
0.0
 10
78.0955853264
 20
35.8905575691
 30
0.0
 10
78.1719028558
 20
35.8743316956
 30
0.0
 10
78.2252971248
 20
35.854490774
 30
0.0
  0
SPLINE
  5
4A1
100
AcDbEntity
  8
0
100
AcDbSpline
 62
7
  6
BYLAYER
 70
0
 71
3
 72
9
 73
5
 74
0
 42
0.0000001
 43
0.0000001
 44
0.0000000001
 40
0.0
 40
0.0
 40
0.0
 40
0.0
 40
0.2538406055
 40
1.0
 40
1.0
 40
1.0
 40
1.0
 10
77.7160976897
 20
35.8512306645
 30
0.0
 10
77.7205156758
 20
35.8521750292
 30
0.0
 10
77.7378782514
 20
35.8560880019
 30
0.0
 10
77.7550681937
 20
35.860775761
 30
0.0
 10
77.7677430315
 20
35.8647387964
 30
0.0
  0
SPLINE
  5
4A2
100
AcDbEntity
  8
0
100
AcDbSpline
 62
7
  6
BYLAYER
 70
0
 71
3
 72
9
 73
5
 74
0
 42
0.0000001
 43
0.0000001
 44
0.0000000001
 40
0.0
 40
0.0
 40
0.0
 40
0.0
 40
0.2441123428
 40
1.0
 40
1.0
 40
1.0
 40
1.0
 10
77.3503968061
 20
35.8776052259
 30
0.0
 10
77.3552605515
 20
35.8756715756
 30
0.0
 10
77.3753138002
 20
35.8680772173
 30
0.0
 10
77.3958415929
 20
35.8617503148
 30
0.0
 10
77.4115158802
 20
35.8576290975
 30
0.0
  0
SPLINE
  5
4A3
100
AcDbEntity
  8
0
100
AcDbSpline
 62
7
  6
BYLAYER
 70
0
 71
3
 72
9
 73
5
 74
0
 42
0.0000001
 43
0.0000001
 44
0.0000000001
 40
0.0
 40
0.0
 40
0.0
 40
0.0
 40
0.2437377208
 40
1.0
 40
1.0
 40
1.0
 40
1.0
 10
62.758244748
 20
43.838359106
 30
0.0
 10
62.7606196099
 20
43.8363550614
 30
0.0
 10
62.7704996446
 20
43.8282954113
 30
0.0
 10
62.7808976136
 20
43.8208762633
 30
0.0
 10
62.7889752119
 20
43.8156118454
 30
0.0
  0
SPLINE
  5
4A4
100
AcDbEntity
  8
0
100
AcDbSpline
 62
7
  6
BYLAYER
 70
0
 71
3
 72
9
 73
5
 74
0
 42
0.0000001
 43
0.0000001
 44
0.0000000001
 40
0.0
 40
0.0
 40
0.0
 40
0.0
 40
0.5292078264
 40
1.0
 40
1.0
 40
1.0
 40
1.0
 10
62.3740709384
 20
44.382259874
 30
0.0
 10
62.4212709059
 20
44.3767230331
 30
0.0
 10
62.5097117697
 20
44.357867979
 30
0.0
 10
62.5923219332
 20
44.3195822138
 30
0.0
 10
62.6272853135
 20
44.2958130195
 30
0.0
  0
SPLINE
  5
4A5
100
AcDbEntity
  8
0
100
AcDbSpline
 62
7
  6
BYLAYER
 70
0
 71
3
 72
9
 73
5
 74
0
 42
0.0000001
 43
0.0000001
 44
0.0000000001
 40
0.0
 40
0.0
 40
0.0
 40
0.0
 40
0.244347259
 40
1.0
 40
1.0
 40
1.0
 40
1.0
 10
61.8445549004
 20
44.4767269961
 30
0.0
 10
61.8467115601
 20
44.4750370276
 30
0.0
 10
61.8556339976
 20
44.4682440514
 30
0.0
 10
61.8649230433
 20
44.461936007
 30
0.0
 10
61.8720982731
 20
44.4574290075
 30
0.0
  0
SPLINE
  5
4A6
100
AcDbEntity
  8
0
100
AcDbSpline
 62
7
  6
BYLAYER
 70
0
 71
3
 72
9
 73
5
 74
0
 42
0.0000001
 43
0.0000001
 44
0.0000000001
 40
0.0
 40
0.0
 40
0.0
 40
0.0
 40
0.2393997778
 40
1.0
 40
1.0
 40
1.0
 40
1.0
 10
61.8720982731
 20
44.4574290075
 30
0.0
 10
61.8778266453
 20
44.4538308271
 30
0.0
 10
61.9021834505
 20
44.4394863679
 30
0.0
 10
61.928067429
 20
44.4278044724
 30
0.0
 10
61.9481832708
 20
44.4202368959
 30
0.0
  0
SPLINE
  5
4A7
100
AcDbEntity
  8
0
100
AcDbSpline
 62
7
  6
BYLAYER
 70
0
 71
3
 72
9
 73
5
 74
0
 42
0.0000001
 43
0.0000001
 44
0.0000000001
 40
0.0
 40
0.0
 40
0.0
 40
0.0
 40
0.2449312445
 40
1.0
 40
1.0
 40
1.0
 40
1.0
 10
61.1549847556
 20
45.0749682625
 30
0.0
 10
61.2086443293
 20
45.0232128377
 30
0.0
 10
61.4306015796
 20
44.8149015952
 30
0.0
 10
61.6636526676
 20
44.6184828194
 30
0.0
 10
61.8445549004
 20
44.4767269961
 30
0.0
  0
SPLINE
  5
4A8
100
AcDbEntity
  8
0
100
AcDbSpline
 62
7
  6
BYLAYER
 70
0
 71
3
 72
9
 73
5
 74
0
 42
0.0000001
 43
0.0000001
 44
0.0000000001
 40
0.0
 40
0.0
 40
0.0
 40
0.0
 40
0.247197648
 40
1.0
 40
1.0
 40
1.0
 40
1.0
 10
60.3261796924
 20
46.2069550825
 30
0.0
 10
60.3292838569
 20
46.1925960135
 30
0.0
 10
60.3430511281
 20
46.1347748563
 30
0.0
 10
60.3616103648
 20
46.0781101921
 30
0.0
 10
60.3779703269
 20
46.0364702747
 30
0.0
  0
SPLINE
  5
4A9
100
AcDbEntity
  8
0
100
AcDbSpline
 62
7
  6
BYLAYER
 70
0
 71
3
 72
9
 73
5
 74
0
 42
0.0000001
 43
0.0000001
 44
0.0000000001
 40
0.0
 40
0.0
 40
0.0
 40
0.0
 40
0.2414253363
 40
1.0
 40
1.0
 40
1.0
 40
1.0
 10
60.3779703269
 20
46.0364702747
 30
0.0
 10
60.3891395777
 20
46.0080419274
 30
0.0
 10
60.4400318515
 20
45.8921215745
 30
0.0
 10
60.5086764947
 20
45.7843267037
 30
0.0
 10
60.5674814841
 20
45.7084825357
 30
0.0
  0
SPLINE
  5
4AA
100
AcDbEntity
  8
0
100
AcDbSpline
 62
7
  6
BYLAYER
 70
0
 71
3
 72
9
 73
5
 74
0
 42
0.0000001
 43
0.0000001
 44
0.0000000001
 40
0.0
 40
0.0
 40
0.0
 40
0.0
 40
0.2537842541
 40
1.0
 40
1.0
 40
1.0
 40
1.0
 10
97.4345978555
 20
43.3714284132
 30
0.0
 10
97.4524082781
 20
43.3731702637
 30
0.0
 10
97.5224561703
 20
43.3812911775
 30
0.0
 10
97.591949711
 20
43.3943860485
 30
0.0
 10
97.6429888985
 20
43.407182174
 30
0.0
  0
SPLINE
  5
4AB
100
AcDbEntity
  8
0
100
AcDbSpline
 62
7
  6
BYLAYER
 70
0
 71
3
 72
9
 73
5
 74
0
 42
0.0000001
 43
0.0000001
 44
0.0000000001
 40
0.0
 40
0.0
 40
0.0
 40
0.0
 40
0.2582161005
 40
1.0
 40
1.0
 40
1.0
 40
1.0
 10
97.6429888985
 20
43.407182174
 30
0.0
 10
97.660076758
 20
43.4114663017
 30
0.0
 10
97.7259051134
 20
43.4293885239
 30
0.0
 10
97.7903230131
 20
43.4527024881
 30
0.0
 10
97.8364951255
 20
43.4734221443
 30
0.0
  0
SPLINE
  5
4AC
100
AcDbEntity
  8
0
100
AcDbSpline
 62
7
  6
BYLAYER
 70
0
 71
3
 72
9
 73
5
 74
0
 42
0.0000001
 43
0.0000001
 44
0.0000000001
 40
0.0
 40
0.0
 40
0.0
 40
0.0
 40
0.2610522135
 40
1.0
 40
1.0
 40
1.0
 40
1.0
 10
97.8364951255
 20
43.4734221443
 30
0.0
 10
97.8501665173
 20
43.479557158
 30
0.0
 10
97.9019952609
 20
43.5042219354
 30
0.0
 10
97.951650048
 20
43.5336422487
 30
0.0
 10
97.9860915295
 20
43.5584005488
 30
0.0
  0
SPLINE
  5
4AD
100
AcDbEntity
  8
0
100
AcDbSpline
 62
7
  6
BYLAYER
 70
0
 71
3
 72
15
 73
11
 74
0
 42
0.0000001
 43
0.0000001
 44
0.0000000001
 40
0.0
 40
0.0
 40
0.0
 40
0.0
 40
0.114157724
 40
0.2373244526
 40
0.3669752053
 40
0.4999994786
 40
0.6330238245
 40
0.762674789
 40
0.8858418513
 40
1.0
 40
1.0
 40
1.0
 40
1.0
 10
88.305760465
 20
25.0624896264
 30
0.0
 10
87.8700854933
 20
24.8109540657
 30
0.0
 10
86.9174394758
 20
24.3673327772
 30
0.0
 10
85.3660882829
 20
23.8958448114
 30
0.0
 10
83.6865334795
 20
23.6055861724
 30
0.0
 10
81.941810167
 20
23.50765899
 30
0.0
 10
80.1970854599
 20
23.6055778916
 30
0.0
 10
78.5175265354
 20
23.8958285557
 30
0.0
 10
76.9661686644
 20
24.3673091471
 30
0.0
 10
76.0135168102
 20
24.8109256774
 30
0.0
 10
75.5778384037
 20
25.0624590323
 30
0.0
  0
SPLINE
  5
4AE
100
AcDbEntity
  8
0
100
AcDbSpline
 62
7
  6
BYLAYER
 70
0
 71
3
 72
9
 73
5
 74
0
 42
0.0000001
 43
0.0000001
 44
0.0000000001
 40
0.0
 40
0.0
 40
0.0
 40
0.0
 40
0.261203105
 40
1.0
 40
1.0
 40
1.0
 40
1.0
 10
75.5778384037
 20
25.0624590323
 30
0.0
 10
75.4635663187
 20
25.1284325588
 30
0.0
 10
75.0321423313
 20
25.3911606094
 30
0.0
 10
74.6254688357
 20
25.6960383112
 30
0.0
 10
74.3490522379
 20
25.946796962
 30
0.0
  0
SPLINE
  5
4AF
100
AcDbEntity
  8
0
100
AcDbSpline
 62
7
  6
BYLAYER
 70
0
 71
3
 72
9
 73
5
 74
0
 42
0.0000001
 43
0.0000001
 44
0.0000000001
 40
0.0
 40
0.0
 40
0.0
 40
0.0
 40
0.5332988381
 40
1.0
 40
1.0
 40
1.0
 40
1.0
 10
83.8472814667
 20
35.3954034795
 30
0.0
 10
83.9006319252
 20
35.4201419527
 30
0.0
 10
83.9969747493
 20
35.4753933715
 30
0.0
 10
84.078266014
 20
35.5523639756
 30
0.0
 10
84.109200262
 20
35.593492303
 30
0.0
  0
SPLINE
  5
4B0
100
AcDbEntity
  8
0
100
AcDbSpline
 62
7
  6
BYLAYER
 70
0
 71
3
 72
9
 73
5
 74
0
 42
0.0000001
 43
0.0000001
 44
0.0000000001
 40
0.0
 40
0.0
 40
0.0
 40
0.0
 40
0.2613555246
 40
1.0
 40
1.0
 40
1.0
 40
1.0
 10
84.109200262
 20
35.593492303
 30
0.0
 10
84.1160438093
 20
35.6025910746
 30
0.0
 10
84.140902973
 20
35.6383590365
 30
0.0
 10
84.1601211046
 20
35.6782236992
 30
0.0
 10
84.1696617936
 20
35.7089535106
 30
0.0
  0
SPLINE
  5
4B1
100
AcDbEntity
  8
0
100
AcDbSpline
 62
7
  6
BYLAYER
 70
0
 71
3
 72
9
 73
5
 74
0
 42
0.0000001
 43
0.0000001
 44
0.0000000001
 40
0.0
 40
0.0
 40
0.0
 40
0.0
 40
0.5124638732
 40
1.0
 40
1.0
 40
1.0
 40
1.0
 10
62.7099509147
 20
191.4253851047
 30
0.0
 10
62.7031064066
 20
191.4138422617
 30
0.0
 10
62.6922515756
 20
191.3896627017
 30
0.0
 10
62.6883876131
 20
191.3633538165
 30
0.0
 10
62.6883885383
 20
191.350587026
 30
0.0
  0
SPLINE
  5
4B2
100
AcDbEntity
  8
0
100
AcDbSpline
 62
7
  6
BYLAYER
 70
0
 71
3
 72
9
 73
5
 74
0
 42
0.0000001
 43
0.0000001
 44
0.0000000001
 40
0.0
 40
0.0
 40
0.0
 40
0.0
 40
0.2528153945
 40
1.0
 40
1.0
 40
1.0
 40
1.0
 10
60.3478637206
 20
194.1062198062
 30
0.0
 10
60.3415922662
 20
194.083030298
 30
0.0
 10
60.319698371
 20
193.9905456605
 30
0.0
 10
60.3099521438
 20
193.8951586782
 30
0.0
 10
60.3099528572
 20
193.824161011
 30
0.0
  0
SPLINE
  5
4B3
100
AcDbEntity
  8
0
100
AcDbSpline
 62
7
  6
BYLAYER
 70
0
 71
3
 72
9
 73
5
 74
0
 42
0.0000001
 43
0.0000001
 44
0.0000000001
 40
0.0
 40
0.0
 40
0.0
 40
0.0
 40
0.2533558182
 40
1.0
 40
1.0
 40
1.0
 40
1.0
 10
60.3757102504
 20
194.1849480081
 30
0.0
 10
60.3728762766
 20
194.1784860838
 30
0.0
 10
60.3621475238
 20
194.1527835059
 30
0.0
 10
60.3532923874
 20
194.1262929989
 30
0.0
 10
60.3478637206
 20
194.1062198062
 30
0.0
  0
SPLINE
  5
4B4
100
AcDbEntity
  8
0
100
AcDbSpline
 62
7
  6
BYLAYER
 70
0
 71
3
 72
9
 73
5
 74
0
 42
0.0000001
 43
0.0000001
 44
0.0000000001
 40
0.0
 40
0.0
 40
0.0
 40
0.0
 40
0.254298895
 40
1.0
 40
1.0
 40
1.0
 40
1.0
 10
60.4161135565
 20
194.2618406088
 30
0.0
 10
60.4122554991
 20
194.2555655929
 30
0.0
 10
60.3974890976
 20
194.2306441211
 30
0.0
 10
60.3843857796
 20
194.2047296354
 30
0.0
 10
60.3757102504
 20
194.1849480081
 30
0.0
  0
SPLINE
  5
4B5
100
AcDbEntity
  8
0
100
AcDbSpline
 62
7
  6
BYLAYER
 70
0
 71
3
 72
9
 73
5
 74
0
 42
0.0000001
 43
0.0000001
 44
0.0000000001
 40
0.0
 40
0.0
 40
0.0
 40
0.0
 40
0.263116697
 40
1.0
 40
1.0
 40
1.0
 40
1.0
 10
60.802489894
 20
194.7131186427
 30
0.0
 10
60.7634307495
 20
194.6784789262
 30
0.0
 10
60.6192025081
 20
194.5422655611
 30
0.0
 10
60.4926913055
 20
194.3863920447
 30
0.0
 10
60.4161135565
 20
194.2618406088
 30
0.0
  0
SPLINE
  5
4B6
100
AcDbEntity
  8
0
100
AcDbSpline
 62
7
  6
BYLAYER
 70
0
 71
3
 72
9
 73
5
 74
0
 42
0.0000001
 43
0.0000001
 44
0.0000000001
 40
0.0
 40
0.0
 40
0.0
 40
0.0
 40
0.2588666781
 40
1.0
 40
1.0
 40
1.0
 40
1.0
 10
61.1875291303
 20
194.9985012806
 30
0.0
 10
61.1524234413
 20
194.9765908865
 30
0.0
 10
61.0184322
 20
194.8894085242
 30
0.0
 10
60.8911299015
 20
194.7917292928
 30
0.0
 10
60.802489894
 20
194.7131186427
 30
0.0
  0
SPLINE
  5
4B7
100
AcDbEntity
  8
0
100
AcDbSpline
 62
7
  6
BYLAYER
 70
0
 71
3
 72
11
 73
7
 74
0
 42
0.0000001
 43
0.0000001
 44
0.0000000001
 40
0.0
 40
0.0
 40
0.0
 40
0.0
 40
0.2186698235
 40
0.4522998897
 40
0.7112411981
 40
1.0
 40
1.0
 40
1.0
 40
1.0
 10
94.5131806204
 20
198.877348875
 30
0.0
 10
94.5131804057
 20
198.9071167295
 30
0.0
 10
94.5024367864
 20
198.9690812287
 30
0.0
 10
94.4565011164
 20
199.0557675619
 30
0.0
 10
94.3835925119
 20
199.1344912726
 30
0.0
 10
94.3224369627
 20
199.1779807973
 30
0.0
 10
94.2887026472
 20
199.1981601698
 30
0.0
  0
SPLINE
  5
4B8
100
AcDbEntity
  8
0
100
AcDbSpline
 62
7
  6
BYLAYER
 70
0
 71
3
 72
12
 73
8
 74
0
 42
0.0000001
 43
0.0000001
 44
0.0000000001
 40
0.0
 40
0.0
 40
0.0
 40
0.0
 40
0.289581483
 40
0.5486354953
 40
0.7816386319
 40
0.8918926189
 40
1.0
 40
1.0
 40
1.0
 40
1.0
 10
92.3715957531
 20
194.7960095448
 30
0.0
 10
92.2289391185
 20
194.878370528
 30
0.0
 10
91.9701722434
 20
195.0565835927
 30
0.0
 10
91.6610484805
 20
195.3812932542
 30
0.0
 10
91.4949992301
 20
195.6872793472
 30
0.0
 10
91.43042861
 20
195.9368363508
 30
0.0
 10
91.4196836675
 20
196.0612997176
 30
0.0
 10
91.4196832241
 20
196.1227952329
 30
0.0
  0
SPLINE
  5
4B9
100
AcDbEntity
  8
0
100
AcDbSpline
 62
7
  6
BYLAYER
 70
0
 71
3
 72
11
 73
7
 74
0
 42
0.0000001
 43
0.0000001
 44
0.0000000001
 40
0.0
 40
0.0
 40
0.0
 40
0.0
 40
0.2177159471
 40
0.4509403815
 40
0.7102937689
 40
1.0
 40
1.0
 40
1.0
 40
1.0
 10
95.5757754835
 20
192.7548038473
 30
0.0
 10
95.5757752638
 20
192.7852652167
 30
0.0
 10
95.5644942602
 20
192.8487735135
 30
0.0
 10
95.5163825259
 20
192.9372828842
 30
0.0
 10
95.4402362972
 20
193.0172609541
 30
0.0
 10
95.376562028
 20
193.0611307053
 30
0.0
 10
95.3414585533
 20
193.0813972474
 30
0.0
  0
SPLINE
  5
4BA
100
AcDbEntity
  8
0
100
AcDbSpline
 62
7
  6
BYLAYER
 70
0
 71
3
 72
11
 73
7
 74
0
 42
0.0000001
 43
0.0000001
 44
0.0000000001
 40
0.0
 40
0.0
 40
0.0
 40
0.0
 40
0.2884644208
 40
0.5479840518
 40
0.7821696105
 40
1.0
 40
1.0
 40
1.0
 40
1.0
 10
63.8213380347
 20
193.6217647291
 30
0.0
 10
63.7877475426
 20
193.6023713652
 30
0.0
 10
63.7266157368
 20
193.5604445462
 30
0.0
 10
63.6525689361
 20
193.4845934233
 30
0.0
 10
63.6038006445
 20
193.4009786752
 30
0.0
 10
63.5897686055
 20
193.3406076914
 30
0.0
 10
63.5879978116
 20
193.3113718144
 30
0.0
  0
SPLINE
  5
4BB
100
AcDbEntity
  8
0
100
AcDbSpline
 62
7
  6
BYLAYER
 70
0
 71
3
 72
12
 73
8
 74
0
 42
0.0000001
 43
0.0000001
 44
0.0000000001
 40
0.0
 40
0.0
 40
0.0
 40
0.0
 40
0.1080514237
 40
0.2182584283
 40
0.4512163841
 40
0.7103100403
 40
1.0
 40
1.0
 40
1.0
 40
1.0
 10
66.8095670416
 20
196.1227360774
 30
0.0
 10
66.8095674853
 20
196.0612078942
 30
0.0
 10
66.798791094
 20
195.9366714205
 30
0.0
 10
66.734023702
 20
195.6869681723
 30
0.0
 10
66.5674595114
 20
195.3808580711
 30
0.0
 10
66.2574859863
 20
195.0562182176
 30
0.0
 10
65.9980873233
 20
194.8781880299
 30
0.0
 10
65.8550914592
 20
194.7959458072
 30
0.0
  0
SPLINE
  5
4BC
100
AcDbEntity
  8
0
100
AcDbSpline
 62
7
  6
BYLAYER
 70
0
 71
3
 72
11
 73
7
 74
0
 42
0.0000001
 43
0.0000001
 44
0.0000000001
 40
0.0
 40
0.0
 40
0.0
 40
0.0
 40
0.2897060281
 40
0.5490591642
 40
0.7822835676
 40
1.0
 40
1.0
 40
1.0
 40
1.0
 10
64.0872933
 20
199.1233115723
 30
0.0
 10
64.0521901302
 20
199.1030448688
 30
0.0
 10
63.9885164937
 20
199.0591748173
 30
0.0
 10
63.9123713777
 20
198.9791963385
 30
0.0
 10
63.8642609049
 20
198.8906866587
 30
0.0
 10
63.8529808604
 20
198.8271783665
 30
0.0
 10
63.85298108
 20
198.7967170457
 30
0.0
  0
SPLINE
  5
4BD
100
AcDbEntity
  8
0
100
AcDbSpline
 62
7
  6
BYLAYER
 70
0
 71
3
 72
9
 73
5
 74
0
 42
0.0000001
 43
0.0000001
 44
0.0000000001
 40
0.0
 40
0.0
 40
0.0
 40
0.0
 40
0.5255663101
 40
1.0
 40
1.0
 40
1.0
 40
1.0
 10
66.526802228
 20
200.436096746
 30
0.0
 10
66.4754421176
 20
200.4360966225
 30
0.0
 10
66.3774558494
 20
200.42547437
 30
0.0
 10
66.2841118234
 20
200.3916377673
 30
0.0
 10
66.2439600038
 20
200.3684562418
 30
0.0
  0
SPLINE
  5
4BE
100
AcDbEntity
  8
0
100
AcDbSpline
 62
7
  6
BYLAYER
 70
0
 71
3
 72
9
 73
5
 74
0
 42
0.0000001
 43
0.0000001
 44
0.0000000001
 40
0.0
 40
0.0
 40
0.0
 40
0.0
 40
0.4744342232
 40
1.0
 40
1.0
 40
1.0
 40
1.0
 10
66.8096454283
 20
200.3684576013
 30
0.0
 10
66.7694933118
 20
200.3916389122
 30
0.0
 10
66.6761489185
 20
200.4254750511
 30
0.0
 10
66.5781623945
 20
200.4360968694
 30
0.0
 10
66.526802228
 20
200.436096746
 30
0.0
  0
SPLINE
  5
4BF
100
AcDbEntity
  8
0
100
AcDbSpline
 62
7
  6
BYLAYER
 70
0
 71
3
 72
11
 73
7
 74
0
 42
0.0000001
 43
0.0000001
 44
0.0000000001
 40
0.0
 40
0.0
 40
0.0
 40
0.0
 40
0.2177159471
 40
0.4509403815
 40
0.7102937689
 40
1.0
 40
1.0
 40
1.0
 40
1.0
 10
67.704624591
 20
199.7560960713
 30
0.0
 10
67.7046244812
 20
199.771326756
 30
0.0
 10
67.6989839794
 20
199.8030809044
 30
0.0
 10
67.6749281123
 20
199.8473355898
 30
0.0
 10
67.6368549979
 20
199.8873246247
 30
0.0
 10
67.6050178633
 20
199.9092595003
 30
0.0
 10
67.5874661259
 20
199.9193927714
 30
0.0
  0
SPLINE
  5
4C0
100
AcDbEntity
  8
0
100
AcDbSpline
 62
7
  6
BYLAYER
 70
0
 71
3
 72
11
 73
7
 74
0
 42
0.0000001
 43
0.0000001
 44
0.0000000001
 40
0.0
 40
0.0
 40
0.0
 40
0.0
 40
0.2897062311
 40
0.5490596185
 40
0.7822840529
 40
1.0
 40
1.0
 40
1.0
 40
1.0
 10
66.7389462316
 20
198.77631186
 30
0.0
 10
66.7213944943
 20
198.786445131
 30
0.0
 10
66.6895573597
 20
198.8083800067
 30
0.0
 10
66.6514842453
 20
198.8483690416
 30
0.0
 10
66.6274283782
 20
198.892623727
 30
0.0
 10
66.6217878763
 20
198.9243778753
 30
0.0
 10
66.6217877665
 20
198.9396085601
 30
0.0
  0
SPLINE
  5
4C1
100
AcDbEntity
  8
0
100
AcDbSpline
 62
7
  6
BYLAYER
 70
0
 71
3
 72
9
 73
5
 74
0
 42
0.0000001
 43
0.0000001
 44
0.0000000001
 40
0.0
 40
0.0
 40
0.0
 40
0.0
 40
0.5255657768
 40
1.0
 40
1.0
 40
1.0
 40
1.0
 10
68.0117430471
 20
198.137135659
 30
0.0
 10
67.9603828806
 20
198.1371355356
 30
0.0
 10
67.8623963566
 20
198.1477573539
 30
0.0
 10
67.7690519633
 20
198.1815934929
 30
0.0
 10
67.7288998468
 20
198.2047748037
 30
0.0
  0
SPLINE
  5
4C2
100
AcDbEntity
  8
0
100
AcDbSpline
 62
7
  6
BYLAYER
 70
0
 71
3
 72
9
 73
5
 74
0
 42
0.0000001
 43
0.0000001
 44
0.0000000001
 40
0.0
 40
0.0
 40
0.0
 40
0.0
 40
0.4744336899
 40
1.0
 40
1.0
 40
1.0
 40
1.0
 10
68.2945852718
 20
198.2047761634
 30
0.0
 10
68.2544334521
 20
198.1815946379
 30
0.0
 10
68.161089426
 20
198.147758035
 30
0.0
 10
68.0631031576
 20
198.1371357825
 30
0.0
 10
68.0117430471
 20
198.137135659
 30
0.0
  0
SPLINE
  5
4C3
100
AcDbEntity
  8
0
100
AcDbSpline
 62
7
  6
BYLAYER
 70
0
 71
3
 72
11
 73
7
 74
0
 42
0.0000001
 43
0.0000001
 44
0.0000000001
 40
0.0
 40
0.0
 40
0.0
 40
0.0
 40
0.2177164324
 40
0.4509408358
 40
0.7102939719
 40
1.0
 40
1.0
 40
1.0
 40
1.0
 10
75.6242005213
 20
202.5321637962
 30
0.0
 10
75.6242006311
 20
202.5169331358
 30
0.0
 10
75.6185606089
 20
202.4851789897
 30
0.0
 10
75.5945053725
 20
202.4409241498
 30
0.0
 10
75.5564328145
 20
202.4009349104
 30
0.0
 10
75.5245959962
 20
202.3789998847
 30
0.0
 10
75.5070444114
 20
202.3688665329
 30
0.0
  0
SPLINE
  5
4C4
100
AcDbEntity
  8
0
100
AcDbSpline
 62
7
  6
BYLAYER
 70
0
 71
3
 72
11
 73
7
 74
0
 42
0.0000001
 43
0.0000001
 44
0.0000000001
 40
0.0
 40
0.0
 40
0.0
 40
0.0
 40
0.2897060281
 40
0.5490591642
 40
0.7822835676
 40
1.0
 40
1.0
 40
1.0
 40
1.0
 10
71.7593699336
 20
203.5527606418
 30
0.0
 10
71.7418183487
 20
203.54262729
 30
0.0
 10
71.7099815305
 20
203.5206922643
 30
0.0
 10
71.6719089725
 20
203.4807030249
 30
0.0
 10
71.6478537361
 20
203.436448185
 30
0.0
 10
71.6422137138
 20
203.4046940389
 30
0.0
 10
71.6422138237
 20
203.3894633785
 30
0.0
  0
SPLINE
  5
4C5
100
AcDbEntity
  8
0
100
AcDbSpline
 62
7
  6
BYLAYER
 70
0
 71
3
 72
9
 73
5
 74
0
 42
0.0000001
 43
0.0000001
 44
0.0000000001
 40
0.0
 40
0.0
 40
0.0
 40
0.0
 40
0.5255663101
 40
1.0
 40
1.0
 40
1.0
 40
1.0
 10
74.4817210865
 20
204.9331863199
 30
0.0
 10
74.3790008655
 20
204.9331860729
 30
0.0
 10
74.1830283286
 20
204.9119415679
 30
0.0
 10
73.9963402764
 20
204.8442683621
 30
0.0
 10
73.9160366371
 20
204.7979053111
 30
0.0
  0
SPLINE
  5
4C6
100
AcDbEntity
  8
0
100
AcDbSpline
 62
7
  6
BYLAYER
 70
0
 71
3
 72
9
 73
5
 74
0
 42
0.0000001
 43
0.0000001
 44
0.0000000001
 40
0.0
 40
0.0
 40
0.0
 40
0.0
 40
0.4744342232
 40
1.0
 40
1.0
 40
1.0
 40
1.0
 10
75.047407487
 20
204.7979080306
 30
0.0
 10
74.967103254
 20
204.8442706522
 30
0.0
 10
74.7804144674
 20
204.9119429302
 30
0.0
 10
74.5844414195
 20
204.9331865668
 30
0.0
 10
74.4817210865
 20
204.9331863199
 30
0.0
  0
SPLINE
  5
4C7
100
AcDbEntity
  8
0
100
AcDbSpline
 62
7
  6
BYLAYER
 70
0
 71
3
 72
11
 73
7
 74
0
 42
0.0000001
 43
0.0000001
 44
0.0000000001
 40
0.0
 40
0.0
 40
0.0
 40
0.0
 40
0.2661265443
 40
0.5254694246
 40
0.7717922511
 40
1.0
 40
1.0
 40
1.0
 40
1.0
 10
79.1132828126
 20
203.2262472876
 30
0.0
 10
78.9014876412
 20
203.2262467785
 30
0.0
 10
78.4829010536
 20
203.2497872053
 30
0.0
 10
77.8762825424
 20
203.3548885138
 30
0.0
 10
77.316123285
 20
203.5256114106
 30
0.0
 10
76.9723171131
 20
203.6862375231
 30
0.0
 10
76.8151817998
 20
203.7773061443
 30
0.0
  0
SPLINE
  5
4C8
100
AcDbEntity
  8
0
100
AcDbSpline
 62
7
  6
BYLAYER
 70
0
 71
3
 72
11
 73
7
 74
0
 42
0.0000001
 43
0.0000001
 44
0.0000000001
 40
0.0
 40
0.0
 40
0.0
 40
0.0
 40
0.2282073749
 40
0.4745300473
 40
0.7338730449
 40
1.0
 40
1.0
 40
1.0
 40
1.0
 10
81.4113758771
 20
203.7773171919
 30
0.0
 10
81.2542418077
 20
203.6862477751
 30
0.0
 10
80.9104377493
 20
203.525619945
 30
0.0
 10
80.3502809099
 20
203.3548943856
 30
0.0
 10
79.743663891
 20
203.2497901969
 30
0.0
 10
79.3250778683
 20
203.2262477967
 30
0.0
 10
79.1132828126
 20
203.2262472876
 30
0.0
  0
SPLINE
  5
4C9
100
AcDbEntity
  8
0
100
AcDbSpline
 62
7
  6
BYLAYER
 70
0
 71
3
 72
9
 73
5
 74
0
 42
0.0000001
 43
0.0000001
 44
0.0000000001
 40
0.0
 40
0.0
 40
0.0
 40
0.0
 40
0.525423856
 40
1.0
 40
1.0
 40
1.0
 40
1.0
 10
83.9827521929
 20
205.0862180934
 30
0.0
 10
83.8849754397
 20
205.0842435923
 30
0.0
 10
83.6988172734
 20
205.0611324818
 30
0.0
 10
83.5216274885
 20
204.9956642553
 30
0.0
 10
83.4451292312
 20
204.9514982295
 30
0.0
  0
SPLINE
  5
4CA
100
AcDbEntity
  8
0
100
AcDbSpline
 62
7
  6
BYLAYER
 70
0
 71
3
 72
9
 73
5
 74
0
 42
0.0000001
 43
0.0000001
 44
0.0000000001
 40
0.0
 40
0.0
 40
0.0
 40
0.0
 40
0.4786545066
 40
1.0
 40
1.0
 40
1.0
 40
1.0
 10
84.5351803597
 20
204.9732136482
 30
0.0
 10
84.4542587318
 20
205.0139551105
 30
0.0
 10
84.2715203878
 20
205.0722535087
 30
0.0
 10
84.0814115505
 20
205.0882104177
 30
0.0
 10
83.9827521929
 20
205.0862180934
 30
0.0
  0
LINE
  5
4CB
100
AcDbEntity
  8
0
100
AcDbLine
 62
7
  6
BYLAYER
 10
84.6152203735
 20
204.9330806117
 11
84.5351803597
 21
204.9732136482
  0
SPLINE
  5
4CC
100
AcDbEntity
  8
0
100
AcDbSpline
 62
7
  6
BYLAYER
 70
0
 71
3
 72
9
 73
5
 74
0
 42
0.0000001
 43
0.0000001
 44
0.0000000001
 40
0.0
 40
0.0
 40
0.0
 40
0.0
 40
0.4682831591
 40
1.0
 40
1.0
 40
1.0
 40
1.0
 10
97.9860915293
 20
188.4907351287
 30
0.0
 10
97.9116811835
 20
188.4372451628
 30
0.0
 10
97.7315685115
 20
188.3525470273
 30
0.0
 10
97.5381584867
 20
188.3138911718
 30
0.0
 10
97.4345978555
 20
188.3037629932
 30
0.0
  0
SPLINE
  5
4CD
100
AcDbEntity
  8
0
100
AcDbSpline
 62
7
  6
BYLAYER
 70
0
 71
3
 72
9
 73
5
 74
0
 42
0.0000001
 43
0.0000001
 44
0.0000000001
 40
0.0
 40
0.0
 40
0.0
 40
0.0
 40
0.2389907174
 40
1.0
 40
1.0
 40
1.0
 40
1.0
 10
98.4596587421
 20
188.8467607106
 30
0.0
 10
98.4253661702
 20
188.8142544944
 30
0.0
 10
98.2776983626
 20
188.6826640134
 30
0.0
 10
98.1148731528
 20
188.5685371836
 30
0.0
 10
97.9860915293
 20
188.4907351287
 30
0.0
  0
SPLINE
  5
4CE
100
AcDbEntity
  8
0
100
AcDbSpline
 62
7
  6
BYLAYER
 70
0
 71
3
 72
9
 73
5
 74
0
 42
0.0000001
 43
0.0000001
 44
0.0000000001
 40
0.0
 40
0.0
 40
0.0
 40
0.0
 40
0.23914411
 40
1.0
 40
1.0
 40
1.0
 40
1.0
 10
98.7902953023
 20
189.2530466239
 30
0.0
 10
98.7688787106
 20
189.2171123768
 30
0.0
 10
98.6734621313
 20
189.0703575336
 30
0.0
 10
98.5562517288
 20
188.9383220121
 30
0.0
 10
98.4596587421
 20
188.8467607106
 30
0.0
  0
SPLINE
  5
4CF
100
AcDbEntity
  8
0
100
AcDbSpline
 62
7
  6
BYLAYER
 70
0
 71
3
 72
9
 73
5
 74
0
 42
0.0000001
 43
0.0000001
 44
0.0000000001
 40
0.0
 40
0.0
 40
0.0
 40
0.0
 40
0.4897455464
 40
1.0
 40
1.0
 40
1.0
 40
1.0
 10
98.9249700355
 20
189.6208416626
 30
0.0
 10
98.9142400353
 20
189.5575544564
 30
0.0
 10
98.8798497912
 20
189.4301978529
 30
0.0
 10
98.8235126704
 20
189.3110925801
 30
0.0
 10
98.7902953023
 20
189.2530466239
 30
0.0
  0
SPLINE
  5
4D0
100
AcDbEntity
  8
0
100
AcDbSpline
 62
7
  6
BYLAYER
 70
0
 71
3
 72
10
 73
6
 74
0
 42
0.0000001
 43
0.0000001
 44
0.0000000001
 40
0.0
 40
0.0
 40
0.0
 40
0.0
 40
0.2311382515
 40
0.4707654152
 40
1.0
 40
1.0
 40
1.0
 40
1.0
 10
84.1837501683
 20
183.1824428172
 30
0.0
 10
84.1837575711
 20
183.206738526
 30
0.0
 10
84.1776399593
 20
183.2564298941
 30
0.0
 10
84.1404599054
 20
183.3555485496
 30
0.0
 10
84.0878296847
 20
183.4201118072
 30
0.0
 10
84.0469688974
 20
183.4578616307
 30
0.0
  0
SPLINE
  5
4D1
100
AcDbEntity
  8
0
100
AcDbSpline
 62
7
  6
BYLAYER
 70
0
 71
3
 72
9
 73
5
 74
0
 42
0.0000001
 43
0.0000001
 44
0.0000000001
 40
0.0
 40
0.0
 40
0.0
 40
0.0
 40
0.4774548266
 40
1.0
 40
1.0
 40
1.0
 40
1.0
 10
78.4318876663
 20
180.5730787587
 30
0.0
 10
78.4312288204
 20
180.5927264989
 30
0.0
 10
78.421438329
 20
180.6338805741
 30
0.0
 10
78.3981094945
 20
180.6687100189
 30
0.0
 10
78.3839809316
 20
180.6849363409
 30
0.0
  0
SPLINE
  5
4D2
100
AcDbEntity
  8
0
100
AcDbSpline
 62
7
  6
BYLAYER
 70
0
 71
3
 72
9
 73
5
 74
0
 42
0.0000001
 43
0.0000001
 44
0.0000000001
 40
0.0
 40
0.0
 40
0.0
 40
0.0
 40
0.4653208619
 40
1.0
 40
1.0
 40
1.0
 40
1.0
 10
78.3839809316
 20
180.6849363409
 30
0.0
 10
78.364628794
 20
180.7071618156
 30
0.0
 10
78.3146639703
 20
180.7476853005
 30
0.0
 10
78.2570390489
 20
180.7750302862
 30
0.0
 10
78.2252971248
 20
180.7868253541
 30
0.0
  0
SPLINE
  5
4D3
100
AcDbEntity
  8
0
100
AcDbSpline
 62
7
  6
BYLAYER
 70
0
 71
3
 72
9
 73
5
 74
0
 42
0.0000001
 43
0.0000001
 44
0.0000000001
 40
0.0
 40
0.0
 40
0.0
 40
0.0
 40
0.5109588724
 40
1.0
 40
1.0
 40
1.0
 40
1.0
 10
60.4758194076
 20
190.7906998382
 30
0.0
 10
60.436524515
 20
190.8580109718
 30
0.0
 10
60.370500437
 20
190.9965616388
 30
0.0
 10
60.3323162486
 20
191.1454556173
 30
0.0
 10
60.3214125456
 20
191.2192526142
 30
0.0
  0
SPLINE
  5
4D4
100
AcDbEntity
  8
0
100
AcDbSpline
 62
7
  6
BYLAYER
 70
0
 71
3
 72
9
 73
5
 74
0
 42
0.0000001
 43
0.0000001
 44
0.0000000001
 40
0.0
 40
0.0
 40
0.0
 40
0.0
 40
0.2552371616
 40
1.0
 40
1.0
 40
1.0
 40
1.0
 10
61.1549847556
 20
190.0073028426
 30
0.0
 10
61.1020600536
 20
190.0583494731
 30
0.0
 10
60.8974098496
 20
190.2611212092
 30
0.0
 10
60.703866168
 20
190.4751846739
 30
0.0
 10
60.567481484
 20
190.6408171157
 30
0.0
  0
SPLINE
  5
4D5
100
AcDbEntity
  8
0
100
AcDbSpline
 62
7
  6
BYLAYER
 70
0
 71
3
 72
9
 73
5
 74
0
 42
0.0000001
 43
0.0000001
 44
0.0000000001
 40
0.0
 40
0.0
 40
0.0
 40
0.0
 40
0.2551707188
 40
1.0
 40
1.0
 40
1.0
 40
1.0
 10
61.8445549004
 20
189.4090615761
 30
0.0
 10
61.7834205452
 20
189.4569667386
 30
0.0
 10
61.5461172266
 20
189.647584451
 30
0.0
 10
61.3181609658
 20
189.8499170585
 30
0.0
 10
61.1549847556
 20
190.0073028426
 30
0.0
  0
SPLINE
  5
4D6
100
AcDbEntity
  8
0
100
AcDbSpline
 62
7
  6
BYLAYER
 70
0
 71
3
 72
9
 73
5
 74
0
 42
0.0000001
 43
0.0000001
 44
0.0000000001
 40
0.0
 40
0.0
 40
0.0
 40
0.0
 40
0.2532145012
 40
1.0
 40
1.0
 40
1.0
 40
1.0
 10
62.2219382886
 20
189.3173301613
 30
0.0
 10
62.2041320007
 20
189.3158937759
 30
0.0
 10
62.1336297303
 20
189.313001963
 30
0.0
 10
62.0625693822
 20
189.3207592126
 30
0.0
 10
62.0113748101
 20
189.3332031905
 30
0.0
  0
SPLINE
  5
4D7
100
AcDbEntity
  8
0
100
AcDbSpline
 62
7
  6
BYLAYER
 70
0
 71
3
 72
10
 73
6
 74
0
 42
0.0000001
 43
0.0000001
 44
0.0000000001
 40
0.0
 40
0.0
 40
0.0
 40
0.0
 40
0.2226684596
 40
0.4698264496
 40
1.0
 40
1.0
 40
1.0
 40
1.0
 10
62.6313002565
 20
189.2253786386
 30
0.0
 10
62.6053828367
 20
189.2435125195
 30
0.0
 10
62.5457265605
 20
189.2748368983
 30
0.0
 10
62.4094704089
 20
189.3165341944
 30
0.0
 10
62.2970089717
 20
189.3233859113
 30
0.0
 10
62.2219382886
 20
189.3173301613
 30
0.0
  0
SPLINE
  5
4D8
100
AcDbEntity
  8
0
100
AcDbSpline
 62
7
  6
BYLAYER
 70
0
 71
3
 72
9
 73
5
 74
0
 42
0.0000001
 43
0.0000001
 44
0.0000000001
 40
0.0
 40
0.0
 40
0.0
 40
0.0
 40
0.254071076
 40
1.0
 40
1.0
 40
1.0
 40
1.0
 10
62.69616907
 20
188.8557532691
 30
0.0
 10
62.6950285479
 20
188.8590429008
 30
0.0
 10
62.6909944934
 20
188.8721427042
 30
0.0
 10
62.688870412
 20
188.8858396817
 30
0.0
 10
62.6884837952
 20
188.8960544115
 30
0.0
  0
SPLINE
  5
4D9
100
AcDbEntity
  8
0
100
AcDbSpline
 62
7
  6
BYLAYER
 70
0
 71
3
 72
9
 73
5
 74
0
 42
0.0000001
 43
0.0000001
 44
0.0000000001
 40
0.0
 40
0.0
 40
0.0
 40
0.0
 40
0.5368572366
 40
1.0
 40
1.0
 40
1.0
 40
1.0
 10
62.7889752119
 20
188.7479464254
 30
0.0
 10
62.7673602376
 20
188.7620335654
 30
0.0
 10
62.7296483643
 20
188.7928265263
 30
0.0
 10
62.7034600977
 20
188.8347236061
 30
0.0
 10
62.69616907
 20
188.8557532691
 30
0.0
  0
SPLINE
  5
4DA
100
AcDbEntity
  8
0
100
AcDbSpline
 62
7
  6
BYLAYER
 70
0
 71
3
 72
9
 73
5
 74
0
 42
0.0000001
 43
0.0000001
 44
0.0000000001
 40
0.0
 40
0.0
 40
0.0
 40
0.0
 40
0.2412953819
 40
1.0
 40
1.0
 40
1.0
 40
1.0
 10
77.7677430315
 20
180.7970733765
 30
0.0
 10
77.7513030697
 20
180.7919331016
 30
0.0
 10
77.6821766132
 20
180.7738888282
 30
0.0
 10
77.6100621124
 20
180.7678655334
 30
0.0
 10
77.5559278312
 20
180.7695344474
 30
0.0
  0
SPLINE
  5
4DB
100
AcDbEntity
  8
0
100
AcDbSpline
 62
7
  6
BYLAYER
 70
0
 71
3
 72
10
 73
6
 74
0
 42
0.0000001
 43
0.0000001
 44
0.0000000001
 40
0.0
 40
0.0
 40
0.0
 40
0.0
 40
0.2419703253
 40
0.4974024024
 40
1.0
 40
1.0
 40
1.0
 40
1.0
 10
78.2252971248
 20
180.7868253541
 30
0.0
 10
78.1902076599
 20
180.7998643438
 30
0.0
 10
78.1153011081
 20
180.8196154537
 30
0.0
 10
77.9610690313
 20
180.8346809972
 30
0.0
 10
77.8419855831
 20
180.8201752806
 30
0.0
 10
77.7677430315
 20
180.7970733765
 30
0.0
  0
SPLINE
  5
4DC
100
AcDbEntity
  8
0
100
AcDbSpline
 62
7
  6
BYLAYER
 70
0
 71
3
 72
9
 73
5
 74
0
 42
0.0000001
 43
0.0000001
 44
0.0000000001
 40
0.0
 40
0.0
 40
0.0
 40
0.0
 40
0.2644988116
 40
1.0
 40
1.0
 40
1.0
 40
1.0
 10
78.4621460482
 20
180.4431113668
 30
0.0
 10
78.4580471698
 20
180.4486027616
 30
0.0
 10
78.4436251343
 20
180.4701151173
 30
0.0
 10
78.4340943475
 20
180.495128055
 30
0.0
 10
78.4312950535
 20
180.5139761957
 30
0.0
  0
SPLINE
  5
4DD
100
AcDbEntity
  8
0
100
AcDbSpline
 62
7
  6
BYLAYER
 70
0
 71
3
 72
9
 73
5
 74
0
 42
0.0000001
 43
0.0000001
 44
0.0000000001
 40
0.0
 40
0.0
 40
0.0
 40
0.0
 40
0.2469319429
 40
1.0
 40
1.0
 40
1.0
 40
1.0
 10
82.5269070463
 20
179.8634310848
 30
0.0
 10
82.4749964106
 20
179.8535289676
 30
0.0
 10
82.2640958606
 20
179.8170484067
 30
0.0
 10
82.0507688731
 20
179.7947689373
 30
0.0
 10
81.8898593668
 20
179.7856746404
 30
0.0
  0
SPLINE
  5
4DE
100
AcDbEntity
  8
0
100
AcDbSpline
 62
7
  6
BYLAYER
 70
0
 71
3
 72
11
 73
7
 74
0
 42
0.0000001
 43
0.0000001
 44
0.0000000001
 40
0.0
 40
0.0
 40
0.0
 40
0.0
 40
0.2146357478
 40
0.4503772866
 40
0.7120213265
 40
1.0
 40
1.0
 40
1.0
 40
1.0
 10
84.1711267424
 20
180.6461400856
 30
0.0
 10
84.1617244519
 20
180.6140932394
 30
0.0
 10
84.1313555522
 20
180.549733922
 30
0.0
 10
84.0597111632
 20
180.4640439629
 30
0.0
 10
83.9632563217
 20
180.3878863907
 30
0.0
 10
83.8879336028
 20
180.3465883526
 30
0.0
 10
83.8472814664
 20
180.3277380594
 30
0.0
  0
SPLINE
  5
4DF
100
AcDbEntity
  8
0
100
AcDbSpline
 62
7
  6
BYLAYER
 70
0
 71
3
 72
9
 73
5
 74
0
 42
0.0000001
 43
0.0000001
 44
0.0000000001
 40
0.0
 40
0.0
 40
0.0
 40
0.0
 40
0.5118166122
 40
1.0
 40
1.0
 40
1.0
 40
1.0
 10
97.4345978555
 20
188.3037629932
 30
0.0
 10
97.3267455318
 20
188.2932150893
 30
0.0
 10
97.1133998767
 20
188.294778223
 30
0.0
 10
96.9044428729
 20
188.340362774
 30
0.0
 10
96.8072142927
 20
188.3754415176
 30
0.0
  0
SPLINE
  5
4E0
100
AcDbEntity
  8
0
100
AcDbSpline
 62
7
  6
BYLAYER
 70
0
 71
3
 72
9
 73
5
 74
0
 42
0.0000001
 43
0.0000001
 44
0.0000000001
 40
0.0
 40
0.0
 40
0.0
 40
0.0
 40
0.4663870088
 40
1.0
 40
1.0
 40
1.0
 40
1.0
 10
97.2208144126
 20
194.5725014891
 30
0.0
 10
97.2188030619
 20
194.5942447491
 30
0.0
 10
97.2024330993
 20
194.6400350283
 30
0.0
 10
97.1699726976
 20
194.675111564
 30
0.0
 10
97.1508275666
 20
194.691162849
 30
0.0
  0
SPLINE
  5
4E1
100
AcDbEntity
  8
0
100
AcDbSpline
 62
7
  6
BYLAYER
 70
0
 71
3
 72
10
 73
6
 74
0
 42
0.0000001
 43
0.0000001
 44
0.0000000001
 40
0.0
 40
0.0
 40
0.0
 40
0.0
 40
0.5393274299
 40
0.7840651552
 40
1.0
 40
1.0
 40
1.0
 40
1.0
 10
97.5999859931
 20
194.0673107712
 30
0.0
 10
97.521975046
 20
194.0642746872
 30
0.0
 10
97.4064651714
 20
194.0763734078
 30
0.0
 10
97.2706963209
 20
194.128229644
 30
0.0
 10
97.2141390635
 20
194.1651747824
 30
0.0
 10
97.1908708292
 20
194.1860463281
 30
0.0
  0
SPLINE
  5
4E2
100
AcDbEntity
  8
0
100
AcDbSpline
 62
7
  6
BYLAYER
 70
0
 71
3
 72
9
 73
5
 74
0
 42
0.0000001
 43
0.0000001
 44
0.0000000001
 40
0.0
 40
0.0
 40
0.0
 40
0.0
 40
0.2441253337
 40
1.0
 40
1.0
 40
1.0
 40
1.0
 10
97.7863828647
 20
194.0495360753
 30
0.0
 10
97.7715677475
 20
194.0532219778
 30
0.0
 10
97.7102973
 20
194.0659009197
 30
0.0
 10
97.6472058396
 20
194.0694826249
 30
0.0
 10
97.5999859931
 20
194.0673107712
 30
0.0
  0
SPLINE
  5
4E3
100
AcDbEntity
  8
0
100
AcDbSpline
 62
7
  6
BYLAYER
 70
0
 71
3
 72
9
 73
5
 74
0
 42
0.0000001
 43
0.0000001
 44
0.0000000001
 40
0.0
 40
0.0
 40
0.0
 40
0.0
 40
0.2305290833
 40
1.0
 40
1.0
 40
1.0
 40
1.0
 10
97.9367726699
 20
193.9835204891
 30
0.0
 10
97.9264832589
 20
193.9909037435
 30
0.0
 10
97.8798982836
 20
194.0202056286
 30
0.0
 10
97.8274038563
 20
194.0393303258
 30
0.0
 10
97.7863828647
 20
194.0495360753
 30
0.0
  0
SPLINE
  5
4E4
100
AcDbEntity
  8
0
100
AcDbSpline
 62
7
  6
BYLAYER
 70
0
 71
3
 72
9
 73
5
 74
0
 42
0.0000001
 43
0.0000001
 44
0.0000000001
 40
0.0
 40
0.0
 40
0.0
 40
0.0
 40
0.2449524714
 40
1.0
 40
1.0
 40
1.0
 40
1.0
 10
98.3111416214
 20
193.5835262637
 30
0.0
 10
98.2825180824
 20
193.6179203802
 30
0.0
 10
98.1635543924
 20
193.7565678839
 30
0.0
 10
98.0364300164
 20
193.8881654126
 30
0.0
 10
97.9367726699
 20
193.9835204891
 30
0.0
  0
SPLINE
  5
4E5
100
AcDbEntity
  8
0
100
AcDbSpline
 62
7
  6
BYLAYER
 70
0
 71
3
 72
9
 73
5
 74
0
 42
0.0000001
 43
0.0000001
 44
0.0000000001
 40
0.0
 40
0.0
 40
0.0
 40
0.0
 40
0.2452164937
 40
1.0
 40
1.0
 40
1.0
 40
1.0
 10
98.6181023438
 20
193.1648330372
 30
0.0
 10
98.5952702376
 20
193.2006219168
 30
0.0
 10
98.499726835
 20
193.3450092542
 30
0.0
 10
98.3947271163
 20
193.4830897225
 30
0.0
 10
98.3111416214
 20
193.5835262637
 30
0.0
  0
SPLINE
  5
4E6
100
AcDbEntity
  8
0
100
AcDbSpline
 62
7
  6
BYLAYER
 70
0
 71
3
 72
9
 73
5
 74
0
 42
0.0000001
 43
0.0000001
 44
0.0000000001
 40
0.0
 40
0.0
 40
0.0
 40
0.0
 40
0.2453105191
 40
1.0
 40
1.0
 40
1.0
 40
1.0
 10
98.8018995951
 20
192.8103316767
 30
0.0
 10
98.789373482
 20
192.8405085204
 30
0.0
 10
98.7356290501
 20
192.9624003516
 30
0.0
 10
98.671398322
 20
193.0796070133
 30
0.0
 10
98.6181023438
 20
193.1648330372
 30
0.0
  0
SPLINE
  5
4E7
100
AcDbEntity
  8
0
100
AcDbSpline
 62
7
  6
BYLAYER
 70
0
 71
3
 72
9
 73
5
 74
0
 42
0.0000001
 43
0.0000001
 44
0.0000000001
 40
0.0
 40
0.0
 40
0.0
 40
0.0
 40
0.2468477134
 40
1.0
 40
1.0
 40
1.0
 40
1.0
 10
98.916383244
 20
192.4462401236
 30
0.0
 10
98.9097535881
 20
192.47696179
 30
0.0
 10
98.8799847671
 20
192.6007775974
 30
0.0
 10
98.8386621293
 20
192.7217665135
 30
0.0
 10
98.8018995951
 20
192.8103316767
 30
0.0
  0
SPLINE
  5
4E8
100
AcDbEntity
  8
0
100
AcDbSpline
 62
7
  6
BYLAYER
 70
0
 71
3
 72
11
 73
7
 74
0
 42
0.0000001
 43
0.0000001
 44
0.0000000001
 40
0.0
 40
0.0
 40
0.0
 40
0.0
 40
0.2177159471
 40
0.4509403815
 40
0.7102937689
 40
1.0
 40
1.0
 40
1.0
 40
1.0
 10
63.85298108
 20
198.7967170457
 30
0.0
 10
63.8529812997
 20
198.7662556762
 30
0.0
 10
63.8642623034
 20
198.7027473795
 30
0.0
 10
63.9123740376
 20
198.6142380087
 30
0.0
 10
63.9885202663
 20
198.5342599388
 30
0.0
 10
64.0521945355
 20
198.4903901876
 30
0.0
 10
64.0872980102
 20
198.4701236455
 30
0.0
  0
SPLINE
  5
4E9
100
AcDbEntity
  8
0
100
AcDbSpline
 62
7
  6
BYLAYER
 70
0
 71
3
 72
9
 73
5
 74
0
 42
0.0000001
 43
0.0000001
 44
0.0000000001
 40
0.0
 40
0.0
 40
0.0
 40
0.0
 40
0.4631427634
 40
1.0
 40
1.0
 40
1.0
 40
1.0
 10
62.69616907
 20
191.3052605205
 30
0.0
 10
62.7034600977
 20
191.2842308575
 30
0.0
 10
62.7296483643
 20
191.2423337776
 30
0.0
 10
62.7673602376
 20
191.2115408168
 30
0.0
 10
62.7889752119
 20
191.1974536768
 30
0.0
  0
SPLINE
  5
4EA
100
AcDbEntity
  8
0
100
AcDbSpline
 62
7
  6
BYLAYER
 70
0
 71
3
 72
11
 73
7
 74
0
 42
0.0000001
 43
0.0000001
 44
0.0000000001
 40
0.0
 40
0.0
 40
0.0
 40
0.0
 40
0.2839121634
 40
0.5413894618
 40
0.7768951454
 40
1.0
 40
1.0
 40
1.0
 40
1.0
 10
62.6313002565
 20
191.67488589
 30
0.0
 10
62.6469677025
 20
191.663923703
 30
0.0
 10
62.6753019645
 20
191.6406169719
 30
0.0
 10
62.7086255285
 20
191.5997376836
 30
0.0
 10
62.729423214
 20
191.555617925
 30
0.0
 10
62.7342038333
 20
191.5245591836
 30
0.0
 10
62.7342064415
 20
191.5095329229
 30
0.0
  0
SPLINE
  5
4EB
100
AcDbEntity
  8
0
100
AcDbSpline
 62
7
  6
BYLAYER
 70
0
 71
3
 72
9
 73
5
 74
0
 42
0.0000001
 43
0.0000001
 44
0.0000000001
 40
0.0
 40
0.0
 40
0.0
 40
0.0
 40
0.7456440054
 40
1.0
 40
1.0
 40
1.0
 40
1.0
 10
62.6883885383
 20
191.350587026
 30
0.0
 10
62.6883893689
 20
191.339126652
 30
0.0
 10
62.6904255958
 20
191.3236664334
 30
0.0
 10
62.6948884584
 20
191.3089542152
 30
0.0
 10
62.69616907
 20
191.3052605205
 30
0.0
  0
SPLINE
  5
4EC
100
AcDbEntity
  8
0
100
AcDbSpline
 62
7
  6
BYLAYER
 70
0
 71
3
 72
9
 73
5
 74
0
 42
0.0000001
 43
0.0000001
 44
0.0000000001
 40
0.0
 40
0.0
 40
0.0
 40
0.0
 40
0.5154328739
 40
1.0
 40
1.0
 40
1.0
 40
1.0
 10
63.9067777451
 20
196.1806907693
 30
0.0
 10
63.8898649328
 20
196.2059535804
 30
0.0
 10
63.8628250542
 20
196.259325623
 30
0.0
 10
63.8529812861
 20
196.3186288067
 30
0.0
 10
63.85298108
 20
196.3472097943
 30
0.0
  0
SPLINE
  5
4ED
100
AcDbEntity
  8
0
100
AcDbSpline
 62
7
  6
BYLAYER
 70
0
 71
3
 72
11
 73
7
 74
0
 42
0.0000001
 43
0.0000001
 44
0.0000000001
 40
0.0
 40
0.0
 40
0.0
 40
0.0
 40
0.2897060281
 40
0.5490591642
 40
0.7822835676
 40
1.0
 40
1.0
 40
1.0
 40
1.0
 10
67.5874684811
 20
199.592798808
 30
0.0
 10
67.605020066
 20
199.6029321598
 30
0.0
 10
67.6368568842
 20
199.6248671855
 30
0.0
 10
67.6749294422
 20
199.6648564249
 30
0.0
 10
67.6989846786
 20
199.7091112648
 30
0.0
 10
67.7046247009
 20
199.7408654109
 30
0.0
 10
67.704624591
 20
199.7560960713
 30
0.0
  0
SPLINE
  5
4EE
100
AcDbEntity
  8
0
100
AcDbSpline
 62
7
  6
BYLAYER
 70
0
 71
3
 72
11
 73
7
 74
0
 42
0.0000001
 43
0.0000001
 44
0.0000000001
 40
0.0
 40
0.0
 40
0.0
 40
0.0
 40
0.2177164324
 40
0.4509408358
 40
0.7102939719
 40
1.0
 40
1.0
 40
1.0
 40
1.0
 10
66.6217877665
 20
198.9396085601
 30
0.0
 10
66.6217876567
 20
198.9548392205
 30
0.0
 10
66.6274276789
 20
198.9865933666
 30
0.0
 10
66.6514829153
 20
199.0308482065
 30
0.0
 10
66.6895554733
 20
199.0708374459
 30
0.0
 10
66.7213922916
 20
199.0927724716
 30
0.0
 10
66.7389438764
 20
199.1029058234
 30
0.0
  0
SPLINE
  5
4EF
100
AcDbEntity
  8
0
100
AcDbSpline
 62
7
  6
BYLAYER
 70
0
 71
3
 72
9
 73
5
 74
0
 42
0.0000001
 43
0.0000001
 44
0.0000000001
 40
0.0
 40
0.0
 40
0.0
 40
0.0
 40
0.4818346929
 40
1.0
 40
1.0
 40
1.0
 40
1.0
 10
78.4298480657
 20
182.9830116862
 30
0.0
 10
78.4298489413
 20
182.9673896531
 30
0.0
 10
78.4358401621
 20
182.9347564344
 30
0.0
 10
78.4520969685
 20
182.9060816824
 30
0.0
 10
78.4621460482
 20
182.8926186182
 30
0.0
  0
SPLINE
  5
4F0
100
AcDbEntity
  8
0
100
AcDbSpline
 62
7
  6
BYLAYER
 70
0
 71
3
 72
10
 73
6
 74
0
 42
0.0000001
 43
0.0000001
 44
0.0000000001
 40
0.0
 40
0.0
 40
0.0
 40
0.0
 40
0.5301735504
 40
0.7773315404
 40
1.0
 40
1.0
 40
1.0
 40
1.0
 10
62.2219382889
 20
191.7668374127
 30
0.0
 10
62.297008972
 20
191.7728931627
 30
0.0
 10
62.4094704091
 20
191.7660414457
 30
0.0
 10
62.5457265606
 20
191.7243441497
 30
0.0
 10
62.6053828367
 20
191.6930197709
 30
0.0
 10
62.6313002565
 20
191.67488589
 30
0.0
  0
SPLINE
  5
4F1
100
AcDbEntity
  8
0
100
AcDbSpline
 62
7
  6
BYLAYER
 70
0
 71
3
 72
9
 73
5
 74
0
 42
0.0000001
 43
0.0000001
 44
0.0000000001
 40
0.0
 40
0.0
 40
0.0
 40
0.0
 40
0.2445254536
 40
1.0
 40
1.0
 40
1.0
 40
1.0
 10
62.0113748101
 20
191.7827104418
 30
0.0
 10
62.0281387422
 20
191.7786355958
 30
0.0
 10
62.0974004383
 20
191.7649809974
 30
0.0
 10
62.1688096811
 20
191.7625516708
 30
0.0
 10
62.2219382889
 20
191.7668374127
 30
0.0
  0
SPLINE
  5
4F2
100
AcDbEntity
  8
0
100
AcDbSpline
 62
7
  6
BYLAYER
 70
0
 71
3
 72
11
 73
7
 74
0
 42
0.0000001
 43
0.0000001
 44
0.0000000001
 40
0.0
 40
0.0
 40
0.0
 40
0.0
 40
0.2897062311
 40
0.5490596185
 40
0.7822840529
 40
1.0
 40
1.0
 40
1.0
 40
1.0
 10
75.5070420562
 20
202.6954604963
 30
0.0
 10
75.5245937935
 20
202.6853272252
 30
0.0
 10
75.5564309282
 20
202.6633923496
 30
0.0
 10
75.5945040425
 20
202.6234033147
 30
0.0
 10
75.6185599096
 20
202.5791486293
 30
0.0
 10
75.6242004115
 20
202.5473944809
 30
0.0
 10
75.6242005213
 20
202.5321637962
 30
0.0
  0
SPLINE
  5
4F3
100
AcDbEntity
  8
0
100
AcDbSpline
 62
7
  6
BYLAYER
 70
0
 71
3
 72
11
 73
7
 74
0
 42
0.0000001
 43
0.0000001
 44
0.0000000001
 40
0.0
 40
0.0
 40
0.0
 40
0.0
 40
0.2218725418
 40
0.4567393373
 40
0.7144318325
 40
1.0
 40
1.0
 40
1.0
 40
1.0
 10
63.5875153747
 20
193.295447731
 30
0.0
 10
63.5875117689
 20
193.2678458088
 30
0.0
 10
63.5966157881
 20
193.2107004763
 30
0.0
 10
63.6359342027
 20
193.1298231852
 30
0.0
 10
63.6988977176
 20
193.0552418429
 30
0.0
 10
63.7523799912
 20
193.0131941812
 30
0.0
 10
63.7820024043
 20
192.9935828326
 30
0.0
  0
SPLINE
  5
4F4
100
AcDbEntity
  8
0
100
AcDbSpline
 62
7
  6
BYLAYER
 70
0
 71
3
 72
9
 73
5
 74
0
 42
0.0000001
 43
0.0000001
 44
0.0000000001
 40
0.0
 40
0.0
 40
0.0
 40
0.0
 40
0.5255657768
 40
1.0
 40
1.0
 40
1.0
 40
1.0
 10
74.2342452408
 20
203.3346366972
 30
0.0
 10
74.2856054072
 20
203.3346368207
 30
0.0
 10
74.3835919312
 20
203.3240150024
 30
0.0
 10
74.4769363245
 20
203.2901788634
 30
0.0
 10
74.517088441
 20
203.2669975526
 30
0.0
  0
SPLINE
  5
4F5
100
AcDbEntity
  8
0
100
AcDbSpline
 62
7
  6
BYLAYER
 70
0
 71
3
 72
9
 73
5
 74
0
 42
0.0000001
 43
0.0000001
 44
0.0000000001
 40
0.0
 40
0.0
 40
0.0
 40
0.0
 40
0.4744336899
 40
1.0
 40
1.0
 40
1.0
 40
1.0
 10
73.951403016
 20
203.2669961929
 30
0.0
 10
73.9915548357
 20
203.2901777184
 30
0.0
 10
74.0848988618
 20
203.3240143212
 30
0.0
 10
74.1828851302
 20
203.3346365738
 30
0.0
 10
74.2342452408
 20
203.3346366972
 30
0.0
  0
SPLINE
  5
4F6
100
AcDbEntity
  8
0
100
AcDbSpline
 62
7
  6
BYLAYER
 70
0
 71
3
 72
9
 73
5
 74
0
 42
0.0000001
 43
0.0000001
 44
0.0000000001
 40
0.0
 40
0.0
 40
0.0
 40
0.0
 40
0.4744336899
 40
1.0
 40
1.0
 40
1.0
 40
1.0
 10
85.5127199265
 20
184.3041083304
 30
0.0
 10
85.4324162871
 20
184.2577452794
 30
0.0
 10
85.2457282349
 20
184.1900720737
 30
0.0
 10
85.0497556981
 20
184.1688275686
 30
0.0
 10
84.947035477
 20
184.1688273217
 30
0.0
  0
SPLINE
  5
4F7
100
AcDbEntity
  8
0
100
AcDbSpline
 62
7
  6
BYLAYER
 70
0
 71
3
 72
11
 73
7
 74
0
 42
0.0000001
 43
0.0000001
 44
0.0000000001
 40
0.0
 40
0.0
 40
0.0
 40
0.0
 40
0.2879786735
 40
0.5496227134
 40
0.7853642522
 40
1.0
 40
1.0
 40
1.0
 40
1.0
 10
83.8472814664
 20
182.7772453108
 30
0.0
 10
83.8879336027
 20
182.796095604
 30
0.0
 10
83.9632563217
 20
182.8373936421
 30
0.0
 10
84.0597111632
 20
182.9135512143
 30
0.0
 10
84.1313555522
 20
182.9992411734
 30
0.0
 10
84.1617244519
 20
183.0636004908
 30
0.0
 10
84.1711267424
 20
183.095647337
 30
0.0
  0
SPLINE
  5
4F8
100
AcDbEntity
  8
0
100
AcDbSpline
 62
7
  6
BYLAYER
 70
0
 71
3
 72
9
 73
5
 74
0
 42
0.0000001
 43
0.0000001
 44
0.0000000001
 40
0.0
 40
0.0
 40
0.0
 40
0.0
 40
0.2585908371
 40
1.0
 40
1.0
 40
1.0
 40
1.0
 10
83.2306221975
 20
182.5038320973
 30
0.0
 10
83.2855085947
 20
182.523132787
 30
0.0
 10
83.4963176712
 20
182.6017494807
 30
0.0
 10
83.7012260709
 20
182.6966603496
 30
0.0
 10
83.8472814664
 20
182.7772453108
 30
0.0
  0
SPLINE
  5
4F9
100
AcDbEntity
  8
0
100
AcDbSpline
 62
7
  6
BYLAYER
 70
0
 71
3
 72
9
 73
5
 74
0
 42
0.0000001
 43
0.0000001
 44
0.0000000001
 40
0.0
 40
0.0
 40
0.0
 40
0.0
 40
0.2557603202
 40
1.0
 40
1.0
 40
1.0
 40
1.0
 10
82.5269070463
 20
182.3129383362
 30
0.0
 10
82.5879060578
 20
182.3250566637
 30
0.0
 10
82.8255899898
 20
182.3764037471
 30
0.0
 10
83.0598995376
 20
182.4437978218
 30
0.0
 10
83.2306221975
 20
182.5038320973
 30
0.0
  0
SPLINE
  5
4FA
100
AcDbEntity
  8
0
100
AcDbSpline
 62
7
  6
BYLAYER
 70
0
 71
3
 72
9
 73
5
 74
0
 42
0.0000001
 43
0.0000001
 44
0.0000000001
 40
0.0
 40
0.0
 40
0.0
 40
0.0
 40
0.2526965357
 40
1.0
 40
1.0
 40
1.0
 40
1.0
 10
81.8898593668
 20
182.2351818917
 30
0.0
 10
81.9438531851
 20
182.2382335189
 30
0.0
 10
82.1573116549
 20
182.2537403226
 30
0.0
 10
82.3698080733
 20
182.2829712123
 30
0.0
 10
82.5269070463
 20
182.3129383362
 30
0.0
  0
SPLINE
  5
4FB
100
AcDbEntity
  8
0
100
AcDbSpline
 62
7
  6
BYLAYER
 70
0
 71
3
 72
9
 73
5
 74
0
 42
0.0000001
 43
0.0000001
 44
0.0000000001
 40
0.0
 40
0.0
 40
0.0
 40
0.0
 40
0.226150704
 40
1.0
 40
1.0
 40
1.0
 40
1.0
 10
78.4621460482
 20
182.8926186182
 30
0.0
 10
78.4686466481
 20
182.8839095626
 30
0.0
 10
78.5005783005
 20
182.8477663059
 30
0.0
 10
78.5424221561
 20
182.8214778372
 30
0.0
 10
78.5760933936
 20
182.8056938199
 30
0.0
  0
SPLINE
  5
4FC
100
AcDbEntity
  8
0
100
AcDbSpline
 62
7
  6
BYLAYER
 70
0
 71
3
 72
11
 73
7
 74
0
 42
0.0000001
 43
0.0000001
 44
0.0000000001
 40
0.0
 40
0.0
 40
0.0
 40
0.0
 40
0.2177159471
 40
0.4509403815
 40
0.7102937689
 40
1.0
 40
1.0
 40
1.0
 40
1.0
 10
71.6422138237
 20
203.3894633785
 30
0.0
 10
71.6422139335
 20
203.3742326938
 30
0.0
 10
71.6478544353
 20
203.3424785454
 30
0.0
 10
71.6719103025
 20
203.29822386
 30
0.0
 10
71.7099834168
 20
203.2582348251
 30
0.0
 10
71.7418205514
 20
203.2362999495
 30
0.0
 10
71.7593722888
 20
203.2261666784
 30
0.0
  0
SPLINE
  5
4FD
100
AcDbEntity
  8
0
100
AcDbSpline
 62
7
  6
BYLAYER
 70
0
 71
3
 72
11
 73
7
 74
0
 42
0.0000001
 43
0.0000001
 44
0.0000000001
 40
0.0
 40
0.0
 40
0.0
 40
0.0
 40
0.3001665598
 40
0.5641973456
 40
0.7932685561
 40
1.0
 40
1.0
 40
1.0
 40
1.0
 10
78.2252971248
 20
183.2363326055
 30
0.0
 10
78.2551550289
 20
183.2252376257
 30
0.0
 10
78.3097520151
 20
183.1996187354
 30
0.0
 10
78.3770381709
 20
183.1476413658
 30
0.0
 10
78.4212096659
 20
183.0862192682
 30
0.0
 10
78.431959993
 20
183.0395628015
 30
0.0
 10
78.4319722504
 20
183.0176251518
 30
0.0
  0
SPLINE
  5
4FE
100
AcDbEntity
  8
0
100
AcDbSpline
 62
7
  6
BYLAYER
 70
0
 71
3
 72
10
 73
6
 74
0
 42
0.0000001
 43
0.0000001
 44
0.0000000001
 40
0.0
 40
0.0
 40
0.0
 40
0.0
 40
0.5025975976
 40
0.7580296747
 40
1.0
 40
1.0
 40
1.0
 40
1.0
 10
77.7677430315
 20
183.2465806279
 30
0.0
 10
77.8419855831
 20
183.269682532
 30
0.0
 10
77.9610690313
 20
183.2841882486
 30
0.0
 10
78.1153011081
 20
183.2691227051
 30
0.0
 10
78.1902076599
 20
183.2493715951
 30
0.0
 10
78.2252971248
 20
183.2363326055
 30
0.0
  0
SPLINE
  5
4FF
100
AcDbEntity
  8
0
100
AcDbSpline
 62
7
  6
BYLAYER
 70
0
 71
3
 72
9
 73
5
 74
0
 42
0.0000001
 43
0.0000001
 44
0.0000000001
 40
0.0
 40
0.0
 40
0.0
 40
0.0
 40
0.2564492785
 40
1.0
 40
1.0
 40
1.0
 40
1.0
 10
77.5559278312
 20
183.2190416988
 30
0.0
 10
77.5742238143
 20
183.2184776491
 30
0.0
 10
77.6455993039
 20
183.2191217805
 30
0.0
 10
77.7170886503
 20
183.230742547
 30
0.0
 10
77.7677430315
 20
183.2465806279
 30
0.0
  0
SPLINE
  5
500
100
AcDbEntity
  8
0
100
AcDbSpline
 62
7
  6
BYLAYER
 70
0
 71
3
 72
9
 73
5
 74
0
 42
0.0000001
 43
0.0000001
 44
0.0000000001
 40
0.0
 40
0.0
 40
0.0
 40
0.0
 40
0.237769042
 40
1.0
 40
1.0
 40
1.0
 40
1.0
 10
77.3503968061
 20
183.2594470574
 30
0.0
 10
77.3658676857
 20
183.2532963916
 30
0.0
 10
77.4322577646
 20
183.2308065509
 30
0.0
 10
77.5025814458
 20
183.2206863225
 30
0.0
 10
77.5559278312
 20
183.2190416988
 30
0.0
  0
SPLINE
  5
501
100
AcDbEntity
  8
0
100
AcDbSpline
 62
7
  6
BYLAYER
 70
0
 71
3
 72
9
 73
5
 74
0
 42
0.0000001
 43
0.0000001
 44
0.0000000001
 40
0.0
 40
0.0
 40
0.0
 40
0.0
 40
0.5222384812
 40
1.0
 40
1.0
 40
1.0
 40
1.0
 10
74.3558547005
 20
184.7779975724
 30
0.0
 10
74.2561745785
 20
184.7764719298
 30
0.0
 10
74.0645118995
 20
184.7937439889
 30
0.0
 10
73.880675389
 20
184.8542480655
 30
0.0
 10
73.7997324042
 20
184.8962711163
 30
0.0
  0
SPLINE
  5
502
100
AcDbEntity
  8
0
100
AcDbSpline
 62
7
  6
BYLAYER
 70
0
 71
3
 72
9
 73
5
 74
0
 42
0.0000001
 43
0.0000001
 44
0.0000000001
 40
0.0
 40
0.0
 40
0.0
 40
0.0
 40
0.4744713384
 40
1.0
 40
1.0
 40
1.0
 40
1.0
 10
74.9003418623
 20
184.9131163679
 30
0.0
 10
74.8229147433
 20
184.8684140667
 30
0.0
 10
74.6434723519
 20
184.8021819706
 30
0.0
 10
74.4548688775
 20
184.7795130225
 30
0.0
 10
74.3558547005
 20
184.7779975724
 30
0.0
  0
SPLINE
  5
503
100
AcDbEntity
  8
0
100
AcDbSpline
 62
7
  6
BYLAYER
 70
0
 71
3
 72
9
 73
5
 74
0
 42
0.0000001
 43
0.0000001
 44
0.0000000001
 40
0.0
 40
0.0
 40
0.0
 40
0.0
 40
0.5255657768
 40
1.0
 40
1.0
 40
1.0
 40
1.0
 10
84.947035477
 20
184.1688273217
 30
0.0
 10
84.8443151441
 20
184.1688270748
 30
0.0
 10
84.6483420961
 20
184.1900707114
 30
0.0
 10
84.4616533095
 20
184.2577429893
 30
0.0
 10
84.3813490766
 20
184.304105611
 30
0.0
  0
SPLINE
  5
504
100
AcDbEntity
  8
0
100
AcDbSpline
 62
7
  6
BYLAYER
 70
0
 71
3
 72
9
 73
5
 74
0
 42
0.0000001
 43
0.0000001
 44
0.0000000001
 40
0.0
 40
0.0
 40
0.0
 40
0.0
 40
0.4709171342
 40
1.0
 40
1.0
 40
1.0
 40
1.0
 10
61.8445549004
 20
191.8585688275
 30
0.0
 10
61.8673219844
 20
191.8407284355
 30
0.0
 10
61.9211464476
 20
191.8097576282
 30
0.0
 10
61.9797972896
 20
191.7903860595
 30
0.0
 10
62.0113748101
 20
191.7827104418
 30
0.0
  0
SPLINE
  5
505
100
AcDbEntity
  8
0
100
AcDbSpline
 62
7
  6
BYLAYER
 70
0
 71
3
 72
9
 73
5
 74
0
 42
0.0000001
 43
0.0000001
 44
0.0000000001
 40
0.0
 40
0.0
 40
0.0
 40
0.0
 40
0.2449312445
 40
1.0
 40
1.0
 40
1.0
 40
1.0
 10
61.1549847556
 20
192.456810094
 30
0.0
 10
61.2086443293
 20
192.4050546691
 30
0.0
 10
61.4306015796
 20
192.1967434266
 30
0.0
 10
61.6636526676
 20
192.0003246508
 30
0.0
 10
61.8445549004
 20
191.8585688275
 30
0.0
  0
SPLINE
  5
506
100
AcDbEntity
  8
0
100
AcDbSpline
 62
7
  6
BYLAYER
 70
0
 71
3
 72
9
 73
5
 74
0
 42
0.0000001
 43
0.0000001
 44
0.0000000001
 40
0.0
 40
0.0
 40
0.0
 40
0.0
 40
0.2449255914
 40
1.0
 40
1.0
 40
1.0
 40
1.0
 10
60.567481484
 20
193.0903243671
 30
0.0
 10
60.6123338589
 20
193.0358533799
 30
0.0
 10
60.7988400662
 20
192.81625045
 30
0.0
 10
60.9984149757
 20
192.6078238816
 30
0.0
 10
61.1549847556
 20
192.456810094
 30
0.0
  0
SPLINE
  5
507
100
AcDbEntity
  8
0
100
AcDbSpline
 62
7
  6
BYLAYER
 70
0
 71
3
 72
9
 73
5
 74
0
 42
0.0000001
 43
0.0000001
 44
0.0000000001
 40
0.0
 40
0.0
 40
0.0
 40
0.0
 40
0.5255186429
 40
1.0
 40
1.0
 40
1.0
 40
1.0
 10
97.17311667
 20
194.4502114452
 30
0.0
 10
97.1877754943
 20
194.4658389111
 30
0.0
 10
97.2119841235
 20
194.4997368293
 30
0.0
 10
97.2213778335
 20
194.5408397667
 30
0.0
 10
97.2213817251
 20
194.5601854514
 30
0.0
  0
SPLINE
  5
508
100
AcDbEntity
  8
0
100
AcDbSpline
 62
7
  6
BYLAYER
 70
0
 71
3
 72
11
 73
7
 74
0
 42
0.0000001
 43
0.0000001
 44
0.0000000001
 40
0.0
 40
0.0
 40
0.0
 40
0.0
 40
0.2897060281
 40
0.5490591642
 40
0.7822835676
 40
1.0
 40
1.0
 40
1.0
 40
1.0
 10
94.2788684005
 20
198.5507543485
 30
0.0
 10
94.3139715702
 20
198.571021052
 30
0.0
 10
94.3776452067
 20
198.6148911035
 30
0.0
 10
94.4537903227
 20
198.6948695822
 30
0.0
 10
94.5019007955
 20
198.7833792621
 30
0.0
 10
94.51318084
 20
198.8468875542
 30
0.0
 10
94.5131806204
 20
198.877348875
 30
0.0
  0
SPLINE
  5
509
100
AcDbEntity
  8
0
100
AcDbSpline
 62
7
  6
BYLAYER
 70
0
 71
3
 72
12
 73
8
 74
0
 42
0.0000001
 43
0.0000001
 44
0.0000000001
 40
0.0
 40
0.0
 40
0.0
 40
0.0
 40
0.1081077059
 40
0.2183618585
 40
0.4513649622
 40
0.7104187217
 40
1.0
 40
1.0
 40
1.0
 40
1.0
 10
91.4196832241
 20
196.1227952329
 30
0.0
 10
91.4196827806
 20
196.1842906982
 30
0.0
 10
91.4304259041
 20
196.3087540272
 30
0.0
 10
91.4949928635
 20
196.5583112406
 30
0.0
 10
91.6610376716
 20
196.8642982504
 30
0.0
 10
91.9701569175
 20
197.1890095734
 30
0.0
 10
92.2289212221
 20
197.3672238579
 30
0.0
 10
92.3715766173
 20
197.4495854971
 30
0.0
  0
SPLINE
  5
50A
100
AcDbEntity
  8
0
100
AcDbSpline
 62
7
  6
BYLAYER
 70
0
 71
3
 72
9
 73
5
 74
0
 42
0.0000001
 43
0.0000001
 44
0.0000000001
 40
0.0
 40
0.0
 40
0.0
 40
0.0
 40
0.5102544536
 40
1.0
 40
1.0
 40
1.0
 40
1.0
 10
98.7902953023
 20
191.7025538753
 30
0.0
 10
98.8235126704
 20
191.7605998315
 30
0.0
 10
98.8798497912
 20
191.8797051043
 30
0.0
 10
98.9142400353
 20
192.0070617078
 30
0.0
 10
98.9249700355
 20
192.070348914
 30
0.0
  0
SPLINE
  5
50B
100
AcDbEntity
  8
0
100
AcDbSpline
 62
7
  6
BYLAYER
 70
0
 71
3
 72
9
 73
5
 74
0
 42
0.0000001
 43
0.0000001
 44
0.0000000001
 40
0.0
 40
0.0
 40
0.0
 40
0.0
 40
0.2618850736
 40
1.0
 40
1.0
 40
1.0
 40
1.0
 10
98.4596587421
 20
191.296267962
 30
0.0
 10
98.4929022903
 20
191.3277798
 30
0.0
 10
98.6162013448
 20
191.4518090669
 30
0.0
 10
98.7242003804
 20
191.5916552184
 30
0.0
 10
98.7902953023
 20
191.7025538753
 30
0.0
  0
SPLINE
  5
50C
100
AcDbEntity
  8
0
100
AcDbSpline
 62
7
  6
BYLAYER
 70
0
 71
3
 72
9
 73
5
 74
0
 42
0.0000001
 43
0.0000001
 44
0.0000000001
 40
0.0
 40
0.0
 40
0.0
 40
0.0
 40
0.2613528658
 40
1.0
 40
1.0
 40
1.0
 40
1.0
 10
97.9860915292
 20
190.9402423801
 30
0.0
 10
98.0303160547
 20
190.9669601591
 30
0.0
 10
98.1970660606
 20
191.0731363556
 30
0.0
 10
98.3536777414
 20
191.1958076834
 30
0.0
 10
98.4596587421
 20
191.296267962
 30
0.0
  0
SPLINE
  5
50D
100
AcDbEntity
  8
0
100
AcDbSpline
 62
7
  6
BYLAYER
 70
0
 71
3
 72
9
 73
5
 74
0
 42
0.0000001
 43
0.0000001
 44
0.0000000001
 40
0.0
 40
0.0
 40
0.0
 40
0.0
 40
0.5317168409
 40
1.0
 40
1.0
 40
1.0
 40
1.0
 10
97.4345978555
 20
190.7532702446
 30
0.0
 10
97.5381584867
 20
190.7633984232
 30
0.0
 10
97.7315685115
 20
190.8020542787
 30
0.0
 10
97.9116811835
 20
190.8867524142
 30
0.0
 10
97.9860915292
 20
190.9402423801
 30
0.0
  0
SPLINE
  5
50E
100
AcDbEntity
  8
0
100
AcDbSpline
 62
7
  6
BYLAYER
 70
0
 71
3
 72
9
 73
5
 74
0
 42
0.0000001
 43
0.0000001
 44
0.0000000001
 40
0.0
 40
0.0
 40
0.0
 40
0.0
 40
0.4881833878
 40
1.0
 40
1.0
 40
1.0
 40
1.0
 10
96.8072142926
 20
190.824948769
 30
0.0
 10
96.9044428728
 20
190.7898700255
 30
0.0
 10
97.1133998766
 20
190.7442854744
 30
0.0
 10
97.3267455318
 20
190.7427223407
 30
0.0
 10
97.4345978555
 20
190.7532702446
 30
0.0
  0
SPLINE
  5
50F
100
AcDbEntity
  8
0
100
AcDbSpline
 62
7
  6
BYLAYER
 70
0
 71
3
 72
11
 73
7
 74
0
 42
0.0000001
 43
0.0000001
 44
0.0000000001
 40
0.0
 40
0.0
 40
0.0
 40
0.0
 40
0.2177164324
 40
0.4509408358
 40
0.7102939719
 40
1.0
 40
1.0
 40
1.0
 40
1.0
 10
95.5757754835
 20
190.3052965959
 30
0.0
 10
95.5757757032
 20
190.274835275
 30
0.0
 10
95.5644956587
 20
190.2113269829
 30
0.0
 10
95.5163851858
 20
190.1228173031
 30
0.0
 10
95.4402400699
 20
190.0428388243
 30
0.0
 10
95.3765664334
 20
189.9989687728
 30
0.0
 10
95.3414632637
 20
189.9787020693
 30
0.0
  0
SPLINE
  5
510
100
AcDbEntity
  8
0
100
AcDbSpline
 62
7
  6
BYLAYER
 70
0
 71
3
 72
10
 73
6
 74
0
 42
0.0000001
 43
0.0000001
 44
0.0000000001
 40
0.0
 40
0.0
 40
0.0
 40
0.0
 40
0.2288687411
 40
0.4676725334
 40
1.0
 40
1.0
 40
1.0
 40
1.0
 10
94.5131806204
 20
196.4278416236
 30
0.0
 10
94.5131807862
 20
196.40485032
 30
0.0
 10
94.506910691
 20
196.3576636554
 30
0.0
 10
94.469292126
 20
196.263655699
 30
0.0
 10
94.4163496132
 20
196.2036282649
 30
0.0
 10
94.3756529206
 20
196.1689378731
 30
0.0
  0
SPLINE
  5
511
100
AcDbEntity
  8
0
100
AcDbSpline
 62
7
  6
BYLAYER
 70
0
 71
3
 72
9
 73
5
 74
0
 42
0.0000001
 43
0.0000001
 44
0.0000000001
 40
0.0
 40
0.0
 40
0.0
 40
0.0
 40
0.4890411276
 40
1.0
 40
1.0
 40
1.0
 40
1.0
 10
60.3214125456
 20
193.6687598656
 30
0.0
 10
60.3323162486
 20
193.5949628687
 30
0.0
 10
60.370500437
 20
193.4460688902
 30
0.0
 10
60.436524515
 20
193.3075182232
 30
0.0
 10
60.4758194076
 20
193.2402070896
 30
0.0
  0
SPLINE
  5
512
100
AcDbEntity
  8
0
100
AcDbSpline
 62
7
  6
BYLAYER
 70
0
 71
3
 72
11
 73
7
 74
0
 42
0.0000001
 43
0.0000001
 44
0.0000000001
 40
0.0
 40
0.0
 40
0.0
 40
0.0
 40
0.2897060281
 40
0.5490591642
 40
0.7822835677
 40
1.0
 40
1.0
 40
1.0
 40
1.0
 10
95.3414632632
 20
192.4282093204
 30
0.0
 10
95.3765664329
 20
192.4484760239
 30
0.0
 10
95.4402400696
 20
192.4923460754
 30
0.0
 10
95.5163851857
 20
192.5723245542
 30
0.0
 10
95.5644956587
 20
192.6608342342
 30
0.0
 10
95.5757757032
 20
192.7243425264
 30
0.0
 10
95.5757754835
 20
192.7548038473
 30
0.0
  0
SPLINE
  5
513
100
AcDbEntity
  8
0
100
AcDbSpline
 62
7
  6
BYLAYER
 70
0
 71
3
 72
9
 73
5
 74
0
 42
0.0000001
 43
0.0000001
 44
0.0000000001
 40
0.0
 40
0.0
 40
0.0
 40
0.0
 40
0.5255663101
 40
1.0
 40
1.0
 40
1.0
 40
1.0
 10
84.947035477
 20
186.6183345731
 30
0.0
 10
85.0497556981
 20
186.61833482
 30
0.0
 10
85.2457282349
 20
186.6395793251
 30
0.0
 10
85.4324162871
 20
186.7072525308
 30
0.0
 10
85.5127199264
 20
186.7536155818
 30
0.0
  0
SPLINE
  5
514
100
AcDbEntity
  8
0
100
AcDbSpline
 62
7
  6
BYLAYER
 70
0
 71
3
 72
9
 73
5
 74
0
 42
0.0000001
 43
0.0000001
 44
0.0000000001
 40
0.0
 40
0.0
 40
0.0
 40
0.0
 40
0.4744342232
 40
1.0
 40
1.0
 40
1.0
 40
1.0
 10
84.3813490766
 20
186.7536128623
 30
0.0
 10
84.4616533095
 20
186.7072502407
 30
0.0
 10
84.6483420961
 20
186.6395779628
 30
0.0
 10
84.8443151441
 20
186.6183343262
 30
0.0
 10
84.947035477
 20
186.6183345731
 30
0.0
  0
SPLINE
  5
515
100
AcDbEntity
  8
0
100
AcDbSpline
 62
7
  6
BYLAYER
 70
0
 71
3
 72
11
 73
7
 74
0
 42
0.0000001
 43
0.0000001
 44
0.0000000001
 40
0.0
 40
0.0
 40
0.0
 40
0.0
 40
0.266048701
 40
0.5253482745
 40
0.7716913235
 40
1.0
 40
1.0
 40
1.0
 40
1.0
 10
79.1133852743
 20
189.01779321
 30
0.0
 10
79.3250743574
 20
189.0177937188
 30
0.0
 10
79.7434752486
 20
188.9943198436
 30
0.0
 10
80.3499247396
 20
188.889512074
 30
0.0
 10
80.9101504811
 20
188.7192451251
 30
0.0
 10
81.2541630575
 20
188.5590537077
 30
0.0
 10
81.4114862763
 20
188.4682251598
 30
0.0
  0
SPLINE
  5
516
100
AcDbEntity
  8
0
100
AcDbSpline
 62
7
  6
BYLAYER
 70
0
 71
3
 72
11
 73
7
 74
0
 42
0.0000001
 43
0.0000001
 44
0.0000000001
 40
0.0
 40
0.0
 40
0.0
 40
0.0
 40
0.2283083032
 40
0.4746511985
 40
0.7339508892
 40
1.0
 40
1.0
 40
1.0
 40
1.0
 10
76.8152921986
 20
188.4682141119
 30
0.0
 10
76.9726141771
 20
188.5590434564
 30
0.0
 10
77.3166246458
 20
188.7192365919
 30
0.0
 10
77.8768479756
 20
188.8895062039
 30
0.0
 10
78.4832959786
 20
188.9943168532
 30
0.0
 10
78.9016963066
 20
189.0177927012
 30
0.0
 10
79.1133852743
 20
189.01779321
 30
0.0
  0
SPLINE
  5
517
100
AcDbEntity
  8
0
100
AcDbSpline
 62
7
  6
BYLAYER
 70
0
 71
3
 72
9
 73
5
 74
0
 42
0.0000001
 43
0.0000001
 44
0.0000000001
 40
0.0
 40
0.0
 40
0.0
 40
0.0
 40
0.5255286616
 40
1.0
 40
1.0
 40
1.0
 40
1.0
 10
74.3558547005
 20
187.2275048238
 30
0.0
 10
74.4548688775
 20
187.2290202739
 30
0.0
 10
74.6434723519
 20
187.251689222
 30
0.0
 10
74.8229147433
 20
187.3179213181
 30
0.0
 10
74.9003418623
 20
187.3626236193
 30
0.0
  0
SPLINE
  5
518
100
AcDbEntity
  8
0
100
AcDbSpline
 62
7
  6
BYLAYER
 70
0
 71
3
 72
9
 73
5
 74
0
 42
0.0000001
 43
0.0000001
 44
0.0000000001
 40
0.0
 40
0.0
 40
0.0
 40
0.0
 40
0.4777615188
 40
1.0
 40
1.0
 40
1.0
 40
1.0
 10
73.7997324042
 20
187.3457783677
 30
0.0
 10
73.880675389
 20
187.3037553169
 30
0.0
 10
74.0645118995
 20
187.2432512403
 30
0.0
 10
74.2561745785
 20
187.2259791812
 30
0.0
 10
74.3558547005
 20
187.2275048238
 30
0.0
  0
LINE
  5
519
100
AcDbEntity
  8
0
100
AcDbLine
 62
7
  6
BYLAYER
 10
63.7820024043
 20
192.9935828326
 11
63.8532829117
 21
192.9462003181
  0
SPLINE
  5
51A
100
AcDbEntity
  8
0
100
AcDbSpline
 62
7
  6
BYLAYER
 70
0
 71
3
 72
11
 73
7
 74
0
 42
0.0000001
 43
0.0000001
 44
0.0000000001
 40
0.0
 40
0.0
 40
0.0
 40
0.0
 40
0.2855041359
 40
0.543399385
 40
0.7782808259
 40
1.0
 40
1.0
 40
1.0
 40
1.0
 10
63.7836824252
 20
190.5429591578
 30
0.0
 10
63.7539450921
 20
190.5627134078
 30
0.0
 10
63.7001306663
 20
190.6048945788
 30
0.0
 10
63.6365255514
 20
190.6796087146
 30
0.0
 10
63.5967159144
 20
190.7607895393
 30
0.0
 10
63.5875200106
 20
190.8182156916
 30
0.0
 10
63.5875073156
 20
190.8459404283
 30
0.0
  0
SPLINE
  5
51B
100
AcDbEntity
  8
0
100
AcDbSpline
 62
7
  6
BYLAYER
 70
0
 71
3
 72
12
 73
8
 74
0
 42
0.0000001
 43
0.0000001
 44
0.0000000001
 40
0.0
 40
0.0
 40
0.0
 40
0.0
 40
0.2896901627
 40
0.5487840716
 40
0.7817420613
 40
0.8919489009
 40
1.0
 40
1.0
 40
1.0
 40
1.0
 10
65.8550723231
 20
197.4495217593
 30
0.0
 10
65.9980694253
 20
197.3672801941
 30
0.0
 10
66.2574706571
 20
197.1892512284
 30
0.0
 10
66.5674486973
 20
196.8646130404
 30
0.0
 10
66.7340173313
 20
196.5585038597
 30
0.0
 10
66.7987883864
 20
196.3088008224
 30
0.0
 10
66.8095665979
 20
196.1842643108
 30
0.0
 10
66.8095670416
 20
196.1227360774
 30
0.0
  0
SPLINE
  5
51C
100
AcDbEntity
  8
0
100
AcDbSpline
 62
7
  6
BYLAYER
 70
0
 71
3
 72
8
 73
4
 74
0
 42
0.0000001
 43
0.0000001
 44
0.0000000001
 40
0.0
 40
0.0
 40
0.0
 40
0.0
 40
1.0
 40
1.0
 40
1.0
 40
1.0
 10
62.6679440126
 20
44.2652785734
 30
0.0
 10
62.6555623445
 20
44.2773397706
 30
0.0
 10
62.6420528146
 20
44.2883055472
 30
0.0
 10
62.627881921
 20
44.2982032217
 30
0.0
  0
SPLINE
  5
51D
100
AcDbEntity
  8
0
100
AcDbSpline
 62
7
  6
BYLAYER
 70
0
 71
3
 72
9
 73
5
 74
0
 42
0.0000001
 43
0.0000001
 44
0.0000000001
 40
0.0
 40
0.0
 40
0.0
 40
0.0
 40
0.2323923307
 40
1.0
 40
1.0
 40
1.0
 40
1.0
 10
78.417531508
 20
35.6992223315
 30
0.0
 10
78.4143164361
 20
35.7073621321
 30
0.0
 10
78.3977836154
 20
35.7413321555
 30
0.0
 10
78.3716975542
 20
35.7700301461
 30
0.0
 10
78.3495297818
 20
35.7885838447
 30
0.0
  0
SPLINE
  5
51E
100
AcDbEntity
  8
0
100
AcDbSpline
 62
7
  6
BYLAYER
 70
0
 71
3
 72
9
 73
5
 74
0
 42
0.0000001
 43
0.0000001
 44
0.0000000001
 40
0.0
 40
0.0
 40
0.0
 40
0.0
 40
0.232457216
 40
1.0
 40
1.0
 40
1.0
 40
1.0
 10
78.3495297818
 20
35.7885838447
 30
0.0
 10
78.3407821167
 20
35.7959053535
 30
0.0
 10
78.3014268545
 20
35.8253331508
 30
0.0
 10
78.2566758666
 20
35.8470866606
 30
0.0
 10
78.2213427558
 20
35.8601345984
 30
0.0
  0
SPLINE
  5
51F
100
AcDbEntity
  8
0
100
AcDbSpline
 62
7
  6
BYLAYER
 70
0
 71
3
 72
9
 73
5
 74
0
 42
0.0000001
 43
0.0000001
 44
0.0000000001
 40
0.0
 40
0.0
 40
0.0
 40
0.0
 40
0.4603051817
 40
1.0
 40
1.0
 40
1.0
 40
1.0
 10
84.1837606308
 20
35.8037565236
 30
0.0
 10
84.1837340432
 20
35.7455016201
 30
0.0
 10
84.1434094518
 20
35.6179810879
 30
0.0
 10
84.0504948689
 20
35.5267626378
 30
0.0
 10
83.9957694033
 20
35.4858931044
 30
0.0
  0
SPLINE
  5
520
100
AcDbEntity
  8
0
100
AcDbSpline
 62
7
  6
BYLAYER
 70
0
 71
3
 72
9
 73
5
 74
0
 42
0.0000001
 43
0.0000001
 44
0.0000000001
 40
0.0
 40
0.0
 40
0.0
 40
0.0
 40
0.2582428933
 40
1.0
 40
1.0
 40
1.0
 40
1.0
 10
60.4758194074
 20
45.8615207982
 30
0.0
 10
60.4598120934
 20
45.8884363149
 30
0.0
 10
60.4014768414
 20
45.9947567448
 30
0.0
 10
60.3587461678
 20
46.1098927052
 30
0.0
 10
60.3384813827
 20
46.1975293327
 30
0.0
  0
SPLINE
  5
521
100
AcDbEntity
  8
0
100
AcDbSpline
 62
7
  6
BYLAYER
 70
0
 71
3
 72
9
 73
5
 74
0
 42
0.0000001
 43
0.0000001
 44
0.0000000001
 40
0.0
 40
0.0
 40
0.0
 40
0.0
 40
0.2569022137
 40
1.0
 40
1.0
 40
1.0
 40
1.0
 10
61.1100082221
 20
45.1231212352
 30
0.0
 10
61.051047083
 20
45.1821053761
 30
0.0
 10
60.8257117482
 20
45.415808043
 30
0.0
 10
60.6176322995
 20
45.666368718
 30
0.0
 10
60.4758194074
 20
45.8615207982
 30
0.0
  0
SPLINE
  5
522
100
AcDbEntity
  8
0
100
AcDbSpline
 62
7
  6
BYLAYER
 70
0
 71
3
 72
9
 73
5
 74
0
 42
0.0000001
 43
0.0000001
 44
0.0000000001
 40
0.0
 40
0.0
 40
0.0
 40
0.0
 40
0.2568442547
 40
1.0
 40
1.0
 40
1.0
 40
1.0
 10
61.9001127404
 20
44.4366718207
 30
0.0
 10
61.8287419858
 20
44.4909188459
 30
0.0
 10
61.5541978386
 20
44.7064450189
 30
0.0
 10
61.2933850288
 20
44.9396728896
 30
0.0
 10
61.1100082221
 20
45.1231212352
 30
0.0
  0
SPLINE
  5
523
100
AcDbEntity
  8
0
100
AcDbSpline
 62
7
  6
BYLAYER
 70
0
 71
3
 72
9
 73
5
 74
0
 42
0.0000001
 43
0.0000001
 44
0.0000000001
 40
0.0
 40
0.0
 40
0.0
 40
0.0
 40
0.2724066674
 40
1.0
 40
1.0
 40
1.0
 40
1.0
 10
62.0184164513
 20
44.3867455209
 30
0.0
 10
62.0069323649
 20
44.3890444523
 30
0.0
 10
61.965267193
 20
44.3993785995
 30
0.0
 10
61.924875032
 20
44.4175559944
 30
0.0
 10
61.9001127404
 20
44.4366718207
 30
0.0
  0
SPLINE
  5
524
100
AcDbEntity
  8
0
100
AcDbSpline
 62
7
  6
BYLAYER
 70
0
 71
3
 72
8
 73
4
 74
0
 42
0.0000001
 43
0.0000001
 44
0.0000000001
 40
0.0
 40
0.0
 40
0.0
 40
0.0
 40
1.0
 40
1.0
 40
1.0
 40
1.0
 10
62.1648595437
 20
44.383673722
 30
0.0
 10
62.1166053757
 20
44.3762288676
 30
0.0
 10
62.0662917071
 20
44.3771616563
 30
0.0
 10
62.0184164513
 20
44.3867455209
 30
0.0
  0
SPLINE
  5
525
100
AcDbEntity
  8
0
100
AcDbSpline
 62
7
  6
BYLAYER
 70
0
 71
3
 72
9
 73
5
 74
0
 42
0.0000001
 43
0.0000001
 44
0.0000000001
 40
0.0
 40
0.0
 40
0.0
 40
0.0
 40
0.470722425
 40
1.0
 40
1.0
 40
1.0
 40
1.0
 10
62.627881921
 20
44.2982032217
 30
0.0
 10
62.5663312772
 20
44.3411933293
 30
0.0
 10
62.410247116
 20
44.3947569347
 30
0.0
 10
62.248289129
 20
44.3965455865
 30
0.0
 10
62.1648595437
 20
44.383673722
 30
0.0
  0
SPLINE
  5
526
100
AcDbEntity
  8
0
100
AcDbSpline
 62
7
  6
BYLAYER
 70
0
 71
3
 72
9
 73
5
 74
0
 42
0.0000001
 43
0.0000001
 44
0.0000000001
 40
0.0
 40
0.0
 40
0.0
 40
0.0
 40
0.2641907836
 40
1.0
 40
1.0
 40
1.0
 40
1.0
 10
62.7241904138
 20
43.8609635628
 30
0.0
 10
62.7206125245
 20
43.8632925056
 30
0.0
 10
62.7073426173
 20
43.8725073174
 30
0.0
 10
62.6951808534
 20
43.8834133979
 30
0.0
 10
62.6874165705
 20
43.8924183816
 30
0.0
  0
SPLINE
  5
527
100
AcDbEntity
  8
0
100
AcDbSpline
 62
7
  6
BYLAYER
 70
0
 71
3
 72
9
 73
5
 74
0
 42
0.0000001
 43
0.0000001
 44
0.0000000001
 40
0.0
 40
0.0
 40
0.0
 40
0.0
 40
0.2662010256
 40
1.0
 40
1.0
 40
1.0
 40
1.0
 10
62.6874165705
 20
43.8924183816
 30
0.0
 10
62.6844751368
 20
43.8958298445
 30
0.0
 10
62.6740579775
 20
43.9091535862
 30
0.0
 10
62.6664797099
 20
43.9248698684
 30
0.0
 10
62.66358428
 20
43.9369443596
 30
0.0
  0
SPLINE
  5
528
100
AcDbEntity
  8
0
100
AcDbSpline
 62
7
  6
BYLAYER
 70
0
 71
3
 72
9
 73
5
 74
0
 42
0.0000001
 43
0.0000001
 44
0.0000000001
 40
0.0
 40
0.0
 40
0.0
 40
0.0
 40
0.2542522323
 40
1.0
 40
1.0
 40
1.0
 40
1.0
 10
69.7667861316
 20
39.6660035228
 30
0.0
 10
69.1566362527
 20
39.9984214975
 30
0.0
 10
66.7691314339
 20
41.3282078142
 30
0.0
 10
64.4318409281
 20
42.7485930862
 30
0.0
 10
62.7241904138
 20
43.8609635628
 30
0.0
  0
SPLINE
  5
529
100
AcDbEntity
  8
0
100
AcDbSpline
 62
7
  6
BYLAYER
 70
0
 71
3
 72
9
 73
5
 74
0
 42
0.0000001
 43
0.0000001
 44
0.0000000001
 40
0.0
 40
0.0
 40
0.0
 40
0.0
 40
0.2538493784
 40
1.0
 40
1.0
 40
1.0
 40
1.0
 10
77.4285237398
 20
35.8498422411
 30
0.0
 10
76.7691541447
 20
36.1497312541
 30
0.0
 10
74.1818992788
 20
37.3534067834
 30
0.0
 10
71.6364625975
 20
38.6473782871
 30
0.0
 10
69.7667861316
 20
39.6660035228
 30
0.0
  0
SPLINE
  5
52A
100
AcDbEntity
  8
0
100
AcDbSpline
 62
7
  6
BYLAYER
 70
0
 71
3
 72
9
 73
5
 74
0
 42
0.0000001
 43
0.0000001
 44
0.0000000001
 40
0.0
 40
0.0
 40
0.0
 40
0.0
 40
0.2598150997
 40
1.0
 40
1.0
 40
1.0
 40
1.0
 10
77.5726804257
 20
35.8247446524
 30
0.0
 10
77.5599673275
 20
35.8246492034
 30
0.0
 10
77.5110793012
 20
35.8264441684
 30
0.0
 10
77.4622224761
 20
35.8365670996
 30
0.0
 10
77.4285237398
 20
35.8498422411
 30
0.0
  0
SPLINE
  5
52B
100
AcDbEntity
  8
0
100
AcDbSpline
 62
7
  6
BYLAYER
 70
0
 71
3
 72
9
 73
5
 74
0
 42
0.0000001
 43
0.0000001
 44
0.0000000001
 40
0.0
 40
0.0
 40
0.0
 40
0.0
 40
0.2366141779
 40
1.0
 40
1.0
 40
1.0
 40
1.0
 10
77.7156579366
 20
35.8519980226
 30
0.0
 10
77.7050226405
 20
35.8475700797
 30
0.0
 10
77.6589881553
 20
35.8315091418
 30
0.0
 10
77.6098470448
 20
35.8250236965
 30
0.0
 10
77.5726804257
 20
35.8247446524
 30
0.0
  0
SPLINE
  5
52C
100
AcDbEntity
  8
0
100
AcDbSpline
 62
7
  6
BYLAYER
 70
0
 71
3
 72
9
 73
5
 74
0
 42
0.0000001
 43
0.0000001
 44
0.0000000001
 40
0.0
 40
0.0
 40
0.0
 40
0.0
 40
0.5027697144
 40
1.0
 40
1.0
 40
1.0
 40
1.0
 10
78.2213427558
 20
35.8601345984
 30
0.0
 10
78.1405860522
 20
35.8899567232
 30
0.0
 10
77.9671619225
 20
35.9146601019
 30
0.0
 10
77.7942565005
 20
35.8847220717
 30
0.0
 10
77.7156579366
 20
35.8519980226
 30
0.0
  0
SPLINE
  5
52D
100
AcDbEntity
  8
0
100
AcDbSpline
 62
7
  6
BYLAYER
 70
0
 71
3
 72
8
 73
4
 74
0
 42
0.0000001
 43
0.0000001
 44
0.0000000001
 40
0.0
 40
0.0
 40
0.0
 40
0.0
 40
1.0
 40
1.0
 40
1.0
 40
1.0
 10
78.4376929502
 20
35.5053097287
 30
0.0
 10
78.4343183503
 20
35.509676079
 30
0.0
 10
78.4312192432
 20
35.5142750861
 30
0.0
 10
78.428490046
 20
35.5190713787
 30
0.0
  0
SPLINE
  5
52E
100
AcDbEntity
  8
0
100
AcDbSpline
 62
7
  6
BYLAYER
 70
0
 71
3
 72
9
 73
5
 74
0
 42
0.0000001
 43
0.0000001
 44
0.0000000001
 40
0.0
 40
0.0
 40
0.0
 40
0.0
 40
0.2611779571
 40
1.0
 40
1.0
 40
1.0
 40
1.0
 10
78.428490046
 20
35.5190713787
 30
0.0
 10
78.426464413
 20
35.5226312271
 30
0.0
 10
78.4194615398
 20
35.5366661935
 30
0.0
 10
78.4159932726
 20
35.5525376465
 30
0.0
 10
78.4159966657
 20
35.5641239196
 30
0.0
  0
SPLINE
  5
52F
100
AcDbEntity
  8
0
100
AcDbSpline
 62
7
  6
BYLAYER
 70
0
 71
3
 72
9
 73
5
 74
0
 42
0.0000001
 43
0.0000001
 44
0.0000000001
 40
0.0
 40
0.0
 40
0.0
 40
0.0
 40
0.2805316296
 40
1.0
 40
1.0
 40
1.0
 40
1.0
 10
78.5376056449
 20
35.4402765021
 30
0.0
 10
78.526995616
 20
35.4439428109
 30
0.0
 10
78.4900273746
 20
35.4588905048
 30
0.0
 10
78.4552984297
 20
35.48253023
 30
0.0
 10
78.4376929502
 20
35.5053097287
 30
0.0
  0
SPLINE
  5
530
100
AcDbEntity
  8
0
100
AcDbSpline
 62
7
  6
BYLAYER
 70
0
 71
3
 72
9
 73
5
 74
0
 42
0.0000001
 43
0.0000001
 44
0.0000000001
 40
0.0
 40
0.0
 40
0.0
 40
0.0
 40
0.2576570294
 40
1.0
 40
1.0
 40
1.0
 40
1.0
 10
80.1398945408
 20
35.0070564786
 30
0.0
 10
79.9993361437
 20
35.031534133
 30
0.0
 10
79.4560329205
 20
35.1385231293
 30
0.0
 10
78.921765369
 20
35.2940132744
 30
0.0
 10
78.5376056449
 20
35.4402765021
 30
0.0
  0
SPLINE
  5
531
100
AcDbEntity
  8
0
100
AcDbSpline
 62
7
  6
BYLAYER
 70
0
 71
3
 72
9
 73
5
 74
0
 42
0.0000001
 43
0.0000001
 44
0.0000000001
 40
0.0
 40
0.0
 40
0.0
 40
0.0
 40
0.2523506897
 40
1.0
 40
1.0
 40
1.0
 40
1.0
 10
81.8898593667
 20
34.8564955999
 30
0.0
 10
81.742014546
 20
34.8567440971
 30
0.0
 10
81.1562486652
 20
34.869990549
 30
0.0
 10
80.5714262165
 20
34.9319070503
 30
0.0
 10
80.1398945408
 20
35.0070564786
 30
0.0
  0
SPLINE
  5
532
100
AcDbEntity
  8
0
100
AcDbSpline
 62
7
  6
BYLAYER
 70
0
 71
3
 72
9
 73
5
 74
0
 42
0.0000001
 43
0.0000001
 44
0.0000000001
 40
0.0
 40
0.0
 40
0.0
 40
0.0
 40
0.2425871814
 40
1.0
 40
1.0
 40
1.0
 40
1.0
 10
83.0504435023
 20
35.051158521
 30
0.0
 10
82.959146375
 20
35.0238723677
 30
0.0
 10
82.5791155297
 20
34.9239218165
 30
0.0
 10
82.1869853059
 20
34.8715938928
 30
0.0
 10
81.8898593667
 20
34.8564955999
 30
0.0
  0
SPLINE
  5
533
100
AcDbEntity
  8
0
100
AcDbSpline
 62
7
  6
BYLAYER
 70
0
 71
3
 72
9
 73
5
 74
0
 42
0.0000001
 43
0.0000001
 44
0.0000000001
 40
0.0
 40
0.0
 40
0.0
 40
0.0
 40
0.2339435429
 40
1.0
 40
1.0
 40
1.0
 40
1.0
 10
83.9957694033
 20
35.4858931044
 30
0.0
 10
83.9285514366
 20
35.4401188138
 30
0.0
 10
83.6320050938
 20
35.2580365661
 30
0.0
 10
83.3055891139
 20
35.1274143954
 30
0.0
 10
83.0504435023
 20
35.051158521
 30
0.0
  0
SPLINE
  5
534
100
AcDbEntity
  8
0
100
AcDbSpline
 62
7
  6
BYLAYER
 70
0
 71
3
 72
9
 73
5
 74
0
 42
0.0000001
 43
0.0000001
 44
0.0000000001
 40
0.0
 40
0.0
 40
0.0
 40
0.0
 40
0.2349186692
 40
1.0
 40
1.0
 40
1.0
 40
1.0
 10
97.8348235302
 20
43.4758270364
 30
0.0
 10
97.7910925555
 20
43.4563082531
 30
0.0
 10
97.5991465699
 20
43.3864535142
 30
0.0
 10
97.3916562383
 20
43.3631836847
 30
0.0
 10
97.2357664503
 20
43.3680386756
 30
0.0
  0
SPLINE
  5
535
100
AcDbEntity
  8
0
100
AcDbSpline
 62
7
  6
BYLAYER
 70
0
 71
3
 72
9
 73
5
 74
0
 42
0.0000001
 43
0.0000001
 44
0.0000000001
 40
0.0
 40
0.0
 40
0.0
 40
0.0
 40
0.2306319194
 40
1.0
 40
1.0
 40
1.0
 40
1.0
 10
98.5878088095
 20
44.0216070173
 30
0.0
 10
98.5399092027
 20
43.9681847973
 30
0.0
 10
98.3180447415
 20
43.7492473141
 30
0.0
 10
98.0498081047
 20
43.5810582811
 30
0.0
 10
97.8348235302
 20
43.4758270364
 30
0.0
  0
SPLINE
  5
536
100
AcDbEntity
  8
0
100
AcDbSpline
 62
7
  6
BYLAYER
 70
0
 71
3
 72
9
 73
5
 74
0
 42
0.0000001
 43
0.0000001
 44
0.0000000001
 40
0.0
 40
0.0
 40
0.0
 40
0.0
 40
0.4778083769
 40
1.0
 40
1.0
 40
1.0
 40
1.0
 10
98.9249700354
 20
44.6916626221
 30
0.0
 10
98.9067743575
 20
44.5722944082
 30
0.0
 10
98.8247478993
 20
44.3280419634
 30
0.0
 10
98.6759040595
 20
44.1198592607
 30
0.0
 10
98.5878088095
 20
44.0216070173
 30
0.0
  0
SPLINE
  5
537
100
AcDbEntity
  8
0
100
AcDbSpline
 62
7
  6
BYLAYER
 70
0
 71
3
 72
9
 73
5
 74
0
 42
0.0000001
 43
0.0000001
 44
0.0000000001
 40
0.0
 40
0.0
 40
0.0
 40
0.0
 40
0.2702687056
 40
1.0
 40
1.0
 40
1.0
 40
1.0
 10
62.6861561643
 20
188.9487526271
 30
0.0
 10
62.6822015593
 20
188.9440311856
 30
0.0
 10
62.6687379009
 20
188.9256735367
 30
0.0
 10
62.6612213848
 20
188.9025460536
 30
0.0
 10
62.6612243985
 20
188.8859171416
 30
0.0
  0
SPLINE
  5
538
100
AcDbEntity
  8
0
100
AcDbSpline
 62
7
  6
BYLAYER
 70
0
 71
3
 72
9
 73
5
 74
0
 42
0.0000001
 43
0.0000001
 44
0.0000000001
 40
0.0
 40
0.0
 40
0.0
 40
0.0
 40
0.2567512455
 40
1.0
 40
1.0
 40
1.0
 40
1.0
 10
98.1261731593
 20
188.5675293789
 30
0.0
 10
98.1487023141
 20
188.5818421183
 30
0.0
 10
98.2356232554
 20
188.6388694135
 30
0.0
 10
98.3191491309
 20
188.7011331917
 30
0.0
 10
98.3785956484
 20
188.7504906466
 30
0.0
  0
SPLINE
  5
539
100
AcDbEntity
  8
0
100
AcDbSpline
 62
7
  6
BYLAYER
 70
0
 71
3
 72
9
 73
5
 74
0
 42
0.0000001
 43
0.0000001
 44
0.0000000001
 40
0.0
 40
0.0
 40
0.0
 40
0.0
 40
0.2541114805
 40
1.0
 40
1.0
 40
1.0
 40
1.0
 10
98.4744798205
 20
188.8350703881
 30
0.0
 10
98.4844852378
 20
188.8444605635
 30
0.0
 10
98.5234791145
 20
188.8818156992
 30
0.0
 10
98.5609209735
 20
188.9207981729
 30
0.0
 10
98.5878088095
 20
188.9507860578
 30
0.0
  0
SPLINE
  5
53A
100
AcDbEntity
  8
0
100
AcDbSpline
 62
7
  6
BYLAYER
 70
0
 71
3
 72
9
 73
5
 74
0
 42
0.0000001
 43
0.0000001
 44
0.0000000001
 40
0.0
 40
0.0
 40
0.0
 40
0.0
 40
0.2545152237
 40
1.0
 40
1.0
 40
1.0
 40
1.0
 10
97.6519595782
 20
188.3418006861
 30
0.0
 10
97.6620902074
 20
188.3444196475
 30
0.0
 10
97.7017673744
 20
188.3551899639
 30
0.0
 10
97.7409265907
 20
188.367889858
 30
0.0
 10
97.76967497
 20
188.3785135268
 30
0.0
  0
SPLINE
  5
53B
100
AcDbEntity
  8
0
100
AcDbSpline
 62
7
  6
BYLAYER
 70
0
 71
3
 72
8
 73
4
 74
0
 42
0.0000001
 43
0.0000001
 44
0.0000000001
 40
0.0
 40
0.0
 40
0.0
 40
0.0
 40
1.0
 40
1.0
 40
1.0
 40
1.0
 10
78.4159966657
 20
180.4933029601
 30
0.0
 10
78.4159935964
 20
180.4828224617
 30
0.0
 10
78.4180714115
 20
180.4721977761
 30
0.0
 10
78.4217933781
 20
180.4624004387
 30
0.0
  0
SPLINE
  5
53C
100
AcDbEntity
  8
0
100
AcDbSpline
 62
7
  6
BYLAYER
 70
0
 71
3
 72
8
 73
4
 74
0
 42
0.0000001
 43
0.0000001
 44
0.0000000001
 40
0.0
 40
0.0
 40
0.0
 40
0.0
 40
1.0
 40
1.0
 40
1.0
 40
1.0
 10
78.4217933781
 20
180.4624004387
 30
0.0
 10
78.4255959652
 20
180.452390884
 30
0.0
 10
78.4311451364
 20
180.4429608993
 30
0.0
 10
78.4376929502
 20
180.4344887692
 30
0.0
  0
SPLINE
  5
53D
100
AcDbEntity
  8
0
100
AcDbSpline
 62
7
  6
BYLAYER
 70
0
 71
3
 72
9
 73
5
 74
0
 42
0.0000001
 43
0.0000001
 44
0.0000000001
 40
0.0
 40
0.0
 40
0.0
 40
0.0
 40
0.2581053624
 40
1.0
 40
1.0
 40
1.0
 40
1.0
 10
84.041655957
 20
180.4526853643
 30
0.0
 10
84.0476061549
 20
180.4580525242
 30
0.0
 10
84.0702377401
 20
180.4793052324
 30
0.0
 10
84.0911286289
 20
180.5024470274
 30
0.0
 10
84.1052443939
 20
180.5206477137
 30
0.0
  0
SPLINE
  5
53E
100
AcDbEntity
  8
0
100
AcDbSpline
 62
7
  6
BYLAYER
 70
0
 71
3
 72
8
 73
4
 74
0
 42
0.0000001
 43
0.0000001
 44
0.0000000001
 40
0.0
 40
0.0
 40
0.0
 40
0.0
 40
1.0
 40
1.0
 40
1.0
 40
1.0
 10
84.1052443939
 20
180.5206477137
 30
0.0
 10
84.1176155651
 20
180.5365989432
 30
0.0
 10
84.1289698238
 20
180.5534142291
 30
0.0
 10
84.1389411235
 20
180.5709658894
 30
0.0
  0
SPLINE
  5
53F
100
AcDbEntity
  8
0
100
AcDbSpline
 62
7
  6
BYLAYER
 70
0
 71
3
 72
9
 73
5
 74
0
 42
0.0000001
 43
0.0000001
 44
0.0000000001
 40
0.0
 40
0.0
 40
0.0
 40
0.0
 40
0.2562246885
 40
1.0
 40
1.0
 40
1.0
 40
1.0
 10
84.1389411235
 20
180.5709658894
 30
0.0
 10
84.1423983041
 20
180.5770512807
 30
0.0
 10
84.1552530745
 20
180.6011548205
 30
0.0
 10
84.1654348637
 20
180.6267109831
 30
0.0
 10
84.171141847
 20
180.646209428
 30
0.0
  0
SPLINE
  5
540
100
AcDbEntity
  8
0
100
AcDbSpline
 62
7
  6
BYLAYER
 70
0
 71
3
 72
8
 73
4
 74
0
 42
0.0000001
 43
0.0000001
 44
0.0000000001
 40
0.0
 40
0.0
 40
0.0
 40
0.0
 40
1.0
 40
1.0
 40
1.0
 40
1.0
 10
84.171141847
 20
180.646209428
 30
0.0
 10
84.1793479363
 20
180.674246303
 30
0.0
 10
84.1837472979
 20
180.7037224491
 30
0.0
 10
84.1837606308
 20
180.7329355641
 30
0.0
  0
SPLINE
  5
541
100
AcDbEntity
  8
0
100
AcDbSpline
 62
7
  6
BYLAYER
 70
0
 71
3
 72
9
 73
5
 74
0
 42
0.0000001
 43
0.0000001
 44
0.0000000001
 40
0.0
 40
0.0
 40
0.0
 40
0.0
 40
0.2553413862
 40
1.0
 40
1.0
 40
1.0
 40
1.0
 10
83.3973685485
 20
180.1011267774
 30
0.0
 10
83.4249258641
 20
180.1121900755
 30
0.0
 10
83.5323264425
 20
180.1568020809
 30
0.0
 10
83.6375830254
 20
180.2066266006
 30
0.0
 10
83.7142691885
 20
180.2468624095
 30
0.0
  0
SPLINE
  5
542
100
AcDbEntity
  8
0
100
AcDbSpline
 62
7
  6
BYLAYER
 70
0
 71
3
 72
8
 73
4
 74
0
 42
0.0000001
 43
0.0000001
 44
0.0000000001
 40
0.0
 40
0.0
 40
0.0
 40
0.0
 40
1.0
 40
1.0
 40
1.0
 40
1.0
 10
78.4376929502
 20
180.4344887692
 30
0.0
 10
78.4450201038
 20
180.4250082613
 30
0.0
 10
78.4537099429
 20
180.4165153128
 30
0.0
 10
78.4630535812
 20
180.409014404
 30
0.0
  0
SPLINE
  5
543
100
AcDbEntity
  8
0
100
AcDbSpline
 62
7
  6
BYLAYER
 70
0
 71
3
 72
8
 73
4
 74
0
 42
0.0000001
 43
0.0000001
 44
0.0000000001
 40
0.0
 40
0.0
 40
0.0
 40
0.0
 40
1.0
 40
1.0
 40
1.0
 40
1.0
 10
78.4630535812
 20
180.409014404
 30
0.0
 10
78.4735275779
 20
180.4006060633
 30
0.0
 10
78.4849589347
 20
180.3933272815
 30
0.0
 10
78.4968243076
 20
180.3870330201
 30
0.0
  0
SPLINE
  5
544
100
AcDbEntity
  8
0
100
AcDbSpline
 62
7
  6
BYLAYER
 70
0
 71
3
 72
8
 73
4
 74
0
 42
0.0000001
 43
0.0000001
 44
0.0000000001
 40
0.0
 40
0.0
 40
0.0
 40
0.0
 40
1.0
 40
1.0
 40
1.0
 40
1.0
 10
78.4968243076
 20
180.3870330201
 30
0.0
 10
78.5099010306
 20
180.3800961699
 30
0.0
 10
78.5236146747
 20
180.3742901398
 30
0.0
 10
78.5376056449
 20
180.3694555426
 30
0.0
  0
SPLINE
  5
545
100
AcDbEntity
  8
0
100
AcDbSpline
 62
7
  6
BYLAYER
 70
0
 71
3
 72
9
 73
5
 74
0
 42
0.0000001
 43
0.0000001
 44
0.0000000001
 40
0.0
 40
0.0
 40
0.0
 40
0.0
 40
0.2723042419
 40
1.0
 40
1.0
 40
1.0
 40
1.0
 10
78.2213427557
 20
180.7893136389
 30
0.0
 10
78.2362055375
 20
180.7838250576
 30
0.0
 10
78.2897828956
 20
180.7613461909
 30
0.0
 10
78.3401649461
 20
180.7291669618
 30
0.0
 10
78.3699074439
 20
180.6990323026
 30
0.0
  0
SPLINE
  5
546
100
AcDbEntity
  8
0
100
AcDbSpline
 62
7
  6
BYLAYER
 70
0
 71
3
 72
9
 73
5
 74
0
 42
0.0000001
 43
0.0000001
 44
0.0000000001
 40
0.0
 40
0.0
 40
0.0
 40
0.0
 40
0.2599950933
 40
1.0
 40
1.0
 40
1.0
 40
1.0
 10
78.3699074439
 20
180.6990323026
 30
0.0
 10
78.373242826
 20
180.6956529427
 30
0.0
 10
78.3857269434
 20
180.6823245798
 30
0.0
 10
78.3967736721
 20
180.6676119293
 30
0.0
 10
78.4037625992
 20
180.6560451314
 30
0.0
  0
SPLINE
  5
547
100
AcDbEntity
  8
0
100
AcDbSpline
 62
7
  6
BYLAYER
 70
0
 71
3
 72
9
 73
5
 74
0
 42
0.0000001
 43
0.0000001
 44
0.0000000001
 40
0.0
 40
0.0
 40
0.0
 40
0.0
 40
0.2619429531
 40
1.0
 40
1.0
 40
1.0
 40
1.0
 10
78.4037625992
 20
180.6560451314
 30
0.0
 10
78.4078173976
 20
180.6493343683
 30
0.0
 10
78.4218311982
 20
180.6228751715
 30
0.0
 10
78.4287755926
 20
180.5925440481
 30
0.0
 10
78.4287910734
 20
180.5704520521
 30
0.0
  0
SPLINE
  5
548
100
AcDbEntity
  8
0
100
AcDbSpline
 62
7
  6
BYLAYER
 70
0
 71
3
 72
8
 73
4
 74
0
 42
0.0000001
 43
0.0000001
 44
0.0000000001
 40
0.0
 40
0.0
 40
0.0
 40
0.0
 40
1.0
 40
1.0
 40
1.0
 40
1.0
 10
77.7156579366
 20
180.7811770631
 30
0.0
 10
77.731678772
 20
180.7878472436
 30
0.0
 10
77.7480494195
 20
180.7937163924
 30
0.0
 10
77.764616679
 20
180.7988820857
 30
0.0
  0
SPLINE
  5
549
100
AcDbEntity
  8
0
100
AcDbSpline
 62
7
  6
BYLAYER
 70
0
 71
3
 72
9
 73
5
 74
0
 42
0.0000001
 43
0.0000001
 44
0.0000000001
 40
0.0
 40
0.0
 40
0.0
 40
0.0
 40
0.2434921561
 40
1.0
 40
1.0
 40
1.0
 40
1.0
 10
77.764616679
 20
180.7988820857
 30
0.0
 10
77.7736179545
 20
180.8016886952
 30
0.0
 10
77.8108477116
 20
180.8123626703
 30
0.0
 10
77.8489975537
 20
180.8197728817
 30
0.0
 10
77.8780346326
 20
180.8236444783
 30
0.0
  0
SPLINE
  5
54A
100
AcDbEntity
  8
0
100
AcDbSpline
 62
7
  6
BYLAYER
 70
0
 71
3
 72
9
 73
5
 74
0
 42
0.0000001
 43
0.0000001
 44
0.0000000001
 40
0.0
 40
0.0
 40
0.0
 40
0.0
 40
0.259208126
 40
1.0
 40
1.0
 40
1.0
 40
1.0
 10
78.0116425231
 20
180.8295733842
 30
0.0
 10
78.0301154566
 20
180.8287928197
 30
0.0
 10
78.1012183863
 20
180.8231907237
 30
0.0
 10
78.171773674
 20
180.807618687
 30
0.0
 10
78.2213427557
 20
180.7893136389
 30
0.0
  0
SPLINE
  5
54B
100
AcDbEntity
  8
0
100
AcDbSpline
 62
7
  6
BYLAYER
 70
0
 71
3
 72
9
 73
5
 74
0
 42
0.0000001
 43
0.0000001
 44
0.0000000001
 40
0.0
 40
0.0
 40
0.0
 40
0.0
 40
0.7561251297
 40
1.0
 40
1.0
 40
1.0
 40
1.0
 10
77.5726804257
 20
180.7539236929
 30
0.0
 10
77.5978389401
 20
180.7541125811
 30
0.0
 10
77.6312179984
 20
180.7572325327
 30
0.0
 10
77.6637073154
 20
180.7644749534
 30
0.0
 10
77.6715637146
 20
180.76650591
 30
0.0
  0
SPLINE
  5
54C
100
AcDbEntity
  8
0
100
AcDbSpline
 62
7
  6
BYLAYER
 70
0
 71
3
 72
8
 73
4
 74
0
 42
0.0000001
 43
0.0000001
 44
0.0000000001
 40
0.0
 40
0.0
 40
0.0
 40
0.0
 40
1.0
 40
1.0
 40
1.0
 40
1.0
 10
77.6715637146
 20
180.76650591
 30
0.0
 10
77.6865609988
 20
180.7703828555
 30
0.0
 10
77.7013575657
 20
180.7752231879
 30
0.0
 10
77.7156579366
 20
180.7811770631
 30
0.0
  0
SPLINE
  5
54D
100
AcDbEntity
  8
0
100
AcDbSpline
 62
7
  6
BYLAYER
 70
0
 71
3
 72
9
 73
5
 74
0
 42
0.0000001
 43
0.0000001
 44
0.0000000001
 40
0.0
 40
0.0
 40
0.0
 40
0.0
 40
0.2393737581
 40
1.0
 40
1.0
 40
1.0
 40
1.0
 10
77.4285237398
 20
180.7790212816
 30
0.0
 10
77.4356722729
 20
180.7762052179
 30
0.0
 10
77.4659809296
 20
180.7655837388
 30
0.0
 10
77.4977255996
 20
180.759239482
 30
0.0
 10
77.5219891572
 20
180.7565340456
 30
0.0
  0
SPLINE
  5
54E
100
AcDbEntity
  8
0
100
AcDbSpline
 62
7
  6
BYLAYER
 70
0
 71
3
 72
9
 73
5
 74
0
 42
0.0000001
 43
0.0000001
 44
0.0000000001
 40
0.0
 40
0.0
 40
0.0
 40
0.0
 40
0.2340392459
 40
1.0
 40
1.0
 40
1.0
 40
1.0
 10
62.66358428
 20
188.8661234001
 30
0.0
 10
62.6647199535
 20
188.8613874262
 30
0.0
 10
62.6712583128
 20
188.8415463362
 30
0.0
 10
62.6841159291
 20
188.8241964829
 30
0.0
 10
62.6954654405
 20
188.8130050457
 30
0.0
  0
SPLINE
  5
54F
100
AcDbEntity
  8
0
100
AcDbSpline
 62
7
  6
BYLAYER
 70
0
 71
3
 72
8
 73
4
 74
0
 42
0.0000001
 43
0.0000001
 44
0.0000000001
 40
0.0
 40
0.0
 40
0.0
 40
0.0
 40
1.0
 40
1.0
 40
1.0
 40
1.0
 10
62.6954654405
 20
188.8130050457
 30
0.0
 10
62.7041791534
 20
188.8044126961
 30
0.0
 10
62.7139342747
 20
188.7968185956
 30
0.0
 10
62.7241904137
 20
188.7901426033
 30
0.0
  0
SPLINE
  5
550
100
AcDbEntity
  8
0
100
AcDbSpline
 62
7
  6
BYLAYER
 70
0
 71
3
 72
9
 73
5
 74
0
 42
0.0000001
 43
0.0000001
 44
0.0000000001
 40
0.0
 40
0.0
 40
0.0
 40
0.0
 40
0.2619699784
 40
1.0
 40
1.0
 40
1.0
 40
1.0
 10
62.6432082045
 20
189.2160397542
 30
0.0
 10
62.6481725706
 20
189.2121450322
 30
0.0
 10
62.6666879168
 20
189.1967439363
 30
0.0
 10
62.6834169066
 20
189.1791056465
 30
0.0
 10
62.6940838705
 20
189.164885602
 30
0.0
  0
SPLINE
  5
551
100
AcDbEntity
  8
0
100
AcDbSpline
 62
7
  6
BYLAYER
 70
0
 71
3
 72
9
 73
5
 74
0
 42
0.0000001
 43
0.0000001
 44
0.0000000001
 40
0.0
 40
0.0
 40
0.0
 40
0.0
 40
0.2682176721
 40
1.0
 40
1.0
 40
1.0
 40
1.0
 10
62.4630019681
 20
189.2994795186
 30
0.0
 10
62.4786343161
 20
189.2954873174
 30
0.0
 10
62.5362772521
 20
189.2784321083
 30
0.0
 10
62.5917940671
 20
189.2525878591
 30
0.0
 10
62.627881921
 20
189.2273822622
 30
0.0
  0
SPLINE
  5
552
100
AcDbEntity
  8
0
100
AcDbSpline
 62
7
  6
BYLAYER
 70
0
 71
3
 72
8
 73
4
 74
0
 42
0.0000001
 43
0.0000001
 44
0.0000000001
 40
0.0
 40
0.0
 40
0.0
 40
0.0
 40
1.0
 40
1.0
 40
1.0
 40
1.0
 10
62.0184164513
 20
189.3159245614
 30
0.0
 10
62.0504147762
 20
189.3095190058
 30
0.0
 10
62.083402677
 20
189.3070574623
 30
0.0
 10
62.1160142548
 20
189.308244445
 30
0.0
  0
SPLINE
  5
553
100
AcDbEntity
  8
0
100
AcDbSpline
 62
7
  6
BYLAYER
 70
0
 71
3
 72
9
 73
5
 74
0
 42
0.0000001
 43
0.0000001
 44
0.0000000001
 40
0.0
 40
0.0
 40
0.0
 40
0.0
 40
0.2325085008
 40
1.0
 40
1.0
 40
1.0
 40
1.0
 10
61.9001127404
 20
189.3658508612
 30
0.0
 10
61.9051937176
 20
189.3619284828
 30
0.0
 10
61.9279159655
 20
189.3461875353
 30
0.0
 10
61.9534274766
 20
189.3347284213
 30
0.0
 10
61.9734891053
 20
189.3279119873
 30
0.0
  0
SPLINE
  5
554
100
AcDbEntity
  8
0
100
AcDbSpline
 62
7
  6
BYLAYER
 70
0
 71
3
 72
8
 73
4
 74
0
 42
0.0000001
 43
0.0000001
 44
0.0000000001
 40
0.0
 40
0.0
 40
0.0
 40
0.0
 40
1.0
 40
1.0
 40
1.0
 40
1.0
 10
61.9734891053
 20
189.3279119873
 30
0.0
 10
61.9881648011
 20
189.322925557
 30
0.0
 10
62.0032182886
 20
189.3189669918
 30
0.0
 10
62.0184164513
 20
189.3159245614
 30
0.0
  0
SPLINE
  5
555
100
AcDbEntity
  8
0
100
AcDbSpline
 62
7
  6
BYLAYER
 70
0
 71
3
 72
9
 73
5
 74
0
 42
0.0000001
 43
0.0000001
 44
0.0000000001
 40
0.0
 40
0.0
 40
0.0
 40
0.0
 40
0.245539052
 40
1.0
 40
1.0
 40
1.0
 40
1.0
 10
60.6692159313
 20
190.5395046416
 30
0.0
 10
60.7031701528
 20
190.4977890214
 30
0.0
 10
60.8437363351
 20
190.3297600776
 30
0.0
 10
60.9931667929
 20
190.1691872869
 30
0.0
 10
61.110008222
 20
190.0523002757
 30
0.0
  0
SPLINE
  5
556
100
AcDbEntity
  8
0
100
AcDbSpline
 62
7
  6
BYLAYER
 70
0
 71
3
 72
9
 73
5
 74
0
 42
0.0000001
 43
0.0000001
 44
0.0000000001
 40
0.0
 40
0.0
 40
0.0
 40
0.0
 40
0.2463273427
 40
1.0
 40
1.0
 40
1.0
 40
1.0
 10
60.4005641167
 20
190.9380442767
 30
0.0
 10
60.4059218234
 20
190.9255544028
 30
0.0
 10
60.4285406515
 20
190.875225492
 30
0.0
 10
60.4545644178
 20
190.8264390657
 30
0.0
 10
60.4758194074
 20
190.7906998387
 30
0.0
  0
SPLINE
  5
557
100
AcDbEntity
  8
0
100
AcDbSpline
 62
7
  6
BYLAYER
 70
0
 71
3
 72
9
 73
5
 74
0
 42
0.0000001
 43
0.0000001
 44
0.0000000001
 40
0.0
 40
0.0
 40
0.0
 40
0.0
 40
0.2568567298
 40
1.0
 40
1.0
 40
1.0
 40
1.0
 10
98.5878088095
 20
188.9507860578
 30
0.0
 10
98.603188824
 20
188.96793932
 30
0.0
 10
98.6617460191
 20
189.0358843475
 30
0.0
 10
98.7148532409
 20
189.1085943151
 30
0.0
 10
98.7502959006
 20
189.1650462972
 30
0.0
  0
SPLINE
  5
558
100
AcDbEntity
  8
0
100
AcDbSpline
 62
7
  6
BYLAYER
 70
0
 71
3
 72
9
 73
5
 74
0
 42
0.0000001
 43
0.0000001
 44
0.0000000001
 40
0.0
 40
0.0
 40
0.0
 40
0.0
 40
0.2559621402
 40
1.0
 40
1.0
 40
1.0
 40
1.0
 10
98.7502959006
 20
189.1650462972
 30
0.0
 10
98.7617137532
 20
189.183232303
 30
0.0
 10
98.8047054406
 20
189.2552761331
 30
0.0
 10
98.8409890188
 20
189.331381566
 30
0.0
 10
98.8633221153
 20
189.3896683559
 30
0.0
  0
ENDSEC
  0
SECTION
  2
OBJECTS
  0
DICTIONARY
  5
C
100
AcDbDictionary
280
0
281
1
  3
ACAD_GROUP
350
D
  3
ACAD_MLINESTYLE
350
17
  3
ACAD_LAYOUT
350
1A
  3
ACAD_PLOTSETTINGS
350
19
  3
ACAD_PLOTSTYLENAME
350
E
  0
DICTIONARY
  5
D
102
{ACAD_REACTORS
330
C
102
}
100
AcDbDictionary
280
0
281
1
  0
ACDBDICTIONARYWDFLT
  5
E
102
{ACAD_REACTORS
330
C
102
}
100
AcDbDictionary
281
1
  3
Normal
350
F
100
AcDbDictionaryWithDefault
340
F
  0
DICTIONARY
  5
17
102
{ACAD_REACTORS
330
C
102
}
100
AcDbDictionary
280
0
281
1
  3
Standard
350
18
  0
DICTIONARY
  5
19
102
{ACAD_REACTORS
330
C
102
}
100
AcDbDictionary
281
1
  0
DICTIONARY
  5
1A
102
{ACAD_REACTORS
330
C
102
}
100
AcDbDictionary
281
1
  3
Model
350
559
  3
Layout1
350
55A
  0
ACDBPLACEHOLDER
  5
F
102
{ACAD_REACTORS
330
E
102
}
  0
MLINESTYLE
  5
18
102
{ACAD_REACTORS
330
17
102
}
100
AcDbMlineStyle
  2
STANDARD
 70
0
  3

 62
256
 51
90.0
 52
90.0
 71
2
 49
0.5
 62
256
  6
BYLAYER
 49
-0.5
 62
256
  6
BYLAYER
  0
LAYOUT
  5
559
102
{ACAD_REACTORS
330
1A
102
}
100
AcDbPlotSettings
  1

  2
none_device
  4

  6

 40
0.0
 41
0.0
 42
0.0
 43
0.0
 44
210.0
 45
297.0
 46
0.0
 47
0.0
 48
0.0
 49
0.0
140
0.0
141
0.0
142
1.0
143
1.0
 70
1024
 72
1
 73
0
 74
0
  7

 75
0
147
1.0
148
0.0
149
0.0
100
AcDbLayout
  1
Model
 70
0
 71
0
 10
0.0
 20
0.0
 11
210.0
 21
297.0
 12
0.0
 22
0.0
 32
0.0
 14
0.0
 24
0.0
 34
0.0
 15
0.0
 25
0.0
 35
0.0
146
0.0
 13
0.0
 23
0.0
 33
0.0
 16
1.0
 26
0.0
 36
0.0
 17
0.0
 27
1.0
 37
0.0
 76
0
330
210
345
0
346
0
  0
LAYOUT
  5
55A
102
{ACAD_REACTORS
330
1A
102
}
100
AcDbPlotSettings
  1

  2
none_device
  4

  6

 40
0.0
 41
0.0
 42
0.0
 43
0.0
 44
210.0
 45
297.0
 46
0.0
 47
0.0
 48
0.0
 49
0.0
140
0.0
141
0.0
142
1.0
143
1.0
 70
0
 72
1
 73
0
 74
0
  7

 75
0
147
1.0
148
0.0
149
0.0
100
AcDbLayout
  1
Layout1
 70
0
 71
1
 10
0.0
 20
0.0
 11
210.0
 21
297.0
 12
0.0
 22
0.0
 32
0.0
 14
0.0
 24
0.0
 34
0.0
 15
0.0
 25
0.0
 35
0.0
146
0.0
 13
0.0
 23
0.0
 33
0.0
 16
1.0
 26
0.0
 36
0.0
 17
0.0
 27
1.0
 37
0.0
 76
0
330
211
345
0
346
0
  0
ENDSEC
  0
EOF
