999
DXF file: C:\Users\sesa63760\Dev\_Creo\CAD\MCADID0003747_3D-CAD\drw0001_1.dxf
999
Pro/ENGINEER 2019471 by Parametric Technology Corporation
  0
SECTION
  2
HEADER
  9
$ACADVER
  1
AC1024
  9
$DWGCODEPAGE
  3
ANSI_1252
  9
$EXTMAX
 10
102.0819096563
 20
144.3729865139
 30
0.0
  9
$EXTMIN
 10
0.0
 20
0.0
 30
0.0
  9
$LIMMIN
 10
0.0
 20
0.0
  9
$LIMMAX
 10
102.0819096563
 20
144.3729865139
  9
$VIEWCTR
 10
51.0409548281
 20
72.1864932569
  9
$VIEWSIZE
 40
144.3729865139
  9
$CLAYER
  8
0
  9
$LTSCALE
 40
9.4109798616
  9
$CELTYPE
  6
BYLAYER
  9
$DIMSCALE
 40
1.0
  9
$DIMASZ
 40
1.2152608292
  9
$DIMEXO
 40
1.0
  9
$DIMDLI
 40
6.5021315408
  9
$DIMEXE
 40
1.0
  9
$DIMCEN
 40
1.5399785228
  9
$DIMLFAC
 40
1.0
  9
$DIMBLK
  1
_FILLED
  9
$DIMALT
 70
0
  9
$DIMALTF
 40
0.0393700787
  9
$DIMTXT
 40
1.7013651609
  9
$DIMTOL
 70
1
  9
$DIMLIM
 70
0
  9
$DIMTFAC
 40
1.0
  9
$DIMTP
 40
0.01
  9
$DIMTM
 40
0.01
  9
$DIMGAP
 40
0.625
  9
$DIMDSEP
 70
46
  9
$AUNITS
 70
0
  9
$PDMODE
 70
3
  9
$PDSIZE
 40
0.3125
  9
$HANDSEED
  5
29D
  9
$TILEMODE
 70
1
  9
$MEASUREMENT
 70
1
  9
$INSUNITS
 70
4
  0
ENDSEC
  0
SECTION
  2
CLASSES
  0
CLASS
  1
ACDBDICTIONARYWDFLT
  2
AcDbDictionaryWithDefault
  3
AutoCAD 2000
 90
0
 91
1
280
0
281
0
  0
CLASS
  1
ACDBPLACEHOLDER
  2
AcDbPlaceHolder
  3
AutoCAD 2000
 90
0
 91
1
280
0
281
0
  0
CLASS
  1
LAYOUT
  2
AcDbLayout
  3
AutoCAD 2000
 90
0
 91
0
280
0
281
0
  0
ENDSEC
  0
SECTION
  2
TABLES
  0
TABLE
  2
VPORT
  5
8
100
AcDbSymbolTable
 70
2
  0
VPORT
  5
1F4
100
AcDbSymbolTableRecord
100
AcDbViewportTableRecord
  2
*ACTIVE
 70
0
 10
0.0
 20
0.0
 11
1.0
 21
1.0
 12
51.0409548281
 22
72.1864932569
 13
0.0
 23
0.0
 14
1.0
 24
1.0
 15
0.0
 25
0.0
 16
0.0
 26
0.0
 36
1.0
 17
0.0
 27
0.0
 37
0.0
 40
144.3729865139
 41
0.7070707071
 42
50.0
 43
0.0
 44
0.0
 50
0.0
 51
0.0
 71
0
 72
100
 73
1
 74
1
 75
0
 76
0
 77
0
 78
0
  0
ENDTAB
  0
TABLE
  2
LTYPE
  5
5
100
AcDbSymbolTable
 70
6
  0
LTYPE
  5
14
100
AcDbSymbolTableRecord
100
AcDbLinetypeTableRecord
  2
BYBLOCK
 70
0
  3

 72
65
 73
0
 40
0.0
  0
LTYPE
  5
15
100
AcDbSymbolTableRecord
100
AcDbLinetypeTableRecord
  2
BYLAYER
 70
0
  3

 72
65
 73
0
 40
0.0
  0
LTYPE
  5
16
100
AcDbSymbolTableRecord
100
AcDbLinetypeTableRecord
  2
CONTINUOUS
 70
64
  3
Solid line
 72
65
 73
0
 40
0.0
  0
LTYPE
  5
1F5
100
AcDbSymbolTableRecord
100
AcDbLinetypeTableRecord
  2
CENTER
 70
64
  3
____ _ ____ _ ____ _ ____ _ ____ _ ____ _ ____
 72
65
 73
4
 40
0.6
 49
0.375
 74
0
 49
-0.075
 74
0
 49
0.075
 74
0
 49
-0.075
 74
0
  0
LTYPE
  5
1F6
100
AcDbSymbolTableRecord
100
AcDbLinetypeTableRecord
  2
HIDDEN
 70
64
  3
- - - - - - - - - - - - - - - - - - - -
 72
65
 73
2
 40
0.2
 49
0.1
 74
0
 49
-0.1
 74
0
  0
LTYPE
  5
1F7
100
AcDbSymbolTableRecord
100
AcDbLinetypeTableRecord
  2
PHANTOM
 70
64
  3
_____ _ _ _____ _ _ _____ _ _ _____
 72
65
 73
6
 40
0.8
 49
0.45
 74
0
 49
-0.05
 74
0
 49
0.1
 74
0
 49
-0.05
 74
0
 49
0.1
 74
0
 49
-0.05
 74
0
  0
LTYPE
  5
1F8
100
AcDbSymbolTableRecord
100
AcDbLinetypeTableRecord
  2
DOT
 70
64
  3
. . . . . . . . . . . . . . . . . . . .
 72
65
 73
2
 40
0.2
 49
0.1
 74
0
 49
-0.1
 74
0
  0
LTYPE
  5
1F9
100
AcDbSymbolTableRecord
100
AcDbLinetypeTableRecord
  2
DASHED
 70
64
  3
- - - - - - - - - - - - - - - - - - - -
 72
65
 73
2
 40
0.2
 49
0.1
 74
0
 49
-0.1
 74
0
  0
ENDTAB
  0
TABLE
  2
LAYER
  5
2
100
AcDbSymbolTable
 70
36
  0
LAYER
  5
10
100
AcDbSymbolTableRecord
100
AcDbLayerTableRecord
  2
0
 70
0
 62
7
  6
CONTINUOUS
370
-3
390
F
  0
LAYER
  5
1FA
100
AcDbSymbolTableRecord
100
AcDbLayerTableRecord
  2
DEFAULT_1
 70
0
 62
7
  6
CENTER
370
-3
390
F
  0
LAYER
  5
1FB
100
AcDbSymbolTableRecord
100
AcDbLayerTableRecord
  2
DEFAULT_2
 70
0
 62
7
  6
HIDDEN
370
-3
390
F
  0
LAYER
  5
1FC
100
AcDbSymbolTableRecord
100
AcDbLayerTableRecord
  2
DEFAULT_3
 70
0
 62
7
  6
PHANTOM
370
-3
390
F
  0
LAYER
  5
1FD
100
AcDbSymbolTableRecord
100
AcDbLayerTableRecord
  2
00_COMPONENTS
 70
0
 62
7
  6
CONTINUOUS
370
-3
390
F
  0
LAYER
  5
1FE
100
AcDbSymbolTableRecord
100
AcDbLayerTableRecord
  2
01_1_DEFAULT_DATUMS
 70
0
 62
7
  6
CONTINUOUS
370
-3
390
F
  0
LAYER
  5
1FF
100
AcDbSymbolTableRecord
100
AcDbLayerTableRecord
  2
01_PLANES
 70
0
 62
7
  6
CONTINUOUS
370
-3
390
F
  0
LAYER
  5
200
100
AcDbSymbolTableRecord
100
AcDbLayerTableRecord
  2
02_COORD_SYS
 70
0
 62
7
  6
CONTINUOUS
370
-3
390
F
  0
LAYER
  5
201
100
AcDbSymbolTableRecord
100
AcDbLayerTableRecord
  2
03_AXES
 70
0
 62
7
  6
CONTINUOUS
370
-3
390
F
  0
LAYER
  5
202
100
AcDbSymbolTableRecord
100
AcDbLayerTableRecord
  2
04_POINTS
 70
0
 62
7
  6
CONTINUOUS
370
-3
390
F
  0
LAYER
  5
203
100
AcDbSymbolTableRecord
100
AcDbLayerTableRecord
  2
05_CURVES
 70
0
 62
7
  6
CONTINUOUS
370
-3
390
F
  0
LAYER
  5
204
100
AcDbSymbolTableRecord
100
AcDbLayerTableRecord
  2
06_SURFS
 70
0
 62
7
  6
CONTINUOUS
370
-3
390
F
  0
LAYER
  5
205
100
AcDbSymbolTableRecord
100
AcDbLayerTableRecord
  2
07_COSMETICS
 70
0
 62
7
  6
CONTINUOUS
370
-3
390
F
  0
LAYER
  5
206
100
AcDbSymbolTableRecord
100
AcDbLayerTableRecord
  2
10_NOTES
 70
0
 62
7
  6
CONTINUOUS
370
-3
390
F
  0
LAYER
  5
207
100
AcDbSymbolTableRecord
100
AcDbLayerTableRecord
  2
11_NOTES_PUB
 70
0
 62
7
  6
CONTINUOUS
370
-3
390
F
  0
LAYER
  5
208
100
AcDbSymbolTableRecord
100
AcDbLayerTableRecord
  2
13_REF_GTOL
 70
0
 62
7
  6
CONTINUOUS
370
-3
390
F
  0
LAYER
  5
209
100
AcDbSymbolTableRecord
100
AcDbLayerTableRecord
  2
16_MISC
 70
0
 62
7
  6
CONTINUOUS
370
-3
390
F
  0
LAYER
  5
20A
100
AcDbSymbolTableRecord
100
AcDbLayerTableRecord
  2
17_NO_PRINT
 70
0
 62
7
  6
CONTINUOUS
370
-3
390
F
  0
LAYER
  5
20B
100
AcDbSymbolTableRecord
100
AcDbLayerTableRecord
  2
18_DATUM_CAMS_JOINTS
 70
0
 62
7
  6
CONTINUOUS
370
-3
390
F
  0
LAYER
  5
20C
100
AcDbSymbolTableRecord
100
AcDbLayerTableRecord
  2
19_DATUM_FUNCTIONAL
 70
0
 62
7
  6
CONTINUOUS
370
-3
390
F
  0
LAYER
  5
20D
100
AcDbSymbolTableRecord
100
AcDbLayerTableRecord
  2
20_DATUM_KINEMATIC_SCHEME
 70
0
 62
7
  6
CONTINUOUS
370
-3
390
F
  0
ENDTAB
  0
TABLE
  2
STYLE
  5
3
100
AcDbSymbolTable
 70
1
  0
STYLE
  5
11
100
AcDbSymbolTableRecord
100
AcDbTextStyleTableRecord
  2
STANDARD
 70
0
 40
0.0
 41
1.0
 50
0.0
 71
0
 42
0.2
  3
ARIAL.TTF
  4

  0
STYLE
  5
20E
100
AcDbSymbolTableRecord
100
AcDbTextStyleTableRecord
  2
TEXTSTYLE_1
 70
0
 40
0.0
 41
0.8
 50
0.0
 71
0
 42
0.2
  3
gdt
  4

  0
ENDTAB
  0
TABLE
  2
VIEW
  5
6
100
AcDbSymbolTable
 70
0
  0
ENDTAB
  0
TABLE
  2
UCS
  5
7
100
AcDbSymbolTable
 70
0
  0
ENDTAB
  0
TABLE
  2
APPID
  5
9
100
AcDbSymbolTable
 70
1
  0
APPID
  5
20F
100
AcDbSymbolTableRecord
100
AcDbRegAppTableRecord
  2
ACAD
 70
0
  0
ENDTAB
  0
TABLE
  2
BLOCK_RECORD
  5
1
100
AcDbSymbolTable
 70
0
  0
BLOCK_RECORD
  5
210
100
AcDbSymbolTableRecord
100
AcDbBlockTableRecord
  2
*Model_Space
  0
BLOCK_RECORD
  5
211
100
AcDbSymbolTableRecord
100
AcDbBlockTableRecord
  2
*Paper_Space
  0
BLOCK_RECORD
  5
212
100
AcDbSymbolTableRecord
100
AcDbBlockTableRecord
  2
_FILLED
  0
ENDTAB
  0
TABLE
  2
DIMSTYLE
  5
A
100
AcDbSymbolTable
 70
1
100
AcDbDimStyleTable
 71
0
  0
DIMSTYLE
105
213
100
AcDbSymbolTableRecord
100
AcDbDimStyleTableRecord
  2
STANDARD
 70
0
  3

  4

 40
1.0
 41
1.2152608292
 42
1.0
 43
0.38
 44
1.0
 45
0.0
 46
0.0
 47
0.01
 48
0.01
140
1.7013651609
141
0.09
142
0.0
143
25.4
144
1.0
145
0.0
146
1.0
147
0.625
 71
1
 72
0
 73
0
 74
0
 75
0
 76
0
 77
1
 78
8
 79
2
170
0
171
1
172
0
173
0
174
0
175
0
176
0
177
0
178
0
270
2
179
2
271
2
272
2
273
2
274
2
275
0
280
0
281
0
282
0
283
1
284
8
285
0
286
0
287
3
288
0
340
11
278
46
341
212
342
212
343
212
344
212
  0
ENDTAB
  0
ENDSEC
  0
SECTION
  2
BLOCKS
  0
BLOCK
  5
20
100
AcDbEntity
  8
0
100
AcDbBlockBegin
  2
*Model_Space
 70
0
 10
0.0
 20
0.0
 30
0.0
  3
*Model_Space
  1

  0
ENDBLK
  5
21
100
AcDbEntity
  8
0
100
AcDbBlockEnd
  0
BLOCK
  5
1C
100
AcDbEntity
  8
0
100
AcDbBlockBegin
  2
*Paper_Space
 70
0
 10
0.0
 20
0.0
 30
0.0
  3
*Paper_Space
  1

  0
ENDBLK
  5
1D
100
AcDbEntity
  8
0
100
AcDbBlockEnd
  0
BLOCK
  5
214
100
AcDbEntity
  8
0
100
AcDbBlockBegin
  2
_FILLED
 70
64
 10
0.0
 20
0.0
  3
_FILLED
  1

  0
SOLID
  5
215
100
AcDbEntity
  8
0
  6
BYBLOCK
 62
0
100
AcDbTrace
 10
0.0
 20
0.0
 11
-1.0
 21
0.25
 12
-1.0
 22
-0.25
 13
-1.0
 23
-0.25
  0
ENDBLK
  5
216
100
AcDbEntity
  8
0
  6
BYBLOCK
 62
0
100
AcDbBlockEnd
  0
ENDSEC
  0
SECTION
  2
ENTITIES
  0
LINE
  5
217
100
AcDbEntity
  8
0
100
AcDbLine
 62
7
  6
BYLAYER
 10
16.8121828776
 20
120.7231549642
 11
38.7505369598
 21
133.3891939931
  0
LINE
  5
218
100
AcDbEntity
  8
0
100
AcDbLine
 62
7
  6
BYLAYER
 10
27.0741511982
 20
127.3828557125
 11
27.6819030916
 21
127.6310579169
  0
LINE
  5
219
100
AcDbEntity
  8
0
100
AcDbLine
 62
7
  6
BYLAYER
 10
70.8134177691
 20
13.2134364417
 11
57.4291718406
 21
11.1428815095
  0
LINE
  5
21A
100
AcDbEntity
  8
0
100
AcDbLine
 62
7
  6
BYLAYER
 10
64.3675065062
 20
17.3431915249
 11
60.0388782136
 21
16.6735798055
  0
LINE
  5
21B
100
AcDbEntity
  8
0
100
AcDbLine
 62
7
  6
BYLAYER
 10
60.0388782136
 20
22.3890967254
 11
61.3004137911
 21
22.5842483878
  0
LINE
  5
21C
100
AcDbEntity
  8
0
100
AcDbLine
 62
7
  6
BYLAYER
 10
57.4291718406
 20
11.1428815095
 11
47.6311720768
 21
16.7996313379
  0
LINE
  5
21D
100
AcDbEntity
  8
0
100
AcDbLine
 62
7
  6
BYLAYER
 10
55.7122337733
 20
14.1756053841
 11
42.2771159971
 21
21.9321987712
  0
LINE
  5
21E
100
AcDbEntity
  8
0
100
AcDbLine
 62
7
  6
BYLAYER
 10
42.2771159971
 20
24.5695015786
 11
42.2913426519
 21
24.5612880014
  0
LINE
  5
21F
100
AcDbEntity
  8
0
100
AcDbLine
 62
7
  6
BYLAYER
 10
36.6112409732
 20
109.2924220408
 11
46.0419981728
 21
114.7372397475
  0
LINE
  5
220
100
AcDbEntity
  8
0
100
AcDbLine
 62
7
  6
BYLAYER
 10
53.2373502112
 20
118.8914533865
 11
58.5495950554
 21
121.9584610697
  0
LINE
  5
221
100
AcDbEntity
  8
0
100
AcDbLine
 62
7
  6
BYLAYER
 10
58.6085148964
 20
121.0975054317
 11
54.0124304903
 21
118.4439707021
  0
LINE
  5
222
100
AcDbEntity
  8
0
100
AcDbLine
 62
7
  6
BYLAYER
 10
45.8229915783
 20
113.715824165
 11
36.6882959427
 21
108.4419366616
  0
LINE
  5
223
100
AcDbEntity
  8
0
100
AcDbLine
 62
7
  6
BYLAYER
 10
71.9755612768
 20
12.9507784247
 11
64.3675065062
 21
17.3431915249
  0
LINE
  5
224
100
AcDbEntity
  8
0
100
AcDbLine
 62
7
  6
BYLAYER
 10
63.1386651651
 20
19.6859786166
 11
64.9046245324
 21
18.666424566
  0
LINE
  5
225
100
AcDbEntity
  8
0
100
AcDbLine
 62
7
  6
BYLAYER
 10
59.7779937076
 20
22.2384758847
 11
58.0102114812
 21
23.2590823398
  0
LINE
  5
226
100
AcDbEntity
  8
0
100
AcDbLine
 62
7
  6
BYLAYER
 10
58.234571348
 20
24.3542733043
 11
61.3004137911
 21
22.5842483878
  0
LINE
  5
227
100
AcDbEntity
  8
0
100
AcDbLine
 62
7
  6
BYLAYER
 10
42.2913426519
 20
34.3593170069
 11
42.2771159971
 21
34.3675305841
  0
LINE
  5
228
100
AcDbEntity
  8
0
100
AcDbLine
 62
7
  6
BYLAYER
 10
61.3691578135
 20
26.4230979706
 11
55.7121466436
 21
29.6891010055
  0
LINE
  5
229
100
AcDbEntity
  8
0
100
AcDbLine
 62
7
  6
BYLAYER
 10
42.2770291508
 20
37.445694229
 11
36.6202422048
 21
40.7115678111
  0
LINE
  5
22A
100
AcDbEntity
  8
0
100
AcDbLine
 62
7
  6
BYLAYER
 10
14.6998446536
 20
57.4495410189
 11
36.6202422048
 21
44.7940798967
  0
LINE
  5
22B
100
AcDbEntity
  8
0
100
AcDbLine
 62
7
  6
BYLAYER
 10
48.5569916571
 20
118.3276724907
 11
47.3615762688
 21
115.7519042371
  0
LINE
  5
22C
100
AcDbEntity
  8
0
100
AcDbLine
 62
7
  6
BYLAYER
 10
36.6202422048
 20
40.7115678111
 11
36.6202422048
 21
44.7940798967
  0
LINE
  5
22D
100
AcDbEntity
  8
0
100
AcDbLine
 62
7
  6
BYLAYER
 10
55.0889914996
 20
114.5565059384
 11
56.2844068878
 21
117.1322741919
  0
LINE
  5
22E
100
AcDbEntity
  8
0
100
AcDbLine
 62
7
  6
BYLAYER
 10
56.2844068878
 20
114.6827669406
 11
55.0889914996
 21
112.106998687
  0
LINE
  5
22F
100
AcDbEntity
  8
0
100
AcDbLine
 62
7
  6
BYLAYER
 10
64.9046245324
 20
48.8770307834
 11
38.7415870938
 21
63.9819257731
  0
LINE
  5
230
100
AcDbEntity
  8
0
100
AcDbLine
 62
7
  6
BYLAYER
 10
38.7415870938
 20
63.9819257731
 11
35.3420784688
 21
106.7696926643
  0
LINE
  5
231
100
AcDbEntity
  8
0
100
AcDbLine
 62
7
  6
BYLAYER
 10
36.6882959427
 20
108.4419366616
 11
40.1557947682
 21
64.7984140808
  0
LINE
  5
232
100
AcDbEntity
  8
0
100
AcDbLine
 62
7
  6
BYLAYER
 10
38.1735363854
 20
38.2620771629
 11
38.1735363854
 21
39.8147932856
  0
LINE
  5
233
100
AcDbEntity
  8
0
100
AcDbLine
 62
7
  6
BYLAYER
 10
42.2771159971
 20
21.9321987712
 11
42.2771159971
 21
24.5695015786
  0
LINE
  5
234
100
AcDbEntity
  8
0
100
AcDbLine
 62
7
  6
BYLAYER
 10
42.2771159971
 20
34.3675305841
 11
42.2771159971
 21
37.4457446967
  0
LINE
  5
235
100
AcDbEntity
  8
0
100
AcDbLine
 62
7
  6
BYLAYER
 10
42.2913426519
 20
24.5612880014
 11
42.2913426519
 21
34.3593170069
  0
LINE
  5
236
100
AcDbEntity
  8
0
100
AcDbLine
 62
7
  6
BYLAYER
 10
87.5319414353
 20
104.3989351057
 11
65.6117224817
 21
91.7433663357
  0
LINE
  5
237
100
AcDbEntity
  8
0
100
AcDbLine
 62
7
  6
BYLAYER
 10
40.1557947682
 20
64.7984140808
 11
65.6117224817
 21
50.1017598457
  0
LINE
  5
238
100
AcDbEntity
  8
0
100
AcDbLine
 62
7
  6
BYLAYER
 10
45.8229915783
 20
112.3595771289
 11
45.8229915783
 21
113.9925819631
  0
LINE
  5
239
100
AcDbEntity
  8
0
100
AcDbLine
 62
7
  6
BYLAYER
 10
47.3615762688
 20
115.7519042371
 11
47.3615762688
 21
113.3023969857
  0
LINE
  5
23A
100
AcDbEntity
  8
0
100
AcDbLine
 62
7
  6
BYLAYER
 10
47.6311720768
 20
18.8411029823
 11
47.6311720768
 21
16.7996313379
  0
LINE
  5
23B
100
AcDbEntity
  8
0
100
AcDbLine
 62
7
  6
BYLAYER
 10
50.6275761901
 20
113.866320961
 11
50.6275761901
 21
111.4168137096
  0
LINE
  5
23C
100
AcDbEntity
  8
0
100
AcDbLine
 62
7
  6
BYLAYER
 10
67.648954236
 20
107.3051721186
 11
66.4535388478
 21
104.7294038651
  0
LINE
  5
23D
100
AcDbEntity
  8
0
100
AcDbLine
 62
7
  6
BYLAYER
 10
55.0889914996
 20
114.5565059384
 11
55.0889914996
 21
112.106998687
  0
LINE
  5
23E
100
AcDbEntity
  8
0
100
AcDbLine
 62
7
  6
BYLAYER
 10
55.7121466436
 20
14.1755550801
 11
55.7121466436
 21
29.6891010055
  0
LINE
  5
23F
100
AcDbEntity
  8
0
100
AcDbLine
 62
7
  6
BYLAYER
 10
56.2844068878
 20
117.1322741919
 11
56.2844068878
 21
114.6827669406
  0
LINE
  5
240
100
AcDbEntity
  8
0
100
AcDbLine
 62
7
  6
BYLAYER
 10
38.7415870938
 20
63.9819257731
 11
40.1557947682
 21
64.7984140808
  0
LINE
  5
241
100
AcDbEntity
  8
0
100
AcDbLine
 62
7
  6
BYLAYER
 10
57.4291718406
 20
15.1668741224
 11
57.4291718406
 21
11.1428815095
  0
LINE
  5
242
100
AcDbEntity
  8
0
100
AcDbLine
 62
7
  6
BYLAYER
 10
57.6544093132
 20
27.0150443759
 11
57.6544093132
 21
28.5677604985
  0
LINE
  5
243
100
AcDbEntity
  8
0
100
AcDbLine
 62
7
  6
BYLAYER
 10
57.8229915783
 20
112.3595771289
 11
57.8229915783
 21
113.9925819631
  0
LINE
  5
244
100
AcDbEntity
  8
0
100
AcDbLine
 62
7
  6
BYLAYER
 10
60.0388782136
 20
16.6735798055
 11
60.0388782136
 21
22.3890967254
  0
LINE
  5
245
100
AcDbEntity
  8
0
100
AcDbLine
 62
7
  6
BYLAYER
 10
61.3691578135
 20
23.2201083864
 11
61.3691578135
 21
26.4230979706
  0
LINE
  5
246
100
AcDbEntity
  8
0
100
AcDbLine
 62
7
  6
BYLAYER
 10
74.1809540786
 20
103.5340055663
 11
75.3763694668
 21
106.1097738199
  0
LINE
  5
247
100
AcDbEntity
  8
0
100
AcDbLine
 62
7
  6
BYLAYER
 10
75.3763694668
 20
103.6602665685
 11
74.1809540786
 21
101.084498315
  0
LINE
  5
248
100
AcDbEntity
  8
0
100
AcDbLine
 62
7
  6
BYLAYER
 10
60.0907127713
 20
121.0582380498
 11
60.1586994897
 21
120.2025261866
  0
LINE
  5
249
100
AcDbEntity
  8
0
100
AcDbLine
 62
7
  6
BYLAYER
 10
64.3675065062
 20
17.3431915249
 11
64.3675065062
 21
18.9765227877
  0
LINE
  5
24A
100
AcDbEntity
  8
0
100
AcDbLine
 62
7
  6
BYLAYER
 10
64.9046245324
 20
18.666424566
 11
64.9046245324
 21
48.8770307834
  0
LINE
  5
24B
100
AcDbEntity
  8
0
100
AcDbLine
 62
7
  6
BYLAYER
 10
64.9149541573
 20
101.3370767568
 11
64.9149541573
 21
102.9700815911
  0
LINE
  5
24C
100
AcDbEntity
  8
0
100
AcDbLine
 62
7
  6
BYLAYER
 10
65.6117224817
 20
91.7433663357
 11
65.6117224817
 21
50.1017598457
  0
LINE
  5
24D
100
AcDbEntity
  8
0
100
AcDbLine
 62
7
  6
BYLAYER
 10
66.4535388478
 20
104.7294038651
 11
66.4535388478
 21
102.2798966137
  0
LINE
  5
24E
100
AcDbEntity
  8
0
100
AcDbLine
 62
7
  6
BYLAYER
 10
89.6532588349
 20
63.1655761689
 11
87.5319414353
 21
64.3902916339
  0
LINE
  5
24F
100
AcDbEntity
  8
0
100
AcDbLine
 62
7
  6
BYLAYER
 10
69.7195387691
 20
102.8438205889
 11
69.7195387691
 21
100.3943133375
  0
LINE
  5
250
100
AcDbEntity
  8
0
100
AcDbLine
 62
7
  6
BYLAYER
 10
70.8134177691
 20
13.6217271128
 11
70.8134177691
 21
13.2134364417
  0
LINE
  5
251
100
AcDbEntity
  8
0
100
AcDbLine
 62
7
  6
BYLAYER
 10
71.9755612768
 20
12.9507784247
 11
71.9755612768
 21
22.7488074303
  0
LINE
  5
252
100
AcDbEntity
  8
0
100
AcDbLine
 62
7
  6
BYLAYER
 10
74.1809540786
 20
103.5340055663
 11
74.1809540786
 21
101.084498315
  0
LINE
  5
253
100
AcDbEntity
  8
0
100
AcDbLine
 62
7
  6
BYLAYER
 10
75.3763694668
 20
106.1097738199
 11
75.3763694668
 21
103.6602665685
  0
LINE
  5
254
100
AcDbEntity
  8
0
100
AcDbLine
 62
7
  6
BYLAYER
 10
15.2864125641
 20
118.3485748238
 11
35.3420784688
 21
106.7696926643
  0
LINE
  5
255
100
AcDbEntity
  8
0
100
AcDbLine
 62
7
  6
BYLAYER
 10
36.6882959427
 20
108.4419366616
 11
65.6117224817
 21
91.7433663357
  0
LINE
  5
256
100
AcDbEntity
  8
0
100
AcDbLine
 62
7
  6
BYLAYER
 10
36.6112409732
 20
109.2924220408
 11
16.8121828776
 21
120.7231549642
  0
LINE
  5
257
100
AcDbEntity
  8
0
100
AcDbLine
 62
7
  6
BYLAYER
 10
76.9149541573
 20
101.3370767568
 11
76.9149541573
 21
102.9700815911
  0
LINE
  5
258
100
AcDbEntity
  8
0
100
AcDbLine
 62
7
  6
BYLAYER
 10
65.6117224817
 20
50.1017598457
 11
87.5319414353
 21
62.7573286157
  0
LINE
  5
259
100
AcDbEntity
  8
0
100
AcDbLine
 62
7
  6
BYLAYER
 10
64.9046245324
 20
48.8770307834
 11
89.6532588349
 21
63.1655761689
  0
LINE
  5
25A
100
AcDbEntity
  8
0
100
AcDbLine
 62
7
  6
BYLAYER
 10
74.1809540786
 20
101.084498315
 11
69.7195387691
 21
100.3943133375
  0
LINE
  5
25B
100
AcDbEntity
  8
0
100
AcDbLine
 62
7
  6
BYLAYER
 10
69.7195387691
 20
102.8438205889
 11
74.1809540786
 21
103.5340055663
  0
LINE
  5
25C
100
AcDbEntity
  8
0
100
AcDbLine
 62
7
  6
BYLAYER
 10
82.5823220905
 20
19.0745580817
 11
82.5823220905
 21
28.8725870872
  0
LINE
  5
25D
100
AcDbEntity
  8
0
100
AcDbLine
 62
7
  6
BYLAYER
 10
72.1103695455
 20
107.995357096
 11
67.648954236
 21
107.3051721186
  0
LINE
  5
25E
100
AcDbEntity
  8
0
100
AcDbLine
 62
7
  6
BYLAYER
 10
47.3615762688
 20
113.3023969857
 11
50.6275761901
 21
111.4168137096
  0
LINE
  5
25F
100
AcDbEntity
  8
0
100
AcDbLine
 62
7
  6
BYLAYER
 10
66.4535388478
 20
102.2798966137
 11
69.7195387691
 21
100.3943133375
  0
LINE
  5
260
100
AcDbEntity
  8
0
100
AcDbLine
 62
7
  6
BYLAYER
 10
87.5319414353
 20
62.7573286157
 11
87.5319414353
 21
104.3989351057
  0
LINE
  5
261
100
AcDbEntity
  8
0
100
AcDbLine
 62
7
  6
BYLAYER
 10
89.6532588349
 20
32.9549699515
 11
89.6532588349
 21
63.1655761689
  0
LINE
  5
262
100
AcDbEntity
  8
0
100
AcDbLine
 62
7
  6
BYLAYER
 10
42.2913426519
 20
24.577768912
 11
42.2771159971
 21
24.5695015786
  0
LINE
  5
263
100
AcDbEntity
  8
0
100
AcDbLine
 62
7
  6
BYLAYER
 10
55.0889914996
 20
112.106998687
 11
50.6275761901
 21
111.4168137096
  0
LINE
  5
264
100
AcDbEntity
  8
0
100
AcDbLine
 62
7
  6
BYLAYER
 10
47.3615762688
 20
115.7519042371
 11
50.6275761901
 21
113.866320961
  0
LINE
  5
265
100
AcDbEntity
  8
0
100
AcDbLine
 62
7
  6
BYLAYER
 10
66.4535388478
 20
104.7294038651
 11
69.7195387691
 21
102.8438205889
  0
LINE
  5
266
100
AcDbEntity
  8
0
100
AcDbLine
 62
7
  6
BYLAYER
 10
70.9628629634
 20
13.5354468416
 11
70.8134177691
 21
13.2134364417
  0
LINE
  5
267
100
AcDbEntity
  8
0
100
AcDbLine
 62
7
  6
BYLAYER
 10
50.6275761901
 20
113.866320961
 11
55.0889914996
 21
114.5565059384
  0
LINE
  5
268
100
AcDbEntity
  8
0
100
AcDbLine
 62
7
  6
BYLAYER
 10
75.3763694668
 20
106.1097738199
 11
72.1103695455
 21
107.995357096
  0
LINE
  5
269
100
AcDbEntity
  8
0
100
AcDbLine
 62
7
  6
BYLAYER
 10
56.2844068878
 20
117.1322741919
 11
53.0184069665
 21
119.0178574681
  0
LINE
  5
26A
100
AcDbEntity
  8
0
100
AcDbLine
 62
7
  6
BYLAYER
 10
59.7779937076
 20
22.2384758847
 11
60.0388782136
 21
22.3890967254
  0
LINE
  5
26B
100
AcDbEntity
  8
0
100
AcDbLine
 62
7
  6
BYLAYER
 10
53.0184069665
 20
119.0178574681
 11
48.5569916571
 21
118.3276724907
  0
LINE
  5
26C
100
AcDbEntity
  8
0
100
AcDbLine
 62
7
  6
BYLAYER
 10
87.5319414353
 20
104.3989351057
 11
58.6085148964
 21
121.0975054317
  0
LINE
  5
26D
100
AcDbEntity
  8
0
100
AcDbLine
 62
7
  6
BYLAYER
 10
38.7505369598
 20
133.3891939931
 11
58.5495950554
 21
121.9584610697
  0
LINE
  5
26E
100
AcDbEntity
  8
0
100
AcDbLine
 62
7
  6
BYLAYER
 10
59.5803342351
 20
122.0293235665
 11
39.7055547018
 21
133.5037732934
  0
LINE
  5
26F
100
AcDbEntity
  8
0
100
AcDbLine
 62
7
  6
BYLAYER
 10
60.0388782136
 20
16.6735798055
 11
55.7122337733
 21
14.1756053841
  0
LINE
  5
270
100
AcDbEntity
  8
0
100
AcDbLine
 62
7
  6
BYLAYER
 10
89.6532588349
 20
32.9549699515
 11
82.5823220905
 21
28.8725870872
  0
LINE
  5
271
100
AcDbEntity
  8
0
100
AcDbLine
 62
7
  6
BYLAYER
 10
71.9755612768
 20
22.7488074303
 11
64.9046245324
 21
18.666424566
  0
LINE
  5
272
100
AcDbEntity
  8
0
100
AcDbLine
 62
7
  6
BYLAYER
 10
82.5823220905
 20
19.0745580817
 11
71.9755612768
 21
12.9507784247
  0
ARC
  5
273
100
AcDbEntity
  8
0
100
AcDbCircle
 62
7
  6
BYLAYER
 10
69.5329088484
 20
100.4640033851
 40
5.7219151108
100
AcDbArc
 50
118.8359955697
 51
119.9960166543
  0
ARC
  5
274
100
AcDbEntity
  8
0
100
AcDbCircle
 62
7
  6
BYLAYER
 10
50.4409462694
 20
111.4865037572
 40
5.7219151106
100
AcDbArc
 50
118.8359955697
 51
119.9960166543
  0
ARC
  5
275
100
AcDbEntity
  8
0
100
AcDbCircle
 62
7
  6
BYLAYER
 10
28.49720952
 20
124.1117639426
 40
3.6125
100
AcDbArc
 50
103.0434779864
 51
155.7818015916
  0
SPLINE
  5
276
100
AcDbEntity
  8
0
100
AcDbSpline
 62
7
  6
BYLAYER
 70
0
 71
3
 72
9
 73
5
 74
0
 42
0.0000001
 43
0.0000001
 44
0.0000000001
 40
0.0
 40
0.0
 40
0.0
 40
0.0
 40
0.2472301412
 40
1.0
 40
1.0
 40
1.0
 40
1.0
 10
14.0141991785
 20
83.7757255295
 30
0.0
 10
14.0141991785
 20
81.6053128534
 30
0.0
 10
14.0724366567
 20
72.8264697267
 30
0.0
 10
14.3608567838
 20
64.0493444418
 30
0.0
 10
14.6998446536
 20
57.4495410189
 30
0.0
  0
SPLINE
  5
277
100
AcDbEntity
  8
0
100
AcDbSpline
 62
7
  6
BYLAYER
 70
0
 71
3
 72
9
 73
5
 74
0
 42
0.0000001
 43
0.0000001
 44
0.0000000001
 40
0.0
 40
0.0
 40
0.0
 40
0.0
 40
0.245959569
 40
1.0
 40
1.0
 40
1.0
 40
1.0
 10
15.2864125641
 20
118.3485748238
 30
0.0
 10
15.0733207459
 20
115.519783787
 30
0.0
 10
14.3204888746
 20
104.0103751304
 30
0.0
 10
14.0141991785
 20
92.472546057
 30
0.0
 10
14.0141991785
 20
83.7757255295
 30
0.0
  0
SPLINE
  5
278
100
AcDbEntity
  8
0
100
AcDbSpline
 62
7
  6
BYLAYER
 70
0
 71
3
 72
12
 73
8
 74
0
 42
0.0000001
 43
0.0000001
 44
0.0000000001
 40
0.0
 40
0.0
 40
0.0
 40
0.0
 40
0.1126388159
 40
0.233074277
 40
0.4891123956
 40
0.7510407942
 40
1.0
 40
1.0
 40
1.0
 40
1.0
 10
61.3691578135
 20
23.2201083864
 30
0.0
 10
61.3714292819
 20
23.0678596735
 30
0.0
 10
61.3992364537
 20
22.7529133855
 30
0.0
 10
61.5363252599
 20
22.1049162518
 30
0.0
 10
61.8524695076
 20
21.2947925584
 30
0.0
 10
62.4048801397
 20
20.4113951249
 30
0.0
 10
62.8808169383
 20
19.9022568424
 30
0.0
 10
63.1386651651
 20
19.6859786166
 30
0.0
  0
SPLINE
  5
279
100
AcDbEntity
  8
0
100
AcDbSpline
 62
7
  6
BYLAYER
 70
0
 71
3
 72
11
 73
7
 74
0
 42
0.0000001
 43
0.0000001
 44
0.0000000001
 40
0.0
 40
0.0
 40
0.0
 40
0.0
 40
0.2896413964
 40
0.5491107671
 40
0.7822355978
 40
1.0
 40
1.0
 40
1.0
 40
1.0
 10
63.207561192
 20
33.526743468
 30
0.0
 10
63.207561192
 20
33.3950347067
 30
0.0
 10
63.1875414116
 20
33.1444934674
 30
0.0
 10
63.0861378375
 20
32.800257857
 30
0.0
 10
62.9153238945
 20
32.520861706
 30
0.0
 10
62.7547843841
 20
32.3860865271
 30
0.0
 10
62.6690467646
 20
32.3365402486
 30
0.0
  0
SPLINE
  5
27A
100
AcDbEntity
  8
0
100
AcDbSpline
 62
7
  6
BYLAYER
 70
0
 71
3
 72
11
 73
7
 74
0
 42
0.0000001
 43
0.0000001
 44
0.0000000001
 40
0.0
 40
0.0
 40
0.0
 40
0.0
 40
0.2896413964
 40
0.5491107671
 40
0.7822355978
 40
1.0
 40
1.0
 40
1.0
 40
1.0
 10
37.0445013616
 20
48.6316513853
 30
0.0
 10
37.0445013616
 20
48.499942624
 30
0.0
 10
37.0244815812
 20
48.2494013846
 30
0.0
 10
36.923078007
 20
47.9051657742
 30
0.0
 10
36.7522640641
 20
47.6257696232
 30
0.0
 10
36.5917245537
 20
47.4909944443
 30
0.0
 10
36.5059869342
 20
47.4414481658
 30
0.0
  0
SPLINE
  5
27B
100
AcDbEntity
  8
0
100
AcDbSpline
 62
7
  6
BYLAYER
 70
0
 71
3
 72
10
 73
6
 74
0
 42
0.0000001
 43
0.0000001
 44
0.0000000001
 40
0.0
 40
0.0
 40
0.0
 40
0.0
 40
0.524167667
 40
0.7655516312
 40
1.0
 40
1.0
 40
1.0
 40
1.0
 10
27.6819047545
 20
127.6310653029
 30
0.0
 10
27.8379005199
 20
127.6673024714
 30
0.0
 10
28.0770251446
 20
127.6890696476
 30
0.0
 10
28.3777921335
 20
127.6263554098
 30
0.0
 10
28.5120914948
 20
127.5672552603
 30
0.0
 10
28.5741263777
 20
127.5314404574
 30
0.0
  0
SPLINE
  5
27C
100
AcDbEntity
  8
0
100
AcDbSpline
 62
7
  6
BYLAYER
 70
0
 71
3
 72
12
 73
8
 74
0
 42
0.0000001
 43
0.0000001
 44
0.0000000001
 40
0.0
 40
0.0
 40
0.0
 40
0.0
 40
0.1104792384
 40
0.2226555698
 40
0.4576108235
 40
0.7150788417
 40
1.0
 40
1.0
 40
1.0
 40
1.0
 10
76.9149129632
 20
102.9700815908
 30
0.0
 10
76.9149121806
 20
103.0722580877
 30
0.0
 10
76.8990331762
 20
103.2785385998
 30
0.0
 10
76.8028346518
 20
103.692079672
 30
0.0
 10
76.5564485729
 20
104.202548759
 30
0.0
 10
76.0908261483
 20
104.7575563181
 30
0.0
 10
75.6958858051
 20
105.0720198167
 30
0.0
 10
75.4775943089
 20
105.2196195564
 30
0.0
  0
SPLINE
  5
27D
100
AcDbEntity
  8
0
100
AcDbSpline
 62
7
  6
BYLAYER
 70
0
 71
3
 72
17
 73
13
 74
0
 42
0.0000001
 43
0.0000001
 44
0.0000000001
 40
0.0
 40
0.0
 40
0.0
 40
0.0
 40
0.042857965
 40
0.0874854797
 40
0.1353180708
 40
0.1872814984
 40
0.3045423159
 40
0.4382097446
 40
0.5825520305
 40
0.7297107839
 40
0.8713099826
 40
1.0
 40
1.0
 40
1.0
 40
1.0
 10
60.0691050487
 20
36.839798611
 30
0.0
 10
60.1331866505
 20
36.8768302537
 30
0.0
 10
60.2744928739
 20
36.9355306232
 30
0.0
 10
60.5077148866
 20
36.9697370532
 30
0.0
 10
60.7581849523
 20
36.9512801336
 30
0.0
 10
61.1221200038
 20
36.8545079137
 30
0.0
 10
61.587355459
 20
36.6001161254
 30
0.0
 10
62.1013640027
 20
36.1449131317
 30
0.0
 10
62.5557268567
 20
35.5633503895
 30
0.0
 10
62.9133289252
 20
34.9024060536
 30
0.0
 10
63.1453831924
 20
34.2162790342
 30
0.0
 10
63.207561192
 20
33.7489803689
 30
0.0
 10
63.207561192
 20
33.526743468
 30
0.0
  0
SPLINE
  5
27E
100
AcDbEntity
  8
0
100
AcDbSpline
 62
7
  6
BYLAYER
 70
0
 71
3
 72
17
 73
13
 74
0
 42
0.0000001
 43
0.0000001
 44
0.0000000001
 40
0.0
 40
0.0
 40
0.0
 40
0.0
 40
0.042857965
 40
0.0874854797
 40
0.1353180708
 40
0.1872814984
 40
0.3045423159
 40
0.4382097446
 40
0.5825520305
 40
0.7297107839
 40
0.8713099826
 40
1.0
 40
1.0
 40
1.0
 40
1.0
 10
33.9060452183
 20
51.9447065282
 30
0.0
 10
33.9701268201
 20
51.9817381709
 30
0.0
 10
34.1114330435
 20
52.0404385405
 30
0.0
 10
34.3446550562
 20
52.0746449705
 30
0.0
 10
34.5951251219
 20
52.0561880509
 30
0.0
 10
34.9590601734
 20
51.959415831
 30
0.0
 10
35.4242956286
 20
51.7050240427
 30
0.0
 10
35.9383041722
 20
51.249821049
 30
0.0
 10
36.3926670262
 20
50.6682583067
 30
0.0
 10
36.7502690948
 20
50.0073139709
 30
0.0
 10
36.982323362
 20
49.3211869514
 30
0.0
 10
37.0445013616
 20
48.8538882861
 30
0.0
 10
37.0445013616
 20
48.6316513853
 30
0.0
  0
SPLINE
  5
27F
100
AcDbEntity
  8
0
100
AcDbSpline
 62
7
  6
BYLAYER
 70
0
 71
3
 72
16
 73
12
 74
0
 42
0.0000001
 43
0.0000001
 44
0.0000000001
 40
0.0
 40
0.0
 40
0.0
 40
0.0
 40
0.1534336495
 40
0.3045069972
 40
0.4490287503
 40
0.5834048063
 40
0.7051532266
 40
0.8134997854
 40
0.910109283
 40
0.9555252256
 40
1.0
 40
1.0
 40
1.0
 40
1.0
 10
42.2877440965
 20
36.1073196147
 30
0.0
 10
42.0279967794
 20
36.0926675802
 30
0.0
 10
41.5102178933
 20
36.0947218585
 30
0.0
 10
40.7528831837
 20
36.1890268874
 30
0.0
 10
40.0445379892
 20
36.370623577
 30
0.0
 10
39.4146856839
 20
36.6321711735
 30
0.0
 10
38.8889478486
 20
36.9639081893
 30
0.0
 10
38.4888160266
 20
37.3540925149
 30
0.0
 10
38.2719545426
 20
37.7276653331
 30
0.0
 10
38.1875740184
 20
38.0339028095
 30
0.0
 10
38.1735433235
 20
38.1866662311
 30
0.0
 10
38.1735536273
 20
38.2620771201
 30
0.0
  0
SPLINE
  5
280
100
AcDbEntity
  8
0
100
AcDbSpline
 62
7
  6
BYLAYER
 70
0
 71
3
 72
11
 73
7
 74
0
 42
0.0000001
 43
0.0000001
 44
0.0000000001
 40
0.0
 40
0.0
 40
0.0
 40
0.0
 40
0.2177825102
 40
0.4509091639
 40
0.7102957096
 40
1.0
 40
1.0
 40
1.0
 40
1.0
 10
58.5280211536
 20
22.1146669768
 30
0.0
 10
58.4455545503
 20
22.1622780248
 30
0.0
 10
58.2912627116
 20
22.2919896581
 30
0.0
 10
58.1270009808
 20
22.560564521
 30
0.0
 10
58.0294392282
 20
22.8915495694
 30
0.0
 10
58.0102341145
 20
23.1324506101
 30
0.0
 10
58.0102341145
 20
23.2591215429
 30
0.0
  0
SPLINE
  5
281
100
AcDbEntity
  8
0
100
AcDbSpline
 62
7
  6
BYLAYER
 70
0
 71
3
 72
15
 73
11
 74
0
 42
0.0000001
 43
0.0000001
 44
0.0000000001
 40
0.0
 40
0.0
 40
0.0
 40
0.0
 40
0.1553331429
 40
0.3065783093
 40
0.4501789382
 40
0.5832288748
 40
0.7038915891
 40
0.8118969992
 40
0.9091276187
 40
1.0
 40
1.0
 40
1.0
 40
1.0
 10
61.3682851747
 20
24.8501474162
 30
0.0
 10
61.1256698519
 20
24.8514911945
 30
0.0
 10
60.6465136877
 20
24.8808652347
 30
0.0
 10
59.9526662772
 20
25.0041577308
 30
0.0
 10
59.3122494226
 20
25.201967831
 30
0.0
 10
58.7486454695
 20
25.4673615516
 30
0.0
 10
58.2820079275
 20
25.7914886552
 30
0.0
 10
57.9294184896
 20
26.164997086
 30
0.0
 10
57.7064279788
 20
26.5773305
 30
0.0
 10
57.6544527822
 20
26.8731083924
 30
0.0
 10
57.6544273966
 20
27.0150444244
 30
0.0
  0
SPLINE
  5
282
100
AcDbEntity
  8
0
100
AcDbSpline
 62
7
  6
BYLAYER
 70
0
 71
3
 72
11
 73
7
 74
0
 42
0.0000001
 43
0.0000001
 44
0.0000000001
 40
0.0
 40
0.0
 40
0.0
 40
0.0
 40
0.2087297299
 40
0.438911412
 40
0.7016809296
 40
1.0
 40
1.0
 40
1.0
 40
1.0
 10
39.7055564822
 20
133.5037722645
 30
0.0
 10
39.6451360184
 20
133.5386547671
 30
0.0
 10
39.5028939583
 20
133.5874928527
 30
0.0
 10
39.2652153819
 20
133.587116493
 30
0.0
 10
39.0072238546
 20
133.5200574182
 30
0.0
 10
38.8371423837
 20
133.438609799
 30
0.0
 10
38.7505369206
 20
133.3891940157
 30
0.0
  0
SPLINE
  5
283
100
AcDbEntity
  8
0
100
AcDbSpline
 62
7
  6
BYLAYER
 70
0
 71
3
 72
12
 73
8
 74
0
 42
0.0000001
 43
0.0000001
 44
0.0000000001
 40
0.0
 40
0.0
 40
0.0
 40
0.0
 40
0.1104792384
 40
0.2226555698
 40
0.4576108235
 40
0.7150788417
 40
1.0
 40
1.0
 40
1.0
 40
1.0
 10
57.8229503842
 20
113.9925819628
 30
0.0
 10
57.8229496017
 20
114.0947584597
 30
0.0
 10
57.8070705972
 20
114.3010389719
 30
0.0
 10
57.7108720729
 20
114.714580044
 30
0.0
 10
57.4644859939
 20
115.225049131
 30
0.0
 10
56.9988635694
 20
115.7800566902
 30
0.0
 10
56.6039232262
 20
116.0945201887
 30
0.0
 10
56.3856317299
 20
116.2421199284
 30
0.0
  0
SPLINE
  5
284
100
AcDbEntity
  8
0
100
AcDbSpline
 62
7
  6
BYLAYER
 70
0
 71
3
 72
9
 73
5
 74
0
 42
0.0000001
 43
0.0000001
 44
0.0000000001
 40
0.0
 40
0.0
 40
0.0
 40
0.0
 40
0.2569902561
 40
1.0
 40
1.0
 40
1.0
 40
1.0
 10
47.5803332275
 20
116.4420264903
 30
0.0
 10
47.5296231481
 20
116.412749187
 30
0.0
 10
47.3341064227
 20
116.2957473083
 30
0.0
 10
47.1459848179
 20
116.1662176185
 30
0.0
 10
47.0121411418
 20
116.0625535655
 30
0.0
  0
SPLINE
  5
285
100
AcDbEntity
  8
0
100
AcDbSpline
 62
7
  6
BYLAYER
 70
0
 71
3
 72
11
 73
7
 74
0
 42
0.0000001
 43
0.0000001
 44
0.0000000001
 40
0.0
 40
0.0
 40
0.0
 40
0.0
 40
0.2809758982
 40
0.5372487824
 40
0.7740897736
 40
1.0
 40
1.0
 40
1.0
 40
1.0
 10
47.0121411418
 20
116.0625535655
 30
0.0
 10
46.8293991341
 20
115.9210169779
 30
0.0
 10
46.4996850109
 20
115.6227663101
 30
0.0
 10
46.1156575152
 20
115.1089034608
 30
0.0
 10
45.8774951334
 20
114.5609734891
 30
0.0
 10
45.8230313492
 20
114.178425825
 30
0.0
 10
45.8230327725
 20
113.9925819634
 30
0.0
  0
SPLINE
  5
286
100
AcDbEntity
  8
0
100
AcDbSpline
 62
7
  6
BYLAYER
 70
0
 71
3
 72
13
 73
9
 74
0
 42
0.0000001
 43
0.0000001
 44
0.0000000001
 40
0.0
 40
0.0
 40
0.0
 40
0.0
 40
0.1156420085
 40
0.2407562532
 40
0.5059749858
 40
0.7678464121
 40
0.8891215194
 40
1.0
 40
1.0
 40
1.0
 40
1.0
 10
16.8121828384
 20
120.7231549868
 30
0.0
 10
16.7152752778
 20
120.6665511813
 30
0.0
 10
16.5227686004
 20
120.5325217931
 30
0.0
 10
16.1574806541
 20
120.2029768768
 30
0.0
 10
15.7614776909
 20
119.7030828579
 30
0.0
 10
15.4721118708
 20
119.1385629988
 30
0.0
 10
15.3311455268
 20
118.6792340974
 30
0.0
 10
15.2944954982
 20
118.455875667
 30
0.0
 10
15.2864125641
 20
118.3485748238
 30
0.0
  0
SPLINE
  5
287
100
AcDbEntity
  8
0
100
AcDbSpline
 62
7
  6
BYLAYER
 70
0
 71
3
 72
9
 73
5
 74
0
 42
0.0000001
 43
0.0000001
 44
0.0000000001
 40
0.0
 40
0.0
 40
0.0
 40
0.0
 40
0.2569902561
 40
1.0
 40
1.0
 40
1.0
 40
1.0
 10
66.6722958064
 20
105.4195261182
 30
0.0
 10
66.6215857271
 20
105.390248815
 30
0.0
 10
66.4260690017
 20
105.2732469362
 30
0.0
 10
66.2379473969
 20
105.1437172465
 30
0.0
 10
66.1041037208
 20
105.0400531934
 30
0.0
  0
SPLINE
  5
288
100
AcDbEntity
  8
0
100
AcDbSpline
 62
7
  6
BYLAYER
 70
0
 71
3
 72
11
 73
7
 74
0
 42
0.0000001
 43
0.0000001
 44
0.0000000001
 40
0.0
 40
0.0
 40
0.0
 40
0.0
 40
0.2809758982
 40
0.5372487824
 40
0.7740897736
 40
1.0
 40
1.0
 40
1.0
 40
1.0
 10
66.1041037208
 20
105.0400531934
 30
0.0
 10
65.921361713
 20
104.8985166058
 30
0.0
 10
65.5916475899
 20
104.6002659381
 30
0.0
 10
65.2076200942
 20
104.0864030887
 30
0.0
 10
64.9694577124
 20
103.538473117
 30
0.0
 10
64.9149939281
 20
103.155925453
 30
0.0
 10
64.9149953514
 20
102.9700815914
 30
0.0
  0
SPLINE
  5
289
100
AcDbEntity
  8
0
100
AcDbSpline
 62
7
  6
BYLAYER
 70
0
 71
3
 72
11
 73
7
 74
0
 42
0.0000001
 43
0.0000001
 44
0.0000000001
 40
0.0
 40
0.0
 40
0.0
 40
0.0
 40
0.2278623482
 40
0.477044386
 40
0.7381132303
 40
1.0
 40
1.0
 40
1.0
 40
1.0
 10
58.0102341145
 20
23.2591215429
 30
0.0
 10
58.0102341145
 20
23.4433047139
 30
0.0
 10
58.0547310408
 20
23.829331719
 30
0.0
 10
58.2252362049
 20
24.4035023132
 30
0.0
 10
58.4923611709
 20
24.9700212424
 30
0.0
 10
58.7270894603
 20
25.3237513325
 30
0.0
 10
58.8572766696
 20
25.4906704907
 30
0.0
  0
SPLINE
  5
28A
100
AcDbEntity
  8
0
100
AcDbSpline
 62
7
  6
BYLAYER
 70
0
 71
3
 72
17
 73
13
 74
0
 42
0.0000001
 43
0.0000001
 44
0.0000000001
 40
0.0
 40
0.0
 40
0.0
 40
0.0
 40
0.042857965
 40
0.0874854797
 40
0.1353180708
 40
0.1872814984
 40
0.3045423159
 40
0.4382097446
 40
0.5825520305
 40
0.7297107839
 40
0.8713099826
 40
1.0
 40
1.0
 40
1.0
 40
1.0
 10
36.5059869342
 20
47.4414481658
 30
0.0
 10
36.4419053323
 20
47.4044165232
 30
0.0
 10
36.300599109
 20
47.3457161536
 30
0.0
 10
36.0673770963
 20
47.3115097236
 30
0.0
 10
35.8169070305
 20
47.3299666432
 30
0.0
 10
35.452971979
 20
47.4267388631
 30
0.0
 10
34.9877365238
 20
47.6811306514
 30
0.0
 10
34.4737279802
 20
48.1363336451
 30
0.0
 10
34.0193651262
 20
48.7178963874
 30
0.0
 10
33.6617630576
 20
49.3788407232
 30
0.0
 10
33.4297087904
 20
50.0649677427
 30
0.0
 10
33.3675307908
 20
50.532266408
 30
0.0
 10
33.3675307908
 20
50.7545033088
 30
0.0
  0
SPLINE
  5
28B
100
AcDbEntity
  8
0
100
AcDbSpline
 62
7
  6
BYLAYER
 70
0
 71
3
 72
12
 73
8
 74
0
 42
0.0000001
 43
0.0000001
 44
0.0000000001
 40
0.0
 40
0.0
 40
0.0
 40
0.0
 40
0.1081593181
 40
0.2183666557
 40
0.4513483518
 40
0.7104479161
 40
1.0
 40
1.0
 40
1.0
 40
1.0
 10
76.9149098835
 20
101.3370767521
 30
0.0
 10
76.914912587
 20
101.223493458
 30
0.0
 10
76.8952208095
 20
100.9936917411
 30
0.0
 10
76.7757304568
 20
100.5330632415
 30
0.0
 10
76.4694369384
 20
99.9681063446
 30
0.0
 10
75.8986304096
 20
99.3687211191
 30
0.0
 10
75.4209474528
 20
99.0396678234
 30
0.0
 10
75.1576125082
 20
98.8876322297
 30
0.0
  0
SPLINE
  5
28C
100
AcDbEntity
  8
0
100
AcDbSpline
 62
7
  6
BYLAYER
 70
0
 71
3
 72
12
 73
8
 74
0
 42
0.0000001
 43
0.0000001
 44
0.0000000001
 40
0.0
 40
0.0
 40
0.0
 40
0.0
 40
0.1081602354
 40
0.2183690229
 40
0.4513480886
 40
0.7104547128
 40
1.0
 40
1.0
 40
1.0
 40
1.0
 10
57.822944462
 20
112.3595771045
 30
0.0
 10
57.822952179
 20
112.2459929872
 30
0.0
 10
57.8032554699
 20
112.0161883977
 30
0.0
 10
57.6837543324
 20
111.5555647972
 30
0.0
 10
57.3774722037
 20
110.9905962578
 30
0.0
 10
56.806655409
 20
110.3912230838
 30
0.0
 10
56.3289783685
 20
110.0621644396
 30
0.0
 10
56.0656499292
 20
109.9101326018
 30
0.0
  0
SPLINE
  5
28D
100
AcDbEntity
  8
0
100
AcDbSpline
 62
7
  6
BYLAYER
 70
0
 71
3
 72
17
 73
13
 74
0
 42
0.0000001
 43
0.0000001
 44
0.0000000001
 40
0.0
 40
0.0
 40
0.0
 40
0.0
 40
0.042857965
 40
0.0874854797
 40
0.1353180708
 40
0.1872814984
 40
0.3045423159
 40
0.4382097446
 40
0.5825520305
 40
0.7297107839
 40
0.8713099826
 40
1.0
 40
1.0
 40
1.0
 40
1.0
 10
62.6690467646
 20
32.3365402486
 30
0.0
 10
62.6049651628
 20
32.2995086059
 30
0.0
 10
62.4636589394
 20
32.2408082364
 30
0.0
 10
62.2304369267
 20
32.2066018064
 30
0.0
 10
61.979966861
 20
32.2250587259
 30
0.0
 10
61.6160318095
 20
32.3218309459
 30
0.0
 10
61.1507963543
 20
32.5762227342
 30
0.0
 10
60.6367878106
 20
33.0314257279
 30
0.0
 10
60.1824249566
 20
33.6129884701
 30
0.0
 10
59.8248228881
 20
34.273932806
 30
0.0
 10
59.5927686209
 20
34.9600598254
 30
0.0
 10
59.5305906213
 20
35.4273584907
 30
0.0
 10
59.5305906213
 20
35.6495953915
 30
0.0
  0
SPLINE
  5
28E
100
AcDbEntity
  8
0
100
AcDbSpline
 62
7
  6
BYLAYER
 70
0
 71
3
 72
12
 73
8
 74
0
 42
0.0000001
 43
0.0000001
 44
0.0000000001
 40
0.0
 40
0.0
 40
0.0
 40
0.0
 40
0.2895555981
 40
0.5486523263
 40
0.7816338283
 40
0.8918405055
 40
1.0
 40
1.0
 40
1.0
 40
1.0
 10
56.0656499292
 20
111.543137436
 30
0.0
 10
56.3289882596
 20
111.6951749844
 30
0.0
 10
56.8066736152
 20
112.0242277984
 30
0.0
 10
57.3774765407
 20
112.6236165134
 30
0.0
 10
57.6837752517
 20
113.1885674212
 30
0.0
 10
57.8032592254
 20
113.6491974771
 30
0.0
 10
57.8229512541
 20
113.8789984017
 30
0.0
 10
57.8229503842
 20
113.9925819628
 30
0.0
  0
SPLINE
  5
28F
100
AcDbEntity
  8
0
100
AcDbSpline
 62
7
  6
BYLAYER
 70
0
 71
3
 72
12
 73
8
 74
0
 42
0.0000001
 43
0.0000001
 44
0.0000000001
 40
0.0
 40
0.0
 40
0.0
 40
0.0
 40
0.2895555981
 40
0.5486523263
 40
0.7816338283
 40
0.8918405055
 40
1.0
 40
1.0
 40
1.0
 40
1.0
 10
75.1576125082
 20
100.520637064
 30
0.0
 10
75.4209508386
 20
100.6726746124
 30
0.0
 10
75.8986361942
 20
101.0017274264
 30
0.0
 10
76.4694391196
 20
101.6011161413
 30
0.0
 10
76.7757378307
 20
102.1660670491
 30
0.0
 10
76.8952218044
 20
102.626697105
 30
0.0
 10
76.9149138331
 20
102.8564980296
 30
0.0
 10
76.9149129632
 20
102.9700815908
 30
0.0
  0
SPLINE
  5
290
100
AcDbEntity
  8
0
100
AcDbSpline
 62
7
  6
BYLAYER
 70
0
 71
3
 72
20
 73
16
 74
0
 42
0.0000001
 43
0.0000001
 44
0.0000000001
 40
0.0
 40
0.0
 40
0.0
 40
0.0
 40
0.0623993903
 40
0.1288072955
 40
0.2703008194
 40
0.417360575
 40
0.5616147636
 40
0.6302541874
 40
0.695379621
 40
0.7563636679
 40
0.8128351378
 40
0.8647650598
 40
0.9125683497
 40
0.9571691695
 40
1.0
 40
1.0
 40
1.0
 40
1.0
 10
75.1576125082
 20
98.8876322297
 30
0.0
 10
74.9421151156
 20
98.7632154947
 30
0.0
 10
74.4800619986
 20
98.5354755809
 30
0.0
 10
73.465135614
 20
98.167693197
 30
0.0
 10
72.0682876941
 20
97.8882983008
 30
0.0
 10
70.3358327567
 20
97.8404454404
 30
0.0
 10
68.9060721972
 20
98.0410185609
 30
0.0
 10
67.839225729
 20
98.348311807
 30
0.0
 10
67.1174526023
 20
98.6391584144
 30
0.0
 10
66.4762284055
 20
98.987884333
 30
0.0
 10
65.9289470113
 20
99.3877578359
 30
0.0
 10
65.487338944
 20
99.8312986829
 30
0.0
 10
65.1614624824
 20
100.3105543586
 30
0.0
 10
64.9606340101
 20
100.8161316841
 30
0.0
 10
64.9150024964
 20
101.1662771457
 30
0.0
 10
64.9149984311
 20
101.3370767616
 30
0.0
  0
SPLINE
  5
291
100
AcDbEntity
  8
0
100
AcDbSpline
 62
7
  6
BYLAYER
 70
0
 71
3
 72
20
 73
16
 74
0
 42
0.0000001
 43
0.0000001
 44
0.0000000001
 40
0.0
 40
0.0
 40
0.0
 40
0.0
 40
0.0428298978
 40
0.0874301977
 40
0.1352335584
 40
0.1871634452
 40
0.2436344585
 40
0.3046179048
 40
0.3697421189
 40
0.4383799262
 40
0.5826323676
 40
0.7296942978
 40
0.871191058
 40
0.9376005396
 40
1.0
 40
1.0
 40
1.0
 40
1.0
 10
45.8230327725
 20
113.9925819634
 30
0.0
 10
45.8230340805
 20
113.8217860651
 30
0.0
 10
45.8686752992
 20
113.4716480446
 30
0.0
 10
46.0694843997
 20
112.9660701098
 30
0.0
 10
46.3953661841
 20
112.4868185308
 30
0.0
 10
46.8369702839
 20
112.0432777595
 30
0.0
 10
47.3842434021
 20
111.6433996629
 30
0.0
 10
48.0254605637
 20
111.294679397
 30
0.0
 10
48.747219478
 20
111.0038352302
 30
0.0
 10
49.814044753
 20
110.6965342464
 30
0.0
 10
51.243800511
 20
110.4959577436
 30
0.0
 10
52.9762697794
 20
110.5437994579
 30
0.0
 10
54.3731480508
 20
110.8231894376
 30
0.0
 10
55.3880924596
 20
111.1909794309
 30
0.0
 10
55.8501522923
 20
111.41872056
 30
0.0
 10
56.0656499292
 20
111.543137436
 30
0.0
  0
SPLINE
  5
292
100
AcDbEntity
  8
0
100
AcDbSpline
 62
7
  6
BYLAYER
 70
0
 71
3
 72
20
 73
16
 74
0
 42
0.0000001
 43
0.0000001
 44
0.0000000001
 40
0.0
 40
0.0
 40
0.0
 40
0.0
 40
0.0623978324
 40
0.1288078005
 40
0.2703014696
 40
0.4173623107
 40
0.5616157801
 40
0.6302539237
 40
0.6953782445
 40
0.7563621899
 40
0.8128324036
 40
0.8647625545
 40
0.9125665664
 40
0.957166463
 40
1.0
 40
1.0
 40
1.0
 40
1.0
 10
56.0656499292
 20
109.9101326018
 30
0.0
 10
55.8501580134
 20
109.7857190288
 30
0.0
 10
55.3881000959
 20
109.5579853758
 30
0.0
 10
54.3731774781
 20
109.1901871049
 30
0.0
 10
52.9763120977
 20
108.9108048325
 30
0.0
 10
51.2438589957
 20
108.8629551104
 30
0.0
 10
49.8140974942
 20
109.0635063252
 30
0.0
 10
48.7472704167
 20
109.370822003
 30
0.0
 10
48.0255067835
 20
109.661659567
 30
0.0
 10
47.3842764267
 20
110.0103559978
 30
0.0
 10
46.8370174263
 20
110.4102542379
 30
0.0
 10
46.3954051815
 20
110.8537808929
 30
0.0
 10
46.069485106
 20
111.3330146287
 30
0.0
 10
45.8687031171
 20
111.8386158194
 30
0.0
 10
45.8230296715
 20
112.1887666307
 30
0.0
 10
45.8230555739
 20
112.3595769611
 30
0.0
  0
SPLINE
  5
293
100
AcDbEntity
  8
0
100
AcDbSpline
 62
7
  6
BYLAYER
 70
0
 71
3
 72
11
 73
7
 74
0
 42
0.0000001
 43
0.0000001
 44
0.0000000001
 40
0.0
 40
0.0
 40
0.0
 40
0.0
 40
0.2896413964
 40
0.5491107671
 40
0.7822355978
 40
1.0
 40
1.0
 40
1.0
 40
1.0
 10
59.5305906213
 20
35.6495953915
 30
0.0
 10
59.5305906213
 20
35.7813041529
 30
0.0
 10
59.5506104017
 20
36.0318453922
 30
0.0
 10
59.6520139758
 20
36.3760810026
 30
0.0
 10
59.8228279188
 20
36.6554771536
 30
0.0
 10
59.9833674292
 20
36.7902523325
 30
0.0
 10
60.0691050487
 20
36.839798611
 30
0.0
  0
SPLINE
  5
294
100
AcDbEntity
  8
0
100
AcDbSpline
 62
7
  6
BYLAYER
 70
0
 71
3
 72
20
 73
16
 74
0
 42
0.0000001
 43
0.0000001
 44
0.0000000001
 40
0.0
 40
0.0
 40
0.0
 40
0.0
 40
0.0428298978
 40
0.0874301977
 40
0.1352335584
 40
0.1871634452
 40
0.2436344585
 40
0.3046179048
 40
0.3697421189
 40
0.4383799262
 40
0.5826323676
 40
0.7296942978
 40
0.871191058
 40
0.9376005396
 40
1.0
 40
1.0
 40
1.0
 40
1.0
 10
64.9149953514
 20
102.9700815914
 30
0.0
 10
64.9149966595
 20
102.799285693
 30
0.0
 10
64.9606378781
 20
102.4491476725
 30
0.0
 10
65.1614469787
 20
101.9435697378
 30
0.0
 10
65.4873287631
 20
101.4643181587
 30
0.0
 10
65.9289328629
 20
101.0207773874
 30
0.0
 10
66.4762059811
 20
100.6208992909
 30
0.0
 10
67.1174231427
 20
100.272179025
 30
0.0
 10
67.8391820569
 20
99.9813348582
 30
0.0
 10
68.906007332
 20
99.6740338743
 30
0.0
 10
70.33576309
 20
99.4734573715
 30
0.0
 10
72.0682323584
 20
99.5212990858
 30
0.0
 10
73.4651106297
 20
99.8006890655
 30
0.0
 10
74.4800550386
 20
100.1684790588
 30
0.0
 10
74.9421148712
 20
100.3962201879
 30
0.0
 10
75.1576125082
 20
100.520637064
 30
0.0
  0
SPLINE
  5
295
100
AcDbEntity
  8
0
100
AcDbSpline
 62
7
  6
BYLAYER
 70
0
 71
3
 72
11
 73
7
 74
0
 42
0.0000001
 43
0.0000001
 44
0.0000000001
 40
0.0
 40
0.0
 40
0.0
 40
0.0
 40
0.2896413964
 40
0.5491107671
 40
0.7822355978
 40
1.0
 40
1.0
 40
1.0
 40
1.0
 10
33.3675307908
 20
50.7545033088
 30
0.0
 10
33.3675307908
 20
50.8862120701
 30
0.0
 10
33.3875505713
 20
51.1367533094
 30
0.0
 10
33.4889541454
 20
51.4809889199
 30
0.0
 10
33.6597680884
 20
51.7603850709
 30
0.0
 10
33.8203075987
 20
51.8951602498
 30
0.0
 10
33.9060452183
 20
51.9447065282
 30
0.0
  0
SPLINE
  5
296
100
AcDbEntity
  8
0
100
AcDbSpline
 62
7
  6
BYLAYER
 70
0
 71
3
 72
10
 73
6
 74
0
 42
0.0000001
 43
0.0000001
 44
0.0000000001
 40
0.0
 40
0.0
 40
0.0
 40
0.0
 40
0.5246942915
 40
0.7715100815
 40
1.0
 40
1.0
 40
1.0
 40
1.0
 10
25.5623321469
 20
125.7788055636
 30
0.0
 10
25.7553664742
 20
126.1167190036
 30
0.0
 10
26.0958205665
 20
126.5855830313
 30
0.0
 10
26.6374898245
 20
127.0943799068
 30
0.0
 10
26.9273858977
 20
127.2981212326
 30
0.0
 10
27.0741511982
 20
127.3828557125
 30
0.0
  0
SPLINE
  5
297
100
AcDbEntity
  8
0
100
AcDbSpline
 62
7
  6
BYLAYER
 70
0
 71
3
 72
11
 73
7
 74
0
 42
0.0000001
 43
0.0000001
 44
0.0000000001
 40
0.0
 40
0.0
 40
0.0
 40
0.0
 40
0.289702809
 40
0.549088757
 40
0.7822160314
 40
1.0
 40
1.0
 40
1.0
 40
1.0
 10
59.7779937076
 20
22.2384758847
 30
0.0
 10
59.6682982042
 20
22.1751435344
 30
0.0
 10
59.4500785057
 20
22.0713300866
 30
0.0
 10
59.114670125
 20
21.9903319992
 30
0.0
 10
58.7999585842
 20
21.9982977485
 30
0.0
 10
58.6104850427
 20
22.0670574957
 30
0.0
 10
58.5280211536
 20
22.1146669768
 30
0.0
  0
ELLIPSE
  5
298
100
AcDbEntity
  8
0
100
AcDbEllipse
 62
7
  6
BYLAYER
 10
36.7562861432
 20
107.586180972
 30
0.0
 11
0.8387176683
 21
1.8212759564
 31
0.0
 40
0.6296388677
 41
0.7337535536
 42
2.2981380747
  0
ELLIPSE
  5
299
100
AcDbEntity
  8
0
100
AcDbEllipse
 62
7
  6
BYLAYER
 10
58.6765050968
 20
120.241749742
 30
0.0
 11
0.8387176683
 21
1.8212759564
 31
0.0
 40
0.6296388677
 41
5.4397307283
 42
7.0041152494
  0
ELLIPSE
  5
29A
100
AcDbEntity
  8
0
100
AcDbEllipse
 62
7
  6
BYLAYER
 10
61.3004137911
 20
24.6255044306
 30
0.0
 11
2.7228665862
 21
0.8611949038
 31
0.0
 40
0.6979034354
 41
-1.7880472157
 42
-1.7176979745
  0
ENDSEC
  0
SECTION
  2
OBJECTS
  0
DICTIONARY
  5
C
100
AcDbDictionary
280
0
281
1
  3
ACAD_GROUP
350
D
  3
ACAD_MLINESTYLE
350
17
  3
ACAD_LAYOUT
350
1A
  3
ACAD_PLOTSETTINGS
350
19
  3
ACAD_PLOTSTYLENAME
350
E
  0
DICTIONARY
  5
D
102
{ACAD_REACTORS
330
C
102
}
100
AcDbDictionary
280
0
281
1
  0
ACDBDICTIONARYWDFLT
  5
E
102
{ACAD_REACTORS
330
C
102
}
100
AcDbDictionary
281
1
  3
Normal
350
F
100
AcDbDictionaryWithDefault
340
F
  0
DICTIONARY
  5
17
102
{ACAD_REACTORS
330
C
102
}
100
AcDbDictionary
280
0
281
1
  3
Standard
350
18
  0
DICTIONARY
  5
19
102
{ACAD_REACTORS
330
C
102
}
100
AcDbDictionary
281
1
  0
DICTIONARY
  5
1A
102
{ACAD_REACTORS
330
C
102
}
100
AcDbDictionary
281
1
  3
Model
350
29B
  3
Layout1
350
29C
  0
ACDBPLACEHOLDER
  5
F
102
{ACAD_REACTORS
330
E
102
}
  0
MLINESTYLE
  5
18
102
{ACAD_REACTORS
330
17
102
}
100
AcDbMlineStyle
  2
STANDARD
 70
0
  3

 62
256
 51
90.0
 52
90.0
 71
2
 49
0.5
 62
256
  6
BYLAYER
 49
-0.5
 62
256
  6
BYLAYER
  0
LAYOUT
  5
29B
102
{ACAD_REACTORS
330
1A
102
}
100
AcDbPlotSettings
  1

  2
none_device
  4

  6

 40
0.0
 41
0.0
 42
0.0
 43
0.0
 44
210.0
 45
297.0
 46
0.0
 47
0.0
 48
0.0
 49
0.0
140
0.0
141
0.0
142
1.0
143
1.0
 70
1024
 72
1
 73
0
 74
0
  7

 75
0
147
1.0
148
0.0
149
0.0
100
AcDbLayout
  1
Model
 70
0
 71
0
 10
0.0
 20
0.0
 11
210.0
 21
297.0
 12
0.0
 22
0.0
 32
0.0
 14
0.0
 24
0.0
 34
0.0
 15
0.0
 25
0.0
 35
0.0
146
0.0
 13
0.0
 23
0.0
 33
0.0
 16
1.0
 26
0.0
 36
0.0
 17
0.0
 27
1.0
 37
0.0
 76
0
330
210
345
0
346
0
  0
LAYOUT
  5
29C
102
{ACAD_REACTORS
330
1A
102
}
100
AcDbPlotSettings
  1

  2
none_device
  4

  6

 40
0.0
 41
0.0
 42
0.0
 43
0.0
 44
210.0
 45
297.0
 46
0.0
 47
0.0
 48
0.0
 49
0.0
140
0.0
141
0.0
142
1.0
143
1.0
 70
0
 72
1
 73
0
 74
0
  7

 75
0
147
1.0
148
0.0
149
0.0
100
AcDbLayout
  1
Layout1
 70
0
 71
1
 10
0.0
 20
0.0
 11
210.0
 21
297.0
 12
0.0
 22
0.0
 32
0.0
 14
0.0
 24
0.0
 34
0.0
 15
0.0
 25
0.0
 35
0.0
146
0.0
 13
0.0
 23
0.0
 33
0.0
 16
1.0
 26
0.0
 36
0.0
 17
0.0
 27
1.0
 37
0.0
 76
0
330
211
345
0
346
0
  0
ENDSEC
  0
EOF
