999
DXF file: C:\Users\sesa63760\Dev\_Creo\CAD\MCADID0003538_3D-CAD\drw0001_5.dxf
999
Pro/ENGINEER 2019471 by Parametric Technology Corporation
  0
SECTION
  2
HEADER
  9
$ACADVER
  1
AC1024
  9
$DWGCODEPAGE
  3
ANSI_1252
  9
$EXTMAX
 10
63.4301841196
 20
89.7084032548
 30
0.0
  9
$EXTMIN
 10
0.0
 20
0.0
 30
0.0
  9
$LIMMIN
 10
0.0
 20
0.0
  9
$LIMMAX
 10
63.4301841196
 20
89.7084032548
  9
$VIEWCTR
 10
31.7150920598
 20
44.8542016274
  9
$VIEWSIZE
 40
89.7084032548
  9
$CLAYER
  8
0
  9
$LTSCALE
 40
5.8476588788
  9
$CELTYPE
  6
BYLAYER
  9
$DIMSCALE
 40
1.0
  9
$DIMASZ
 40
0.7551212395
  9
$DIMEXO
 40
1.0
  9
$DIMDLI
 40
4.0402006799
  9
$DIMEXE
 40
1.0
  9
$DIMCEN
 40
0.9568896347
  9
$DIMLFAC
 40
1.0
  9
$DIMBLK
  1
_FILLED
  9
$DIMALT
 70
0
  9
$DIMALTF
 40
0.0393700787
  9
$DIMTXT
 40
1.0571697353
  9
$DIMTOL
 70
1
  9
$DIMLIM
 70
0
  9
$DIMTFAC
 40
1.0
  9
$DIMTP
 40
0.01
  9
$DIMTM
 40
0.01
  9
$DIMGAP
 40
0.625
  9
$DIMDSEP
 70
46
  9
$AUNITS
 70
0
  9
$PDMODE
 70
3
  9
$PDSIZE
 40
0.3125
  9
$HANDSEED
  5
24B
  9
$TILEMODE
 70
1
  9
$MEASUREMENT
 70
1
  9
$INSUNITS
 70
4
  0
ENDSEC
  0
SECTION
  2
CLASSES
  0
CLASS
  1
ACDBDICTIONARYWDFLT
  2
AcDbDictionaryWithDefault
  3
AutoCAD 2000
 90
0
 91
1
280
0
281
0
  0
CLASS
  1
ACDBPLACEHOLDER
  2
AcDbPlaceHolder
  3
AutoCAD 2000
 90
0
 91
1
280
0
281
0
  0
CLASS
  1
LAYOUT
  2
AcDbLayout
  3
AutoCAD 2000
 90
0
 91
0
280
0
281
0
  0
ENDSEC
  0
SECTION
  2
TABLES
  0
TABLE
  2
VPORT
  5
8
100
AcDbSymbolTable
 70
2
  0
VPORT
  5
1F4
100
AcDbSymbolTableRecord
100
AcDbViewportTableRecord
  2
*ACTIVE
 70
0
 10
0.0
 20
0.0
 11
1.0
 21
1.0
 12
31.7150920598
 22
44.8542016274
 13
0.0
 23
0.0
 14
1.0
 24
1.0
 15
0.0
 25
0.0
 16
0.0
 26
0.0
 36
1.0
 17
0.0
 27
0.0
 37
0.0
 40
89.7084032548
 41
0.7070707071
 42
50.0
 43
0.0
 44
0.0
 50
0.0
 51
0.0
 71
0
 72
100
 73
1
 74
1
 75
0
 76
0
 77
0
 78
0
  0
ENDTAB
  0
TABLE
  2
LTYPE
  5
5
100
AcDbSymbolTable
 70
6
  0
LTYPE
  5
14
100
AcDbSymbolTableRecord
100
AcDbLinetypeTableRecord
  2
BYBLOCK
 70
0
  3

 72
65
 73
0
 40
0.0
  0
LTYPE
  5
15
100
AcDbSymbolTableRecord
100
AcDbLinetypeTableRecord
  2
BYLAYER
 70
0
  3

 72
65
 73
0
 40
0.0
  0
LTYPE
  5
16
100
AcDbSymbolTableRecord
100
AcDbLinetypeTableRecord
  2
CONTINUOUS
 70
64
  3
Solid line
 72
65
 73
0
 40
0.0
  0
LTYPE
  5
1F5
100
AcDbSymbolTableRecord
100
AcDbLinetypeTableRecord
  2
CENTER
 70
64
  3
____ _ ____ _ ____ _ ____ _ ____ _ ____ _ ____
 72
65
 73
4
 40
0.6
 49
0.375
 74
0
 49
-0.075
 74
0
 49
0.075
 74
0
 49
-0.075
 74
0
  0
LTYPE
  5
1F6
100
AcDbSymbolTableRecord
100
AcDbLinetypeTableRecord
  2
HIDDEN
 70
64
  3
- - - - - - - - - - - - - - - - - - - -
 72
65
 73
2
 40
0.2
 49
0.1
 74
0
 49
-0.1
 74
0
  0
LTYPE
  5
1F7
100
AcDbSymbolTableRecord
100
AcDbLinetypeTableRecord
  2
PHANTOM
 70
64
  3
_____ _ _ _____ _ _ _____ _ _ _____
 72
65
 73
6
 40
0.8
 49
0.45
 74
0
 49
-0.05
 74
0
 49
0.1
 74
0
 49
-0.05
 74
0
 49
0.1
 74
0
 49
-0.05
 74
0
  0
LTYPE
  5
1F8
100
AcDbSymbolTableRecord
100
AcDbLinetypeTableRecord
  2
DOT
 70
64
  3
. . . . . . . . . . . . . . . . . . . .
 72
65
 73
2
 40
0.2
 49
0.1
 74
0
 49
-0.1
 74
0
  0
LTYPE
  5
1F9
100
AcDbSymbolTableRecord
100
AcDbLinetypeTableRecord
  2
DASHED
 70
64
  3
- - - - - - - - - - - - - - - - - - - -
 72
65
 73
2
 40
0.2
 49
0.1
 74
0
 49
-0.1
 74
0
  0
ENDTAB
  0
TABLE
  2
LAYER
  5
2
100
AcDbSymbolTable
 70
36
  0
LAYER
  5
10
100
AcDbSymbolTableRecord
100
AcDbLayerTableRecord
  2
0
 70
0
 62
7
  6
CONTINUOUS
370
-3
390
F
  0
LAYER
  5
1FA
100
AcDbSymbolTableRecord
100
AcDbLayerTableRecord
  2
DEFAULT_1
 70
0
 62
7
  6
CENTER
370
-3
390
F
  0
LAYER
  5
1FB
100
AcDbSymbolTableRecord
100
AcDbLayerTableRecord
  2
DEFAULT_2
 70
0
 62
7
  6
HIDDEN
370
-3
390
F
  0
LAYER
  5
1FC
100
AcDbSymbolTableRecord
100
AcDbLayerTableRecord
  2
DEFAULT_3
 70
0
 62
7
  6
PHANTOM
370
-3
390
F
  0
LAYER
  5
1FD
100
AcDbSymbolTableRecord
100
AcDbLayerTableRecord
  2
00_COMPONENTS
 70
0
 62
7
  6
CONTINUOUS
370
-3
390
F
  0
LAYER
  5
1FE
100
AcDbSymbolTableRecord
100
AcDbLayerTableRecord
  2
01_1_DEFAULT_DATUMS
 70
0
 62
7
  6
CONTINUOUS
370
-3
390
F
  0
LAYER
  5
1FF
100
AcDbSymbolTableRecord
100
AcDbLayerTableRecord
  2
01_PLANES
 70
0
 62
7
  6
CONTINUOUS
370
-3
390
F
  0
LAYER
  5
200
100
AcDbSymbolTableRecord
100
AcDbLayerTableRecord
  2
02_COORD_SYS
 70
0
 62
7
  6
CONTINUOUS
370
-3
390
F
  0
LAYER
  5
201
100
AcDbSymbolTableRecord
100
AcDbLayerTableRecord
  2
03_AXES
 70
0
 62
7
  6
CONTINUOUS
370
-3
390
F
  0
LAYER
  5
202
100
AcDbSymbolTableRecord
100
AcDbLayerTableRecord
  2
04_POINTS
 70
0
 62
7
  6
CONTINUOUS
370
-3
390
F
  0
LAYER
  5
203
100
AcDbSymbolTableRecord
100
AcDbLayerTableRecord
  2
05_CURVES
 70
0
 62
7
  6
CONTINUOUS
370
-3
390
F
  0
LAYER
  5
204
100
AcDbSymbolTableRecord
100
AcDbLayerTableRecord
  2
06_SURFS
 70
0
 62
7
  6
CONTINUOUS
370
-3
390
F
  0
LAYER
  5
205
100
AcDbSymbolTableRecord
100
AcDbLayerTableRecord
  2
07_COSMETICS
 70
0
 62
7
  6
CONTINUOUS
370
-3
390
F
  0
LAYER
  5
206
100
AcDbSymbolTableRecord
100
AcDbLayerTableRecord
  2
10_NOTES
 70
0
 62
7
  6
CONTINUOUS
370
-3
390
F
  0
LAYER
  5
207
100
AcDbSymbolTableRecord
100
AcDbLayerTableRecord
  2
11_NOTES_PUB
 70
0
 62
7
  6
CONTINUOUS
370
-3
390
F
  0
LAYER
  5
208
100
AcDbSymbolTableRecord
100
AcDbLayerTableRecord
  2
13_REF_GTOL
 70
0
 62
7
  6
CONTINUOUS
370
-3
390
F
  0
LAYER
  5
209
100
AcDbSymbolTableRecord
100
AcDbLayerTableRecord
  2
16_MISC
 70
0
 62
7
  6
CONTINUOUS
370
-3
390
F
  0
LAYER
  5
20A
100
AcDbSymbolTableRecord
100
AcDbLayerTableRecord
  2
17_NO_PRINT
 70
0
 62
7
  6
CONTINUOUS
370
-3
390
F
  0
LAYER
  5
20B
100
AcDbSymbolTableRecord
100
AcDbLayerTableRecord
  2
18_DATUM_CAMS_JOINTS
 70
0
 62
7
  6
CONTINUOUS
370
-3
390
F
  0
LAYER
  5
20C
100
AcDbSymbolTableRecord
100
AcDbLayerTableRecord
  2
19_DATUM_FUNCTIONAL
 70
0
 62
7
  6
CONTINUOUS
370
-3
390
F
  0
LAYER
  5
20D
100
AcDbSymbolTableRecord
100
AcDbLayerTableRecord
  2
20_DATUM_KINEMATIC_SCHEME
 70
0
 62
7
  6
CONTINUOUS
370
-3
390
F
  0
ENDTAB
  0
TABLE
  2
STYLE
  5
3
100
AcDbSymbolTable
 70
1
  0
STYLE
  5
11
100
AcDbSymbolTableRecord
100
AcDbTextStyleTableRecord
  2
STANDARD
 70
0
 40
0.0
 41
1.0
 50
0.0
 71
0
 42
0.2
  3
ARIAL.TTF
  4

  0
STYLE
  5
20E
100
AcDbSymbolTableRecord
100
AcDbTextStyleTableRecord
  2
TEXTSTYLE_1
 70
0
 40
0.0
 41
0.8
 50
0.0
 71
0
 42
0.2
  3
gdt
  4

  0
ENDTAB
  0
TABLE
  2
VIEW
  5
6
100
AcDbSymbolTable
 70
0
  0
ENDTAB
  0
TABLE
  2
UCS
  5
7
100
AcDbSymbolTable
 70
0
  0
ENDTAB
  0
TABLE
  2
APPID
  5
9
100
AcDbSymbolTable
 70
1
  0
APPID
  5
20F
100
AcDbSymbolTableRecord
100
AcDbRegAppTableRecord
  2
ACAD
 70
0
  0
ENDTAB
  0
TABLE
  2
BLOCK_RECORD
  5
1
100
AcDbSymbolTable
 70
0
  0
BLOCK_RECORD
  5
210
100
AcDbSymbolTableRecord
100
AcDbBlockTableRecord
  2
*Model_Space
  0
BLOCK_RECORD
  5
211
100
AcDbSymbolTableRecord
100
AcDbBlockTableRecord
  2
*Paper_Space
  0
BLOCK_RECORD
  5
212
100
AcDbSymbolTableRecord
100
AcDbBlockTableRecord
  2
_FILLED
  0
ENDTAB
  0
TABLE
  2
DIMSTYLE
  5
A
100
AcDbSymbolTable
 70
1
100
AcDbDimStyleTable
 71
0
  0
DIMSTYLE
105
213
100
AcDbSymbolTableRecord
100
AcDbDimStyleTableRecord
  2
STANDARD
 70
0
  3

  4

 40
1.0
 41
0.7551212395
 42
1.0
 43
0.38
 44
1.0
 45
0.0
 46
0.0
 47
0.01
 48
0.01
140
1.0571697353
141
0.09
142
0.0
143
25.4
144
1.0
145
0.0
146
1.0
147
0.625
 71
1
 72
0
 73
0
 74
0
 75
0
 76
0
 77
1
 78
8
 79
2
170
0
171
1
172
0
173
0
174
0
175
0
176
0
177
0
178
0
270
2
179
2
271
2
272
2
273
2
274
2
275
0
280
0
281
0
282
0
283
1
284
8
285
0
286
0
287
3
288
0
340
11
278
46
341
212
342
212
343
212
344
212
  0
ENDTAB
  0
ENDSEC
  0
SECTION
  2
BLOCKS
  0
BLOCK
  5
20
100
AcDbEntity
  8
0
100
AcDbBlockBegin
  2
*Model_Space
 70
0
 10
0.0
 20
0.0
 30
0.0
  3
*Model_Space
  1

  0
ENDBLK
  5
21
100
AcDbEntity
  8
0
100
AcDbBlockEnd
  0
BLOCK
  5
1C
100
AcDbEntity
  8
0
100
AcDbBlockBegin
  2
*Paper_Space
 70
0
 10
0.0
 20
0.0
 30
0.0
  3
*Paper_Space
  1

  0
ENDBLK
  5
1D
100
AcDbEntity
  8
0
100
AcDbBlockEnd
  0
BLOCK
  5
214
100
AcDbEntity
  8
0
100
AcDbBlockBegin
  2
_FILLED
 70
64
 10
0.0
 20
0.0
  3
_FILLED
  1

  0
SOLID
  5
215
100
AcDbEntity
  8
0
  6
BYBLOCK
 62
0
100
AcDbTrace
 10
0.0
 20
0.0
 11
-1.0
 21
0.25
 12
-1.0
 22
-0.25
 13
-1.0
 23
-0.25
  0
ENDBLK
  5
216
100
AcDbEntity
  8
0
  6
BYBLOCK
 62
0
100
AcDbBlockEnd
  0
ENDSEC
  0
SECTION
  2
ENTITIES
  0
LINE
  5
217
100
AcDbEntity
  8
0
100
AcDbLine
 62
7
  6
BYLAYER
 10
24.4935097171
 20
12.2395295712
 11
40.4935097171
 21
12.2395295712
  0
LINE
  5
218
100
AcDbEntity
  8
0
100
AcDbLine
 62
7
  6
BYLAYER
 10
25.2435097171
 20
63.7396560382
 11
24.7435097171
 21
63.2396560382
  0
LINE
  5
219
100
AcDbEntity
  8
0
100
AcDbLine
 62
7
  6
BYLAYER
 10
26.4935231007
 20
75.3396911404
 11
26.495890131
 21
75.3492066707
  0
LINE
  5
21A
100
AcDbEntity
  8
0
100
AcDbLine
 62
7
  6
BYLAYER
 10
24.4935097171
 20
12.2395295712
 11
24.4935097171
 21
62.2394783427
  0
LINE
  5
21B
100
AcDbEntity
  8
0
100
AcDbLine
 62
7
  6
BYLAYER
 10
24.7435097171
 20
62.2396560382
 11
24.7435097171
 21
63.2396560382
  0
LINE
  5
21C
100
AcDbEntity
  8
0
100
AcDbLine
 62
7
  6
BYLAYER
 10
26.4935097171
 20
63.7396560382
 11
26.4935097171
 21
75.3396560382
  0
LINE
  5
21D
100
AcDbEntity
  8
0
100
AcDbLine
 62
7
  6
BYLAYER
 10
28.9935097171
 20
8.3251477431
 11
28.9935097171
 21
12.2395295712
  0
LINE
  5
21E
100
AcDbEntity
  8
0
100
AcDbLine
 62
7
  6
BYLAYER
 10
28.9935097171
 20
77.8396560382
 11
28.9935097171
 21
79.5396560382
  0
LINE
  5
21F
100
AcDbEntity
  8
0
100
AcDbLine
 62
7
  6
BYLAYER
 10
30.4935097171
 20
68.0396560382
 11
30.4935097171
 21
76.5857593798
  0
LINE
  5
220
100
AcDbEntity
  8
0
100
AcDbLine
 62
7
  6
BYLAYER
 10
30.6935097171
 20
71.0397064253
 11
30.6935097171
 21
82.639605651
  0
LINE
  5
221
100
AcDbEntity
  8
0
100
AcDbLine
 62
7
  6
BYLAYER
 10
34.2935097171
 20
82.639605651
 11
34.2935097171
 21
71.0397064253
  0
LINE
  5
222
100
AcDbEntity
  8
0
100
AcDbLine
 62
7
  6
BYLAYER
 10
34.4935097171
 20
76.5857593798
 11
34.4935097171
 21
68.0396560382
  0
LINE
  5
223
100
AcDbEntity
  8
0
100
AcDbLine
 62
7
  6
BYLAYER
 10
35.9935097171
 20
8.3251477431
 11
35.9935097171
 21
12.2395295712
  0
LINE
  5
224
100
AcDbEntity
  8
0
100
AcDbLine
 62
7
  6
BYLAYER
 10
35.9935097171
 20
77.8396560382
 11
35.9935097171
 21
79.5396560382
  0
LINE
  5
225
100
AcDbEntity
  8
0
100
AcDbLine
 62
7
  6
BYLAYER
 10
38.4935097171
 20
63.7396560382
 11
38.4935097171
 21
75.3396560382
  0
LINE
  5
226
100
AcDbEntity
  8
0
100
AcDbLine
 62
7
  6
BYLAYER
 10
40.2435097171
 20
62.2396560382
 11
40.2435097171
 21
63.2396560382
  0
LINE
  5
227
100
AcDbEntity
  8
0
100
AcDbLine
 62
7
  6
BYLAYER
 10
40.4935097171
 20
12.2395295712
 11
40.4935097171
 21
62.2394783427
  0
LINE
  5
228
100
AcDbEntity
  8
0
100
AcDbLine
 62
7
  6
BYLAYER
 10
40.6935097171
 20
57.3546298262
 11
40.6935097171
 21
59.5212216214
  0
LINE
  5
229
100
AcDbEntity
  8
0
100
AcDbLine
 62
7
  6
BYLAYER
 10
40.4935097171
 20
57.3546298262
 11
40.6935097171
 21
57.3546298262
  0
LINE
  5
22A
100
AcDbEntity
  8
0
100
AcDbLine
 62
7
  6
BYLAYER
 10
38.4910632687
 20
75.3494752961
 11
38.4935097171
 21
75.3397343614
  0
LINE
  5
22B
100
AcDbEntity
  8
0
100
AcDbLine
 62
7
  6
BYLAYER
 10
40.4935097171
 20
59.5212216214
 11
40.6935097171
 21
59.5212216214
  0
LINE
  5
22C
100
AcDbEntity
  8
0
100
AcDbLine
 62
7
  6
BYLAYER
 10
24.4935097171
 20
60.2395295712
 11
40.4935097171
 21
60.2395295712
  0
LINE
  5
22D
100
AcDbEntity
  8
0
100
AcDbLine
 62
7
  6
BYLAYER
 10
24.4935097171
 20
62.2396560382
 11
24.7435097171
 21
62.2396560382
  0
LINE
  5
22E
100
AcDbEntity
  8
0
100
AcDbLine
 62
7
  6
BYLAYER
 10
40.2435097171
 20
62.2396560382
 11
40.4935097171
 21
62.2396560382
  0
LINE
  5
22F
100
AcDbEntity
  8
0
100
AcDbLine
 62
7
  6
BYLAYER
 10
24.7435097171
 20
63.2396560382
 11
40.2435097171
 21
63.2396560382
  0
LINE
  5
230
100
AcDbEntity
  8
0
100
AcDbLine
 62
7
  6
BYLAYER
 10
25.2436999067
 20
63.7396560382
 11
39.7433195275
 21
63.7396560382
  0
LINE
  5
231
100
AcDbEntity
  8
0
100
AcDbLine
 62
7
  6
BYLAYER
 10
39.7435097171
 20
63.7396560382
 11
40.2435097171
 21
63.2396560382
  0
LINE
  5
232
100
AcDbEntity
  8
0
100
AcDbLine
 62
7
  6
BYLAYER
 10
30.4935097171
 20
68.0396560382
 11
34.4935097171
 21
68.0396560382
  0
LINE
  5
233
100
AcDbEntity
  8
0
100
AcDbLine
 62
7
  6
BYLAYER
 10
30.6935097171
 20
71.0396560382
 11
34.2935097171
 21
71.0396560382
  0
LINE
  5
234
100
AcDbEntity
  8
0
100
AcDbLine
 62
7
  6
BYLAYER
 10
34.4935097171
 20
74.1396560382
 11
34.2935097171
 21
74.1396560382
  0
LINE
  5
235
100
AcDbEntity
  8
0
100
AcDbLine
 62
7
  6
BYLAYER
 10
30.6935097171
 20
74.1396560382
 11
30.4935097171
 21
74.1396560382
  0
LINE
  5
236
100
AcDbEntity
  8
0
100
AcDbLine
 62
7
  6
BYLAYER
 10
26.5502061059
 20
75.5857593798
 11
30.4935097171
 21
75.5857593798
  0
LINE
  5
237
100
AcDbEntity
  8
0
100
AcDbLine
 62
7
  6
BYLAYER
 10
34.4935097171
 20
75.5857593798
 11
38.4368134962
 21
75.5857593798
  0
LINE
  5
238
100
AcDbEntity
  8
0
100
AcDbLine
 62
7
  6
BYLAYER
 10
27.7170605766
 20
76.5857593798
 11
30.4935097171
 21
76.5857593798
  0
LINE
  5
239
100
AcDbEntity
  8
0
100
AcDbLine
 62
7
  6
BYLAYER
 10
34.4935097171
 20
76.5857593798
 11
37.269958789
 21
76.5857593798
  0
LINE
  5
23A
100
AcDbEntity
  8
0
100
AcDbLine
 62
7
  6
BYLAYER
 10
28.9935640952
 20
79.5396560382
 11
30.6935097171
 21
79.5396560382
  0
LINE
  5
23B
100
AcDbEntity
  8
0
100
AcDbLine
 62
7
  6
BYLAYER
 10
34.2935097171
 20
79.5396560382
 11
35.9934553391
 21
79.5396560382
  0
LINE
  5
23C
100
AcDbEntity
  8
0
100
AcDbLine
 62
7
  6
BYLAYER
 10
30.6935097171
 20
82.6396560382
 11
34.2935097171
 21
82.6396560382
  0
ARC
  5
23D
100
AcDbEntity
  8
0
100
AcDbCircle
 62
7
  6
BYLAYER
 10
39.2261393913
 20
76.8403781404
 40
3.3785277851
100
AcDbArc
 50
180.012245988
 51
184.3737176562
  0
ARC
  5
23E
100
AcDbEntity
  8
0
100
AcDbCircle
 62
7
  6
BYLAYER
 10
25.7643333532
 20
76.8402539768
 40
3.3750744507
100
AcDbArc
 50
355.6232357157
 51
359.9898493033
  0
SPLINE
  5
23F
100
AcDbEntity
  8
0
100
AcDbSpline
 62
7
  6
BYLAYER
 70
0
 71
3
 72
26
 73
22
 74
0
 42
0.0000001
 43
0.0000001
 44
0.0000000001
 40
0.0
 40
0.0
 40
0.0
 40
0.0
 40
0.1933853844
 40
0.3794086748
 40
0.5511161331
 40
0.7023422675
 40
0.7685188944
 40
0.82752408
 40
0.8787300654
 40
0.9215485356
 40
0.9396574195
 40
0.9554852476
 40
0.9689761605
 40
0.9800880518
 40
0.9887810892
 40
0.9922080692
 40
0.9950153642
 40
0.997198608
 40
0.998756919
 40
0.9996906112
 40
1.0
 40
1.0
 40
1.0
 40
1.0
 10
35.8476116834
 20
76.8396560382
 30
0.0
 10
35.8476116834
 20
76.9050100715
 30
0.0
 10
35.8513863705
 20
77.0332611397
 30
0.0
 10
35.8673999467
 20
77.2189091117
 30
0.0
 10
35.8911097237
 20
77.3893378412
 30
0.0
 10
35.9150826524
 20
77.5186728817
 30
0.0
 10
35.9347568229
 20
77.6099925002
 30
0.0
 10
35.9482593443
 20
77.6680553822
 30
0.0
 10
35.9606833588
 20
77.7182582709
 30
0.0
 10
35.9702131412
 20
77.7549361639
 30
0.0
 10
35.9769278091
 20
77.7799916166
 30
0.0
 10
35.981138822
 20
77.7954558037
 30
0.0
 10
35.9847686643
 20
77.808630662
 30
0.0
 10
35.9877873422
 20
77.8194637316
 30
0.0
 10
35.9899162186
 20
77.8270362214
 30
0.0
 10
35.9912864492
 20
77.8318675025
 30
0.0
 10
35.9920714013
 20
77.8346515854
 30
0.0
 10
35.9926552707
 20
77.8366578083
 30
0.0
 10
35.9931343712
 20
77.8384549395
 30
0.0
 10
35.9933107068
 20
77.8388801621
 30
0.0
 10
35.9935110641
 20
77.8397848375
 30
0.0
 10
35.9935051224
 20
77.8396804494
 30
0.0
  0
SPLINE
  5
240
100
AcDbEntity
  8
0
100
AcDbSpline
 62
7
  6
BYLAYER
 70
0
 71
3
 72
28
 73
24
 74
0
 42
0.0000001
 43
0.0000001
 44
0.0000000001
 40
0.0
 40
0.0
 40
0.0
 40
0.0
 40
0.0003146026
 40
0.0012528819
 40
0.0028145231
 40
0.0049992111
 40
0.0078061576
 40
0.0112316863
 40
0.0199194346
 40
0.0310243846
 40
0.0445085469
 40
0.0603318345
 40
0.0784388325
 40
0.1212568834
 40
0.1724591796
 40
0.2314567269
 40
0.2976269105
 40
0.3703163379
 40
0.4488568708
 40
0.5325326419
 40
0.6205809655
 40
0.8066111674
 40
1.0
 40
1.0
 40
1.0
 40
1.0
 10
28.9935143118
 20
77.8396804494
 30
0.0
 10
28.9935203538
 20
77.8395742999
 30
0.0
 10
28.9936904235
 20
77.8391759847
 30
0.0
 10
28.9938968921
 20
77.8382520403
 30
0.0
 10
28.9943588123
 20
77.8367338976
 30
0.0
 10
28.9949499166
 20
77.834601043
 30
0.0
 10
28.9957315612
 20
77.8318653167
 30
0.0
 10
28.9971029957
 20
77.8270133352
 30
0.0
 10
28.9992313892
 20
77.8194606213
 30
0.0
 10
29.0022510942
 20
77.8086276258
 30
0.0
 10
29.0058808413
 20
77.7954612065
 30
0.0
 10
29.0100909258
 20
77.7800002296
 30
0.0
 10
29.0168045699
 20
77.7549466712
 30
0.0
 10
29.0263325968
 20
77.718269398
 30
0.0
 10
29.0387553629
 20
77.6680692217
 30
0.0
 10
29.0522568055
 20
77.6100111198
 30
0.0
 10
29.0663415537
 20
77.5446412793
 30
0.0
 10
29.080492156
 20
77.4725407424
 30
0.0
 10
29.0941659492
 20
77.3943336074
 30
0.0
 10
29.1068510934
 20
77.3107039918
 30
0.0
 10
29.1220472218
 20
77.1907472031
 30
0.0
 10
29.1356344239
 20
77.0332684155
 30
0.0
 10
29.1394077509
 20
76.9050126082
 30
0.0
 10
29.1394077509
 20
76.8396560382
 30
0.0
  0
SPLINE
  5
241
100
AcDbEntity
  8
0
100
AcDbSpline
 62
7
  6
BYLAYER
 70
0
 71
3
 72
19
 73
15
 74
0
 42
0.0000001
 43
0.0000001
 44
0.0000000001
 40
0.0
 40
0.0
 40
0.0
 40
0.0
 40
0.1786975545
 40
0.3511720247
 40
0.5113859477
 40
0.6540826774
 40
0.7174912867
 40
0.7750248334
 40
0.8264282943
 40
0.8715955489
 40
0.9106897751
 40
0.9442506313
 40
0.9733905201
 40
1.0
 40
1.0
 40
1.0
 40
1.0
 10
32.4935097171
 20
7.3018467766
 30
0.0
 10
32.2658297289
 20
7.3018467766
 30
0.0
 10
31.8182919437
 20
7.3145212435
 30
0.0
 10
31.1687785026
 20
7.3710247735
 30
0.0
 10
30.5696171925
 20
7.4627164888
 30
0.0
 10
30.1143762634
 20
7.5688931948
 30
0.0
 10
29.7942428563
 20
7.6711797247
 30
0.0
 10
29.5895169785
 20
7.751068029
 30
0.0
 10
29.4123771098
 20
7.8363106384
 30
0.0
 10
29.2643582435
 20
7.9262556254
 30
0.0
 10
29.1466367681
 20
8.0202571349
 30
0.0
 10
29.0601125549
 20
8.1180600712
 30
0.0
 10
29.0061898166
 20
8.2197942743
 30
0.0
 10
28.993519959
 20
8.2912443914
 30
0.0
 10
28.9935210031
 20
8.3251477432
 30
0.0
  0
SPLINE
  5
242
100
AcDbEntity
  8
0
100
AcDbSpline
 62
7
  6
BYLAYER
 70
0
 71
3
 72
15
 73
11
 74
0
 42
0.0000001
 43
0.0000001
 44
0.0000000001
 40
0.0
 40
0.0
 40
0.0
 40
0.0
 40
0.0161440524
 40
0.0363144952
 40
0.0645420508
 40
0.1449278173
 40
0.2567165061
 40
0.3993027012
 40
0.5717652469
 40
1.0
 40
1.0
 40
1.0
 40
1.0
 10
38.4934962678
 20
75.3396899125
 30
0.0
 10
38.4933137125
 20
75.3410365312
 30
0.0
 10
38.4923466763
 20
75.3439590531
 30
0.0
 10
38.4911538849
 20
75.349253992
 30
0.0
 10
38.4884691992
 20
75.3597608512
 30
0.0
 10
38.4840764522
 20
75.3777831528
 30
0.0
 10
38.4774233585
 20
75.4051665116
 30
0.0
 10
38.4691519507
 20
75.440130564
 30
0.0
 10
38.455073792
 20
75.5010929192
 30
0.0
 10
38.4442555782
 20
75.5504890237
 30
0.0
 10
38.4368134962
 20
75.5857593798
 30
0.0
  0
SPLINE
  5
243
100
AcDbEntity
  8
0
100
AcDbSpline
 62
7
  6
BYLAYER
 70
0
 71
3
 72
19
 73
15
 74
0
 42
0.0000001
 43
0.0000001
 44
0.0000000001
 40
0.0
 40
0.0
 40
0.0
 40
0.0
 40
0.0266091533
 40
0.0557482807
 40
0.0893085906
 40
0.1284011139
 40
0.1735676239
 40
0.2249692513
 40
0.2825019992
 40
0.3459102078
 40
0.4886082049
 40
0.6488238584
 40
0.821302234
 40
1.0
 40
1.0
 40
1.0
 40
1.0
 10
35.9934984312
 20
8.325147743
 30
0.0
 10
35.9934973871
 20
8.2912448117
 30
0.0
 10
35.9808298649
 20
8.2197965271
 30
0.0
 10
35.9269102798
 20
8.1180622712
 30
0.0
 10
35.8403862714
 20
8.0202645625
 30
0.0
 10
35.7226719891
 20
7.9262604214
 30
0.0
 10
35.5746555104
 20
7.8363216199
 30
0.0
 10
35.397522433
 20
7.7510754457
 30
0.0
 10
35.1927995845
 20
7.6711895722
 30
0.0
 10
34.872667374
 20
7.5688995756
 30
0.0
 10
34.4174231649
 20
7.4627218337
 30
0.0
 10
33.8182537515
 20
7.3710259383
 30
0.0
 10
33.1687328804
 20
7.314521909
 30
0.0
 10
32.7211899448
 20
7.3018467766
 30
0.0
 10
32.4935097171
 20
7.3018467766
 30
0.0
  0
SPLINE
  5
244
100
AcDbEntity
  8
0
100
AcDbSpline
 62
7
  6
BYLAYER
 70
0
 71
3
 72
10
 73
6
 74
0
 42
0.0000001
 43
0.0000001
 44
0.0000000001
 40
0.0
 40
0.0
 40
0.0
 40
0.0
 40
0.5344364345
 40
0.7811469125
 40
1.0
 40
1.0
 40
1.0
 40
1.0
 10
27.7170606367
 20
76.5857591387
 30
0.0
 10
27.5144624168
 20
76.4015720259
 30
0.0
 10
27.2129304072
 20
76.1382849062
 30
0.0
 10
26.820759382
 20
75.808616365
 30
0.0
 10
26.6369421733
 20
75.6566086551
 30
0.0
 10
26.5502104701
 20
75.5855476743
 30
0.0
  0
SPLINE
  5
245
100
AcDbEntity
  8
0
100
AcDbSpline
 62
7
  6
BYLAYER
 70
0
 71
3
 72
10
 73
6
 74
0
 42
0.0000001
 43
0.0000001
 44
0.0000000001
 40
0.0
 40
0.0
 40
0.0
 40
0.0
 40
0.2188526732
 40
0.4655632004
 40
1.0
 40
1.0
 40
1.0
 40
1.0
 10
38.4368090926
 20
75.5855471832
 30
0.0
 10
38.3500775316
 20
75.65660805
 30
0.0
 10
38.166260613
 20
75.8086159178
 30
0.0
 10
37.7740894784
 20
76.1382845395
 30
0.0
 10
37.4725572104
 20
76.4015718505
 30
0.0
 10
37.2699587978
 20
76.5857591385
 30
0.0
  0
SPLINE
  5
246
100
AcDbEntity
  8
0
100
AcDbSpline
 62
7
  6
BYLAYER
 70
0
 71
3
 72
13
 73
9
 74
0
 42
0.0000001
 43
0.0000001
 44
0.0000000001
 40
0.0
 40
0.0
 40
0.0
 40
0.0
 40
0.428221504
 40
0.7432807055
 40
0.8550816439
 40
0.9354758445
 40
0.9838719866
 40
1.0
 40
1.0
 40
1.0
 40
1.0
 10
26.5502061059
 20
75.5857593798
 30
0.0
 10
26.5427642963
 20
75.5504903217
 30
0.0
 10
26.5294882628
 20
75.4899264809
 30
0.0
 10
26.5127884153
 20
75.4182561828
 30
0.0
 10
26.5031886078
 20
75.3788694634
 30
0.0
 10
26.4976037965
 20
75.3556897815
 30
0.0
 10
26.4959589843
 20
75.3500915417
 30
0.0
 10
26.4932959067
 20
75.3383527076
 30
0.0
 10
26.4935231007
 20
75.3396911404
 30
0.0
  0
SPLINE
  5
247
100
AcDbEntity
  8
0
100
AcDbSpline
 62
7
  6
BYLAYER
 70
0
 71
3
 72
25
 73
21
 74
0
 42
0.0000001
 43
0.0000001
 44
0.0000000001
 40
0.0
 40
0.0
 40
0.0
 40
0.0
 40
0.1947067236
 40
0.3819390468
 40
0.7060047497
 40
0.7719707036
 40
0.8305525151
 40
0.8811754387
 40
0.9233256878
 40
0.9410899002
 40
0.9565883786
 40
0.9697777905
 40
0.980621881
 40
0.9890917699
 40
0.9924274663
 40
0.9951589033
 40
0.997282563
 40
0.9987968096
 40
0.9997023409
 40
1.0
 40
1.0
 40
1.0
 40
1.0
 10
32.4935097171
 20
61.7126347838
 30
0.0
 10
31.9889861549
 20
61.7126347838
 30
0.0
 10
30.999246786
 20
61.7258468306
 30
0.0
 10
29.1711304478
 20
61.7980534527
 30
0.0
 10
27.678849051
 20
61.9090467735
 30
0.0
 10
26.5222420773
 20
62.0254173646
 30
0.0
 10
26.0710039256
 20
62.0745732651
 30
0.0
 10
25.6814358559
 20
62.1198802278
 30
0.0
 10
25.3971346785
 20
62.1546896278
 30
0.0
 10
25.2032650786
 20
62.1791970793
 30
0.0
 10
25.0838885348
 20
62.1945573768
 30
0.0
 10
24.9822960772
 20
62.2078066071
 30
0.0
 10
24.8988443234
 20
62.2188082624
 30
0.0
 10
24.8405554988
 20
62.2265625106
 30
0.0
 10
24.803393318
 20
62.2315548986
 30
0.0
 10
24.7819976456
 20
62.2344131931
 30
0.0
 10
24.7665737135
 20
62.2365484156
 30
0.0
 10
24.7528029122
 20
62.2382848773
 30
0.0
 10
24.749497578
 20
62.2389487681
 30
0.0
 10
24.7426382862
 20
62.2396570334
 30
0.0
 10
24.7434095076
 20
62.2396464862
 30
0.0
  0
SPLINE
  5
248
100
AcDbEntity
  8
0
100
AcDbSpline
 62
7
  6
BYLAYER
 70
0
 71
3
 72
28
 73
24
 74
0
 42
0.0000001
 43
0.0000001
 44
0.0000000001
 40
0.0
 40
0.0
 40
0.0
 40
0.0
 40
0.0003093755
 40
0.0012249438
 40
0.0027458624
 40
0.0048712875
 40
0.0075999522
 40
0.010929545
 40
0.0193816376
 40
0.0302078264
 40
0.0433882028
 40
0.0588911499
 40
0.0766668644
 40
0.1188310446
 40
0.1694419585
 40
0.2280105724
 40
0.293975002
 40
0.3666816309
 40
0.4454334531
 40
0.529494823
 40
0.6180608495
 40
0.8052936823
 40
1.0
 40
1.0
 40
1.0
 40
1.0
 10
40.2436099266
 20
62.2396464862
 30
0.0
 10
40.2428083291
 20
62.2396355236
 30
0.0
 10
40.239678085
 20
62.2389921993
 30
0.0
 10
40.2326107359
 20
62.2382598065
 30
0.0
 10
40.2209037796
 20
62.2365629597
 30
0.0
 10
40.2045284368
 20
62.2344117129
 30
0.0
 10
40.1835137322
 20
62.2315596863
 30
0.0
 10
40.1462478692
 20
62.2265620598
 30
0.0
 10
40.0881807216
 20
62.2188026606
 30
0.0
 10
40.0047955983
 20
62.2077939273
 30
0.0
 10
39.9032763758
 20
62.1945495357
 30
0.0
 10
39.783872031
 20
62.1791951851
 30
0.0
 10
39.5899209938
 20
62.1546965244
 30
0.0
 10
39.3055748395
 20
62.1198998565
 30
0.0
 10
38.9160291262
 20
62.0745746814
 30
0.0
 10
38.4648511416
 20
62.0254157812
 30
0.0
 10
37.9563122454
 20
61.9742557902
 30
0.0
 10
37.395235638
 20
61.923053398
 30
0.0
 10
36.7869276299
 20
61.8737303345
 30
0.0
 10
36.1371137161
 20
61.8282494949
 30
0.0
 10
35.2061846744
 20
61.7739687424
 30
0.0
 10
33.9877965874
 20
61.7258467798
 30
0.0
 10
32.9980444007
 20
61.7126347838
 30
0.0
 10
32.4935097171
 20
61.7126347838
 30
0.0
  0
ENDSEC
  0
SECTION
  2
OBJECTS
  0
DICTIONARY
  5
C
100
AcDbDictionary
280
0
281
1
  3
ACAD_GROUP
350
D
  3
ACAD_MLINESTYLE
350
17
  3
ACAD_LAYOUT
350
1A
  3
ACAD_PLOTSETTINGS
350
19
  3
ACAD_PLOTSTYLENAME
350
E
  0
DICTIONARY
  5
D
102
{ACAD_REACTORS
330
C
102
}
100
AcDbDictionary
280
0
281
1
  0
ACDBDICTIONARYWDFLT
  5
E
102
{ACAD_REACTORS
330
C
102
}
100
AcDbDictionary
281
1
  3
Normal
350
F
100
AcDbDictionaryWithDefault
340
F
  0
DICTIONARY
  5
17
102
{ACAD_REACTORS
330
C
102
}
100
AcDbDictionary
280
0
281
1
  3
Standard
350
18
  0
DICTIONARY
  5
19
102
{ACAD_REACTORS
330
C
102
}
100
AcDbDictionary
281
1
  0
DICTIONARY
  5
1A
102
{ACAD_REACTORS
330
C
102
}
100
AcDbDictionary
281
1
  3
Model
350
249
  3
Layout1
350
24A
  0
ACDBPLACEHOLDER
  5
F
102
{ACAD_REACTORS
330
E
102
}
  0
MLINESTYLE
  5
18
102
{ACAD_REACTORS
330
17
102
}
100
AcDbMlineStyle
  2
STANDARD
 70
0
  3

 62
256
 51
90.0
 52
90.0
 71
2
 49
0.5
 62
256
  6
BYLAYER
 49
-0.5
 62
256
  6
BYLAYER
  0
LAYOUT
  5
249
102
{ACAD_REACTORS
330
1A
102
}
100
AcDbPlotSettings
  1

  2
none_device
  4

  6

 40
0.0
 41
0.0
 42
0.0
 43
0.0
 44
210.0
 45
297.0
 46
0.0
 47
0.0
 48
0.0
 49
0.0
140
0.0
141
0.0
142
1.0
143
1.0
 70
1024
 72
1
 73
0
 74
0
  7

 75
0
147
1.0
148
0.0
149
0.0
100
AcDbLayout
  1
Model
 70
0
 71
0
 10
0.0
 20
0.0
 11
210.0
 21
297.0
 12
0.0
 22
0.0
 32
0.0
 14
0.0
 24
0.0
 34
0.0
 15
0.0
 25
0.0
 35
0.0
146
0.0
 13
0.0
 23
0.0
 33
0.0
 16
1.0
 26
0.0
 36
0.0
 17
0.0
 27
1.0
 37
0.0
 76
0
330
210
345
0
346
0
  0
LAYOUT
  5
24A
102
{ACAD_REACTORS
330
1A
102
}
100
AcDbPlotSettings
  1

  2
none_device
  4

  6

 40
0.0
 41
0.0
 42
0.0
 43
0.0
 44
210.0
 45
297.0
 46
0.0
 47
0.0
 48
0.0
 49
0.0
140
0.0
141
0.0
142
1.0
143
1.0
 70
0
 72
1
 73
0
 74
0
  7

 75
0
147
1.0
148
0.0
149
0.0
100
AcDbLayout
  1
Layout1
 70
0
 71
1
 10
0.0
 20
0.0
 11
210.0
 21
297.0
 12
0.0
 22
0.0
 32
0.0
 14
0.0
 24
0.0
 34
0.0
 15
0.0
 25
0.0
 35
0.0
146
0.0
 13
0.0
 23
0.0
 33
0.0
 16
1.0
 26
0.0
 36
0.0
 17
0.0
 27
1.0
 37
0.0
 76
0
330
211
345
0
346
0
  0
ENDSEC
  0
EOF
