999
DXF file: C:\Users\sesa63760\Dev\_Creo\CAD\MCADPD0004197_3D-CAD\drw0001_1.dxf
999
Pro/ENGINEER 2019471 by Parametric Technology Corporation
  0
SECTION
  2
HEADER
  9
$ACADVER
  1
AC1024
  9
$DWGCODEPAGE
  3
ANSI_1252
  9
$EXTMAX
 10
55.9200132951
 20
79.086875946
 30
0.0
  9
$EXTMIN
 10
0.0
 20
0.0
 30
0.0
  9
$LIMMIN
 10
0.0
 20
0.0
  9
$LIMMAX
 10
55.9200132951
 20
79.086875946
  9
$VIEWCTR
 10
27.9600066476
 20
39.543437973
  9
$VIEWSIZE
 40
79.086875946
  9
$CLAYER
  8
0
  9
$LTSCALE
 40
5.1552926543
  9
$CELTYPE
  6
BYLAYER
  9
$DIMSCALE
 40
1.0
  9
$DIMASZ
 40
0.665714444
  9
$DIMEXO
 40
1.0
  9
$DIMDLI
 40
3.5618385611
  9
$DIMEXE
 40
1.0
  9
$DIMCEN
 40
0.8435933434
  9
$DIMLFAC
 40
1.0
  9
$DIMBLK
  1
_FILLED
  9
$DIMALT
 70
0
  9
$DIMALTF
 40
0.0393700787
  9
$DIMTXT
 40
0.9320002216
  9
$DIMTOL
 70
1
  9
$DIMLIM
 70
0
  9
$DIMTFAC
 40
1.0
  9
$DIMTP
 40
0.01
  9
$DIMTM
 40
0.01
  9
$DIMGAP
 40
0.625
  9
$DIMDSEP
 70
46
  9
$AUNITS
 70
0
  9
$PDMODE
 70
3
  9
$PDSIZE
 40
0.3125
  9
$HANDSEED
  5
2EC
  9
$TILEMODE
 70
1
  9
$MEASUREMENT
 70
1
  9
$INSUNITS
 70
4
  0
ENDSEC
  0
SECTION
  2
CLASSES
  0
CLASS
  1
ACDBDICTIONARYWDFLT
  2
AcDbDictionaryWithDefault
  3
AutoCAD 2000
 90
0
 91
1
280
0
281
0
  0
CLASS
  1
ACDBPLACEHOLDER
  2
AcDbPlaceHolder
  3
AutoCAD 2000
 90
0
 91
1
280
0
281
0
  0
CLASS
  1
LAYOUT
  2
AcDbLayout
  3
AutoCAD 2000
 90
0
 91
0
280
0
281
0
  0
ENDSEC
  0
SECTION
  2
TABLES
  0
TABLE
  2
VPORT
  5
8
100
AcDbSymbolTable
 70
2
  0
VPORT
  5
1F4
100
AcDbSymbolTableRecord
100
AcDbViewportTableRecord
  2
*ACTIVE
 70
0
 10
0.0
 20
0.0
 11
1.0
 21
1.0
 12
27.9600066476
 22
39.543437973
 13
0.0
 23
0.0
 14
1.0
 24
1.0
 15
0.0
 25
0.0
 16
0.0
 26
0.0
 36
1.0
 17
0.0
 27
0.0
 37
0.0
 40
79.086875946
 41
0.7070707071
 42
50.0
 43
0.0
 44
0.0
 50
0.0
 51
0.0
 71
0
 72
100
 73
1
 74
1
 75
0
 76
0
 77
0
 78
0
  0
ENDTAB
  0
TABLE
  2
LTYPE
  5
5
100
AcDbSymbolTable
 70
6
  0
LTYPE
  5
14
100
AcDbSymbolTableRecord
100
AcDbLinetypeTableRecord
  2
BYBLOCK
 70
0
  3

 72
65
 73
0
 40
0.0
  0
LTYPE
  5
15
100
AcDbSymbolTableRecord
100
AcDbLinetypeTableRecord
  2
BYLAYER
 70
0
  3

 72
65
 73
0
 40
0.0
  0
LTYPE
  5
16
100
AcDbSymbolTableRecord
100
AcDbLinetypeTableRecord
  2
CONTINUOUS
 70
64
  3
Solid line
 72
65
 73
0
 40
0.0
  0
LTYPE
  5
1F5
100
AcDbSymbolTableRecord
100
AcDbLinetypeTableRecord
  2
CENTER
 70
64
  3
____ _ ____ _ ____ _ ____ _ ____ _ ____ _ ____
 72
65
 73
4
 40
0.6
 49
0.375
 74
0
 49
-0.075
 74
0
 49
0.075
 74
0
 49
-0.075
 74
0
  0
LTYPE
  5
1F6
100
AcDbSymbolTableRecord
100
AcDbLinetypeTableRecord
  2
HIDDEN
 70
64
  3
- - - - - - - - - - - - - - - - - - - -
 72
65
 73
2
 40
0.2
 49
0.1
 74
0
 49
-0.1
 74
0
  0
LTYPE
  5
1F7
100
AcDbSymbolTableRecord
100
AcDbLinetypeTableRecord
  2
PHANTOM
 70
64
  3
_____ _ _ _____ _ _ _____ _ _ _____
 72
65
 73
6
 40
0.8
 49
0.45
 74
0
 49
-0.05
 74
0
 49
0.1
 74
0
 49
-0.05
 74
0
 49
0.1
 74
0
 49
-0.05
 74
0
  0
LTYPE
  5
1F8
100
AcDbSymbolTableRecord
100
AcDbLinetypeTableRecord
  2
DOT
 70
64
  3
. . . . . . . . . . . . . . . . . . . .
 72
65
 73
2
 40
0.2
 49
0.1
 74
0
 49
-0.1
 74
0
  0
LTYPE
  5
1F9
100
AcDbSymbolTableRecord
100
AcDbLinetypeTableRecord
  2
DASHED
 70
64
  3
- - - - - - - - - - - - - - - - - - - -
 72
65
 73
2
 40
0.2
 49
0.1
 74
0
 49
-0.1
 74
0
  0
ENDTAB
  0
TABLE
  2
LAYER
  5
2
100
AcDbSymbolTable
 70
36
  0
LAYER
  5
10
100
AcDbSymbolTableRecord
100
AcDbLayerTableRecord
  2
0
 70
0
 62
7
  6
CONTINUOUS
370
-3
390
F
  0
LAYER
  5
1FA
100
AcDbSymbolTableRecord
100
AcDbLayerTableRecord
  2
DEFAULT_1
 70
0
 62
7
  6
CENTER
370
-3
390
F
  0
LAYER
  5
1FB
100
AcDbSymbolTableRecord
100
AcDbLayerTableRecord
  2
DEFAULT_2
 70
0
 62
7
  6
HIDDEN
370
-3
390
F
  0
LAYER
  5
1FC
100
AcDbSymbolTableRecord
100
AcDbLayerTableRecord
  2
DEFAULT_3
 70
0
 62
7
  6
PHANTOM
370
-3
390
F
  0
LAYER
  5
1FD
100
AcDbSymbolTableRecord
100
AcDbLayerTableRecord
  2
00_COMPONENTS
 70
0
 62
7
  6
CONTINUOUS
370
-3
390
F
  0
LAYER
  5
1FE
100
AcDbSymbolTableRecord
100
AcDbLayerTableRecord
  2
01_1_DEFAULT_DATUMS
 70
0
 62
7
  6
CONTINUOUS
370
-3
390
F
  0
LAYER
  5
1FF
100
AcDbSymbolTableRecord
100
AcDbLayerTableRecord
  2
01_PLANES
 70
0
 62
7
  6
CONTINUOUS
370
-3
390
F
  0
LAYER
  5
200
100
AcDbSymbolTableRecord
100
AcDbLayerTableRecord
  2
02_COORD_SYS
 70
0
 62
7
  6
CONTINUOUS
370
-3
390
F
  0
LAYER
  5
201
100
AcDbSymbolTableRecord
100
AcDbLayerTableRecord
  2
03_AXES
 70
0
 62
7
  6
CONTINUOUS
370
-3
390
F
  0
LAYER
  5
202
100
AcDbSymbolTableRecord
100
AcDbLayerTableRecord
  2
04_POINTS
 70
0
 62
7
  6
CONTINUOUS
370
-3
390
F
  0
LAYER
  5
203
100
AcDbSymbolTableRecord
100
AcDbLayerTableRecord
  2
05_CURVES
 70
0
 62
7
  6
CONTINUOUS
370
-3
390
F
  0
LAYER
  5
204
100
AcDbSymbolTableRecord
100
AcDbLayerTableRecord
  2
06_SURFS
 70
0
 62
7
  6
CONTINUOUS
370
-3
390
F
  0
LAYER
  5
205
100
AcDbSymbolTableRecord
100
AcDbLayerTableRecord
  2
07_COSMETICS
 70
0
 62
7
  6
CONTINUOUS
370
-3
390
F
  0
LAYER
  5
206
100
AcDbSymbolTableRecord
100
AcDbLayerTableRecord
  2
10_NOTES
 70
0
 62
7
  6
CONTINUOUS
370
-3
390
F
  0
LAYER
  5
207
100
AcDbSymbolTableRecord
100
AcDbLayerTableRecord
  2
11_NOTES_PUB
 70
0
 62
7
  6
CONTINUOUS
370
-3
390
F
  0
LAYER
  5
208
100
AcDbSymbolTableRecord
100
AcDbLayerTableRecord
  2
13_REF_GTOL
 70
0
 62
7
  6
CONTINUOUS
370
-3
390
F
  0
LAYER
  5
209
100
AcDbSymbolTableRecord
100
AcDbLayerTableRecord
  2
16_MISC
 70
0
 62
7
  6
CONTINUOUS
370
-3
390
F
  0
LAYER
  5
20A
100
AcDbSymbolTableRecord
100
AcDbLayerTableRecord
  2
17_NO_PRINT
 70
0
 62
7
  6
CONTINUOUS
370
-3
390
F
  0
LAYER
  5
20B
100
AcDbSymbolTableRecord
100
AcDbLayerTableRecord
  2
18_DATUM_CAMS_JOINTS
 70
0
 62
7
  6
CONTINUOUS
370
-3
390
F
  0
LAYER
  5
20C
100
AcDbSymbolTableRecord
100
AcDbLayerTableRecord
  2
19_DATUM_FUNCTIONAL
 70
0
 62
7
  6
CONTINUOUS
370
-3
390
F
  0
LAYER
  5
20D
100
AcDbSymbolTableRecord
100
AcDbLayerTableRecord
  2
20_DATUM_KINEMATIC_SCHEME
 70
0
 62
7
  6
CONTINUOUS
370
-3
390
F
  0
ENDTAB
  0
TABLE
  2
STYLE
  5
3
100
AcDbSymbolTable
 70
1
  0
STYLE
  5
11
100
AcDbSymbolTableRecord
100
AcDbTextStyleTableRecord
  2
STANDARD
 70
0
 40
0.0
 41
1.0
 50
0.0
 71
0
 42
0.2
  3
ARIAL.TTF
  4

  0
STYLE
  5
20E
100
AcDbSymbolTableRecord
100
AcDbTextStyleTableRecord
  2
TEXTSTYLE_1
 70
0
 40
0.0
 41
0.8
 50
0.0
 71
0
 42
0.2
  3
gdt
  4

  0
ENDTAB
  0
TABLE
  2
VIEW
  5
6
100
AcDbSymbolTable
 70
0
  0
ENDTAB
  0
TABLE
  2
UCS
  5
7
100
AcDbSymbolTable
 70
0
  0
ENDTAB
  0
TABLE
  2
APPID
  5
9
100
AcDbSymbolTable
 70
1
  0
APPID
  5
20F
100
AcDbSymbolTableRecord
100
AcDbRegAppTableRecord
  2
ACAD
 70
0
  0
ENDTAB
  0
TABLE
  2
BLOCK_RECORD
  5
1
100
AcDbSymbolTable
 70
0
  0
BLOCK_RECORD
  5
210
100
AcDbSymbolTableRecord
100
AcDbBlockTableRecord
  2
*Model_Space
  0
BLOCK_RECORD
  5
211
100
AcDbSymbolTableRecord
100
AcDbBlockTableRecord
  2
*Paper_Space
  0
BLOCK_RECORD
  5
212
100
AcDbSymbolTableRecord
100
AcDbBlockTableRecord
  2
_FILLED
  0
ENDTAB
  0
TABLE
  2
DIMSTYLE
  5
A
100
AcDbSymbolTable
 70
1
100
AcDbDimStyleTable
 71
0
  0
DIMSTYLE
105
213
100
AcDbSymbolTableRecord
100
AcDbDimStyleTableRecord
  2
STANDARD
 70
0
  3

  4

 40
1.0
 41
0.665714444
 42
1.0
 43
0.38
 44
1.0
 45
0.0
 46
0.0
 47
0.01
 48
0.01
140
0.9320002216
141
0.09
142
0.0
143
25.4
144
1.0
145
0.0
146
1.0
147
0.625
 71
1
 72
0
 73
0
 74
0
 75
0
 76
0
 77
1
 78
8
 79
2
170
0
171
1
172
0
173
0
174
0
175
0
176
0
177
0
178
0
270
2
179
2
271
2
272
2
273
2
274
2
275
0
280
0
281
0
282
0
283
1
284
8
285
0
286
0
287
3
288
0
340
11
278
46
341
212
342
212
343
212
344
212
  0
ENDTAB
  0
ENDSEC
  0
SECTION
  2
BLOCKS
  0
BLOCK
  5
20
100
AcDbEntity
  8
0
100
AcDbBlockBegin
  2
*Model_Space
 70
0
 10
0.0
 20
0.0
 30
0.0
  3
*Model_Space
  1

  0
ENDBLK
  5
21
100
AcDbEntity
  8
0
100
AcDbBlockEnd
  0
BLOCK
  5
1C
100
AcDbEntity
  8
0
100
AcDbBlockBegin
  2
*Paper_Space
 70
0
 10
0.0
 20
0.0
 30
0.0
  3
*Paper_Space
  1

  0
ENDBLK
  5
1D
100
AcDbEntity
  8
0
100
AcDbBlockEnd
  0
BLOCK
  5
214
100
AcDbEntity
  8
0
100
AcDbBlockBegin
  2
_FILLED
 70
64
 10
0.0
 20
0.0
  3
_FILLED
  1

  0
SOLID
  5
215
100
AcDbEntity
  8
0
  6
BYBLOCK
 62
0
100
AcDbTrace
 10
0.0
 20
0.0
 11
-1.0
 21
0.25
 12
-1.0
 22
-0.25
 13
-1.0
 23
-0.25
  0
ENDBLK
  5
216
100
AcDbEntity
  8
0
  6
BYBLOCK
 62
0
100
AcDbBlockEnd
  0
ENDSEC
  0
SECTION
  2
ENTITIES
  0
LINE
  5
217
100
AcDbEntity
  8
0
100
AcDbLine
 62
7
  6
BYLAYER
 10
6.4863899817
 20
44.7024769977
 11
6.4863899817
 21
43.0286470426
  0
LINE
  5
218
100
AcDbEntity
  8
0
100
AcDbLine
 62
7
  6
BYLAYER
 10
6.8438362891
 20
44.2042616442
 11
6.8438362891
 21
42.5304316891
  0
LINE
  5
219
100
AcDbEntity
  8
0
100
AcDbLine
 62
7
  6
BYLAYER
 10
6.9869654798
 20
44.7190983331
 11
6.9869654798
 21
44.7024771128
  0
LINE
  5
21A
100
AcDbEntity
  8
0
100
AcDbLine
 62
7
  6
BYLAYER
 10
7.0382253855
 20
44.5583153128
 11
7.0382253855
 21
45.4590379045
  0
LINE
  5
21B
100
AcDbEntity
  8
0
100
AcDbLine
 62
7
  6
BYLAYER
 10
6.9869654798
 20
44.7190983331
 11
6.9864883416
 21
44.7024771128
  0
LINE
  5
21C
100
AcDbEntity
  8
0
100
AcDbLine
 62
7
  6
BYLAYER
 10
6.4864515835
 20
44.7024770165
 11
6.4873649173
 21
44.7306347461
  0
LINE
  5
21D
100
AcDbEntity
  8
0
100
AcDbLine
 62
7
  6
BYLAYER
 10
6.4873649173
 20
44.7306347461
 11
6.538624823
 21
45.4705743176
  0
LINE
  5
21E
100
AcDbEntity
  8
0
100
AcDbLine
 62
7
  6
BYLAYER
 10
7.0382253855
 20
45.4590379045
 11
6.9869654798
 21
44.7190983331
  0
LINE
  5
21F
100
AcDbEntity
  8
0
100
AcDbLine
 62
7
  6
BYLAYER
 10
11.6417143786
 20
39.7604381482
 11
11.6417143786
 21
41.4342681033
  0
LINE
  5
220
100
AcDbEntity
  8
0
100
AcDbLine
 62
7
  6
BYLAYER
 10
12.351357481
 20
41.1950726832
 11
12.351357481
 21
39.5212427281
  0
LINE
  5
221
100
AcDbEntity
  8
0
100
AcDbLine
 62
7
  6
BYLAYER
 10
15.8071433356
 20
39.1879679908
 11
15.8071433356
 21
37.5141380357
  0
LINE
  5
222
100
AcDbEntity
  8
0
100
AcDbLine
 62
7
  6
BYLAYER
 10
15.909904158
 20
39.5916414858
 11
15.909904158
 21
40.623193187
  0
LINE
  5
223
100
AcDbEntity
  8
0
100
AcDbLine
 62
7
  6
BYLAYER
 10
16.0013388076
 20
38.9172947072
 11
16.0013388076
 21
37.243464752
  0
LINE
  5
224
100
AcDbEntity
  8
0
100
AcDbLine
 62
7
  6
BYLAYER
 10
16.3091622497
 20
39.2027344456
 11
16.3091622497
 21
39.187967951
  0
LINE
  5
225
100
AcDbEntity
  8
0
100
AcDbLine
 62
7
  6
BYLAYER
 10
16.1374577467
 20
40.4186264077
 11
16.1411096603
 21
40.447276436
  0
LINE
  5
226
100
AcDbEntity
  8
0
100
AcDbLine
 62
7
  6
BYLAYER
 10
15.8071684231
 20
39.1879679788
 11
15.8153545482
 21
39.2480252761
  0
LINE
  5
227
100
AcDbEntity
  8
0
100
AcDbLine
 62
7
  6
BYLAYER
 10
15.8153545482
 20
39.2480252761
 11
16.1374577467
 21
40.4186264077
  0
LINE
  5
228
100
AcDbEntity
  8
0
100
AcDbLine
 62
7
  6
BYLAYER
 10
17.7985756484
 20
33.5184312224
 11
17.8571548809
 21
33.4367823917
  0
LINE
  5
229
100
AcDbEntity
  8
0
100
AcDbLine
 62
7
  6
BYLAYER
 10
17.8571548809
 20
33.4367823917
 11
17.8985773451
 21
33.3452251621
  0
LINE
  5
22A
100
AcDbEntity
  8
0
100
AcDbLine
 62
7
  6
BYLAYER
 10
16.6312654482
 20
38.9618553737
 11
16.6312654482
 21
40.3733355772
  0
LINE
  5
22B
100
AcDbEntity
  8
0
100
AcDbLine
 62
7
  6
BYLAYER
 10
16.6413748193
 20
38.9560188576
 11
16.6413748193
 21
40.3733355772
  0
LINE
  5
22C
100
AcDbEntity
  8
0
100
AcDbLine
 62
7
  6
BYLAYER
 10
17.7985756484
 20
38.4990959669
 11
17.7985756484
 21
33.5184312224
  0
LINE
  5
22D
100
AcDbEntity
  8
0
100
AcDbLine
 62
7
  6
BYLAYER
 10
17.8571548809
 20
38.4174471362
 11
17.8571548809
 21
33.4367823917
  0
LINE
  5
22E
100
AcDbEntity
  8
0
100
AcDbLine
 62
7
  6
BYLAYER
 10
16.3091622497
 20
39.2027344456
 11
16.3071802568
 21
39.187967951
  0
LINE
  5
22F
100
AcDbEntity
  8
0
100
AcDbLine
 62
7
  6
BYLAYER
 10
16.6411974319
 20
40.4472762896
 11
16.6312654482
 21
40.3733355772
  0
LINE
  5
230
100
AcDbEntity
  8
0
100
AcDbLine
 62
7
  6
BYLAYER
 10
16.6312654482
 20
40.3733355772
 11
16.3091622497
 21
39.2027344456
  0
LINE
  5
231
100
AcDbEntity
  8
0
100
AcDbLine
 62
7
  6
BYLAYER
 10
26.4131813776
 20
28.4970657602
 11
26.3131852436
 21
28.4871639407
  0
LINE
  5
232
100
AcDbEntity
  8
0
100
AcDbLine
 62
7
  6
BYLAYER
 10
31.6872169854
 20
25.384530449
 11
27.373847662
 21
27.8747990515
  0
LINE
  5
233
100
AcDbEntity
  8
0
100
AcDbLine
 62
7
  6
BYLAYER
 10
26.3131830743
 20
28.4871601833
 11
25.3939404316
 21
29.0178731642
  0
LINE
  5
234
100
AcDbEntity
  8
0
100
AcDbLine
 62
7
  6
BYLAYER
 10
24.3332758439
 20
29.630234296
 11
23.4140332012
 21
30.1609472768
  0
LINE
  5
235
100
AcDbEntity
  8
0
100
AcDbLine
 62
7
  6
BYLAYER
 10
22.3533686135
 20
30.7733084086
 11
21.4341259708
 21
31.3040213895
  0
LINE
  5
236
100
AcDbEntity
  8
0
100
AcDbLine
 62
7
  6
BYLAYER
 10
20.3734613831
 20
31.9163825213
 11
17.8985773451
 21
33.3452251621
  0
LINE
  5
237
100
AcDbEntity
  8
0
100
AcDbLine
 62
7
  6
BYLAYER
 10
17.8571548809
 20
33.4367823917
 11
20.3320389189
 21
32.0079397508
  0
LINE
  5
238
100
AcDbEntity
  8
0
100
AcDbLine
 62
7
  6
BYLAYER
 10
20.4734596864
 20
31.9262880982
 11
22.3119461494
 21
30.8648656382
  0
LINE
  5
239
100
AcDbEntity
  8
0
100
AcDbLine
 62
7
  6
BYLAYER
 10
22.4533669168
 20
30.7832139855
 11
24.2918533798
 21
29.7217915255
  0
LINE
  5
23A
100
AcDbEntity
  8
0
100
AcDbLine
 62
7
  6
BYLAYER
 10
24.4332741472
 20
29.6401398729
 11
26.2717606102
 21
28.5787174129
  0
LINE
  5
23B
100
AcDbEntity
  8
0
100
AcDbLine
 62
7
  6
BYLAYER
 10
26.4131813776
 20
28.4970657602
 11
31.6457945213
 21
25.4760876785
  0
LINE
  5
23C
100
AcDbEntity
  8
0
100
AcDbLine
 62
7
  6
BYLAYER
 10
20.3734635523
 20
31.9163862786
 11
20.3320389189
 21
32.0079397508
  0
LINE
  5
23D
100
AcDbEntity
  8
0
100
AcDbLine
 62
7
  6
BYLAYER
 10
24.4332741472
 20
29.6401398729
 11
24.3332780132
 21
29.6302380533
  0
LINE
  5
23E
100
AcDbEntity
  8
0
100
AcDbLine
 62
7
  6
BYLAYER
 10
17.8571548809
 20
38.4174471362
 11
17.7985756484
 21
38.4990959669
  0
LINE
  5
23F
100
AcDbEntity
  8
0
100
AcDbLine
 62
7
  6
BYLAYER
 10
21.3927035067
 20
31.3955786191
 11
21.4341281401
 21
31.3040251469
  0
LINE
  5
240
100
AcDbEntity
  8
0
100
AcDbLine
 62
7
  6
BYLAYER
 10
22.3533707828
 20
30.773312166
 11
22.3119461494
 21
30.8648656382
  0
LINE
  5
241
100
AcDbEntity
  8
0
100
AcDbLine
 62
7
  6
BYLAYER
 10
20.3320389189
 20
36.9886044953
 11
20.3320389189
 21
32.0079397508
  0
LINE
  5
242
100
AcDbEntity
  8
0
100
AcDbLine
 62
7
  6
BYLAYER
 10
20.4734596864
 20
31.9262880982
 11
20.4734596864
 21
37.2335538095
  0
LINE
  5
243
100
AcDbEntity
  8
0
100
AcDbLine
 62
7
  6
BYLAYER
 10
20.5512362245
 20
40.2038062036
 11
20.5512362245
 21
41.9691480128
  0
LINE
  5
244
100
AcDbEntity
  8
0
100
AcDbLine
 62
7
  6
BYLAYER
 10
21.1260039104
 20
53.892551288
 11
21.1260039104
 21
52.2187213329
  0
LINE
  5
245
100
AcDbEntity
  8
0
100
AcDbLine
 62
7
  6
BYLAYER
 10
21.1459900096
 20
51.9302810333
 11
21.1459900096
 21
53.6041109884
  0
LINE
  5
246
100
AcDbEntity
  8
0
100
AcDbLine
 62
7
  6
BYLAYER
 10
21.3927035067
 20
36.3762433636
 11
21.3927035067
 21
31.3955786191
  0
LINE
  5
247
100
AcDbEntity
  8
0
100
AcDbLine
 62
7
  6
BYLAYER
 10
21.584159081
 20
40.800160933
 11
21.584159081
 21
41.6136429585
  0
LINE
  5
248
100
AcDbEntity
  8
0
100
AcDbLine
 62
7
  6
BYLAYER
 10
22.4533669168
 20
30.7832139855
 11
22.3533707828
 21
30.773312166
  0
LINE
  5
249
100
AcDbEntity
  8
0
100
AcDbLine
 62
7
  6
BYLAYER
 10
20.4734596864
 20
31.9262880982
 11
20.3734635523
 21
31.9163862786
  0
LINE
  5
24A
100
AcDbEntity
  8
0
100
AcDbLine
 62
7
  6
BYLAYER
 10
6.8438362891
 20
42.5304316891
 11
11.6417143786
 21
39.7604381482
  0
LINE
  5
24B
100
AcDbEntity
  8
0
100
AcDbLine
 62
7
  6
BYLAYER
 10
16.0013388076
 20
37.243464752
 11
17.7985756484
 21
36.2058530521
  0
LINE
  5
24C
100
AcDbEntity
  8
0
100
AcDbLine
 62
7
  6
BYLAYER
 10
6.8438362891
 20
44.2042616442
 11
11.6417143786
 21
41.4342681033
  0
LINE
  5
24D
100
AcDbEntity
  8
0
100
AcDbLine
 62
7
  6
BYLAYER
 10
16.0013388076
 20
38.9172947072
 11
17.7985756484
 21
37.8796830073
  0
LINE
  5
24E
100
AcDbEntity
  8
0
100
AcDbLine
 62
7
  6
BYLAYER
 10
23.3726107371
 20
30.2525045064
 11
23.4140353705
 21
30.1609510342
  0
LINE
  5
24F
100
AcDbEntity
  8
0
100
AcDbLine
 62
7
  6
BYLAYER
 10
24.3332780132
 20
29.6302380533
 11
24.2918533798
 21
29.7217915255
  0
LINE
  5
250
100
AcDbEntity
  8
0
100
AcDbLine
 62
7
  6
BYLAYER
 10
25.3525179675
 20
29.1094303938
 11
25.3939426009
 21
29.0178769215
  0
LINE
  5
251
100
AcDbEntity
  8
0
100
AcDbLine
 62
7
  6
BYLAYER
 10
21.1260039104
 20
52.2187213329
 11
21.1459900096
 21
51.9302810333
  0
LINE
  5
252
100
AcDbEntity
  8
0
100
AcDbLine
 62
7
  6
BYLAYER
 10
21.1459900096
 20
53.6041109884
 11
21.1260039104
 21
53.892551288
  0
LINE
  5
253
100
AcDbEntity
  8
0
100
AcDbLine
 62
7
  6
BYLAYER
 10
22.3119461494
 20
35.8455303827
 11
22.3119461494
 21
30.8648656382
  0
LINE
  5
254
100
AcDbEntity
  8
0
100
AcDbLine
 62
7
  6
BYLAYER
 10
22.427620837
 20
51.9598816918
 11
22.427620837
 21
53.633711647
  0
LINE
  5
255
100
AcDbEntity
  8
0
100
AcDbLine
 62
7
  6
BYLAYER
 10
22.4533669168
 20
30.7832139855
 11
22.4533669168
 21
36.0904796969
  0
LINE
  5
256
100
AcDbEntity
  8
0
100
AcDbLine
 62
7
  6
BYLAYER
 10
22.9658037775
 20
53.5122283524
 11
22.9658037775
 21
51.8383983973
  0
LINE
  5
257
100
AcDbEntity
  8
0
100
AcDbLine
 62
7
  6
BYLAYER
 10
23.3726107371
 20
35.2331692509
 11
23.3726107371
 21
30.2525045064
  0
LINE
  5
258
100
AcDbEntity
  8
0
100
AcDbLine
 62
7
  6
BYLAYER
 10
7.1973882077
 20
44.4083837211
 11
11.9952662972
 21
41.6383901802
  0
LINE
  5
259
100
AcDbEntity
  8
0
100
AcDbLine
 62
7
  6
BYLAYER
 10
16.3548907262
 20
39.1214167841
 11
17.7985756484
 21
38.2879237618
  0
LINE
  5
25A
100
AcDbEntity
  8
0
100
AcDbLine
 62
7
  6
BYLAYER
 10
31.6457945213
 20
30.456752423
 11
27.3324251979
 21
32.9470210256
  0
LINE
  5
25B
100
AcDbEntity
  8
0
100
AcDbLine
 62
7
  6
BYLAYER
 10
26.2717606102
 20
33.5593821574
 11
25.3525179675
 21
34.0900951382
  0
LINE
  5
25C
100
AcDbEntity
  8
0
100
AcDbLine
 62
7
  6
BYLAYER
 10
24.2918533798
 20
34.70245627
 11
23.3726107371
 21
35.2331692509
  0
LINE
  5
25D
100
AcDbEntity
  8
0
100
AcDbLine
 62
7
  6
BYLAYER
 10
22.3119461494
 20
35.8455303827
 11
21.3927035067
 21
36.3762433636
  0
LINE
  5
25E
100
AcDbEntity
  8
0
100
AcDbLine
 62
7
  6
BYLAYER
 10
20.3320389189
 20
36.9886044953
 11
17.8571548809
 21
38.4174471362
  0
LINE
  5
25F
100
AcDbEntity
  8
0
100
AcDbLine
 62
7
  6
BYLAYER
 10
34.7516685088
 20
28.7735483201
 11
35.2325031219
 21
28.495944607
  0
LINE
  5
260
100
AcDbEntity
  8
0
100
AcDbLine
 62
7
  6
BYLAYER
 10
17.9985756484
 20
38.6623964504
 11
31.7872152887
 21
30.7017017372
  0
LINE
  5
261
100
AcDbEntity
  8
0
100
AcDbLine
 62
7
  6
BYLAYER
 10
26.3131852436
 20
28.4871639407
 11
26.2717606102
 21
28.5787174129
  0
LINE
  5
262
100
AcDbEntity
  8
0
100
AcDbLine
 62
7
  6
BYLAYER
 10
27.3324251979
 20
27.9663562811
 11
27.3738498313
 21
27.8748028089
  0
LINE
  5
263
100
AcDbEntity
  8
0
100
AcDbLine
 62
7
  6
BYLAYER
 10
24.2918533798
 20
34.70245627
 11
24.2918533798
 21
29.7217915255
  0
LINE
  5
264
100
AcDbEntity
  8
0
100
AcDbLine
 62
7
  6
BYLAYER
 10
24.4332741472
 20
29.6401398729
 11
24.4332741472
 21
34.9474055842
  0
LINE
  5
265
100
AcDbEntity
  8
0
100
AcDbLine
 62
7
  6
BYLAYER
 10
17.8985760961
 20
38.6723013062
 11
36.2125654799
 21
49.2458248914
  0
LINE
  5
266
100
AcDbEntity
  8
0
100
AcDbLine
 62
7
  6
BYLAYER
 10
36.3125650322
 20
49.2359200356
 11
17.9985756484
 21
38.6623964504
  0
LINE
  5
267
100
AcDbEntity
  8
0
100
AcDbLine
 62
7
  6
BYLAYER
 10
36.1766443308
 20
31.2417346799
 11
36.6574789439
 21
30.9641309668
  0
LINE
  5
268
100
AcDbEntity
  8
0
100
AcDbLine
 62
7
  6
BYLAYER
 10
25.3525179675
 20
34.0900951382
 11
25.3525179675
 21
29.1094303938
  0
LINE
  5
269
100
AcDbEntity
  8
0
100
AcDbLine
 62
7
  6
BYLAYER
 10
26.2717606102
 20
33.5593821574
 11
26.2717606102
 21
28.5787174129
  0
LINE
  5
26A
100
AcDbEntity
  8
0
100
AcDbLine
 62
7
  6
BYLAYER
 10
26.4131813776
 20
28.4970657602
 11
26.4131813776
 21
33.8043314716
  0
LINE
  5
26B
100
AcDbEntity
  8
0
100
AcDbLine
 62
7
  6
BYLAYER
 10
17.8985760961
 20
38.6723013062
 11
17.9985756484
 21
38.6623964504
  0
LINE
  5
26C
100
AcDbEntity
  8
0
100
AcDbLine
 62
7
  6
BYLAYER
 10
12.3513574811
 20
39.5212427281
 11
15.8071433356
 21
38.9658775037
  0
LINE
  5
26D
100
AcDbEntity
  8
0
100
AcDbLine
 62
7
  6
BYLAYER
 10
31.6872169854
 20
25.384530449
 11
31.6457945213
 21
25.4760876785
  0
LINE
  5
26E
100
AcDbEntity
  8
0
100
AcDbLine
 62
7
  6
BYLAYER
 10
27.3324251979
 20
32.9470210256
 11
27.3324251979
 21
27.9663562811
  0
LINE
  5
26F
100
AcDbEntity
  8
0
100
AcDbLine
 62
7
  6
BYLAYER
 10
27.763681867
 20
49.0684048564
 11
27.763681867
 21
50.7422348116
  0
LINE
  5
270
100
AcDbEntity
  8
0
100
AcDbLine
 62
7
  6
BYLAYER
 10
28.0498581434
 20
50.459239802
 11
28.0498581434
 21
48.7854098469
  0
LINE
  5
271
100
AcDbEntity
  8
0
100
AcDbLine
 62
7
  6
BYLAYER
 10
28.2586680502
 20
44.6536674808
 11
28.2586680502
 21
46.41900929
  0
LINE
  5
272
100
AcDbEntity
  8
0
100
AcDbLine
 62
7
  6
BYLAYER
 10
28.4636953641
 20
46.1332383823
 11
28.4636953641
 21
44.7720393491
  0
LINE
  5
273
100
AcDbEntity
  8
0
100
AcDbLine
 62
7
  6
BYLAYER
 10
50.1012046726
 20
41.2752253225
 11
50.2012029759
 21
41.2851308994
  0
LINE
  5
274
100
AcDbEntity
  8
0
100
AcDbLine
 62
7
  6
BYLAYER
 10
15.909904158
 20
40.623193187
 11
12.3513574811
 21
41.1950726832
  0
LINE
  5
275
100
AcDbEntity
  8
0
100
AcDbLine
 62
7
  6
BYLAYER
 10
12.4854374223
 20
41.4731709485
 11
16.0439840992
 21
40.9012914522
  0
LINE
  5
276
100
AcDbEntity
  8
0
100
AcDbLine
 62
7
  6
BYLAYER
 10
21.7462089106
 20
42.2549189205
 11
22.9250587056
 21
41.5743250711
  0
LINE
  5
277
100
AcDbEntity
  8
0
100
AcDbLine
 62
7
  6
BYLAYER
 10
29.0404262786
 20
46.8052467192
 11
29.0404262786
 21
48.4047460534
  0
LINE
  5
278
100
AcDbEntity
  8
0
100
AcDbLine
 62
7
  6
BYLAYER
 10
29.6586680502
 20
46.1931474455
 11
29.6586680502
 21
46.41900929
  0
LINE
  5
279
100
AcDbEntity
  8
0
100
AcDbLine
 62
7
  6
BYLAYER
 10
29.9548906414
 20
48.0656882519
 11
29.9548906414
 21
46.3918582968
  0
LINE
  5
27A
100
AcDbEntity
  8
0
100
AcDbLine
 62
7
  6
BYLAYER
 10
31.6457945213
 20
25.4760876785
 11
31.6457945213
 21
30.456752423
  0
LINE
  5
27B
100
AcDbEntity
  8
0
100
AcDbLine
 62
7
  6
BYLAYER
 10
31.9286372338
 20
30.4567531029
 11
31.9286372338
 21
25.4760883584
  0
LINE
  5
27C
100
AcDbEntity
  8
0
100
AcDbLine
 62
7
  6
BYLAYER
 10
31.9824575805
 20
46.8035855352
 11
31.9824575805
 21
48.2516617091
  0
LINE
  5
27D
100
AcDbEntity
  8
0
100
AcDbLine
 62
7
  6
BYLAYER
 10
45.8878314832
 20
43.7753957446
 11
45.7878353492
 21
43.7654939251
  0
LINE
  5
27E
100
AcDbEntity
  8
0
100
AcDbLine
 62
7
  6
BYLAYER
 10
44.7271707615
 20
44.3778550568
 11
44.8271668955
 21
44.3877568764
  0
LINE
  5
27F
100
AcDbEntity
  8
0
100
AcDbLine
 62
7
  6
BYLAYER
 10
28.0498581434
 20
48.7854098469
 11
29.0023238223
 21
46.809942725
  0
LINE
  5
280
100
AcDbEntity
  8
0
100
AcDbLine
 62
7
  6
BYLAYER
 10
32.1233062961
 20
48.2252614154
 11
32.1233062961
 21
46.8849040937
  0
LINE
  5
281
100
AcDbEntity
  8
0
100
AcDbLine
 62
7
  6
BYLAYER
 10
43.9079242528
 20
44.9184698573
 11
43.8079281188
 21
44.9085680377
  0
LINE
  5
282
100
AcDbEntity
  8
0
100
AcDbLine
 62
7
  6
BYLAYER
 10
42.747263531
 20
45.5209291695
 11
42.8472596651
 21
45.5308309891
  0
LINE
  5
283
100
AcDbEntity
  8
0
100
AcDbLine
 62
7
  6
BYLAYER
 10
41.9280170224
 20
46.0615439699
 11
41.8280208884
 21
46.0516421504
  0
LINE
  5
284
100
AcDbEntity
  8
0
100
AcDbLine
 62
7
  6
BYLAYER
 10
6.538624823
 20
45.4705743176
 11
7.0382253855
 21
45.4590379045
  0
LINE
  5
285
100
AcDbEntity
  8
0
100
AcDbLine
 62
7
  6
BYLAYER
 10
29.0404262786
 20
48.4047460534
 11
28.0498581434
 21
50.459239802
  0
LINE
  5
286
100
AcDbEntity
  8
0
100
AcDbLine
 62
7
  6
BYLAYER
 10
28.531544238
 20
50.5366521011
 11
29.5221123732
 21
48.4821583526
  0
LINE
  5
287
100
AcDbEntity
  8
0
100
AcDbLine
 62
7
  6
BYLAYER
 10
40.7673563006
 20
46.6640032822
 11
40.8673524347
 21
46.6739051017
  0
LINE
  5
288
100
AcDbEntity
  8
0
100
AcDbLine
 62
7
  6
BYLAYER
 10
39.948109792
 20
47.2046180826
 11
39.8481136579
 21
47.194716263
  0
LINE
  5
289
100
AcDbEntity
  8
0
100
AcDbLine
 62
7
  6
BYLAYER
 10
38.7874490702
 20
47.8070773948
 11
38.8874452043
 21
47.8169792144
  0
LINE
  5
28A
100
AcDbEntity
  8
0
100
AcDbLine
 62
7
  6
BYLAYER
 10
29.9548906414
 20
46.3918582968
 11
31.5175843054
 21
46.5351924268
  0
LINE
  5
28B
100
AcDbEntity
  8
0
100
AcDbLine
 62
7
  6
BYLAYER
 10
29.6425451591
 20
45.4526445329
 11
28.4636953641
 21
46.1332383823
  0
LINE
  5
28C
100
AcDbEntity
  8
0
100
AcDbLine
 62
7
  6
BYLAYER
 10
36.4125633355
 20
49.2458256125
 11
36.3125650322
 21
49.2359200356
  0
LINE
  5
28D
100
AcDbEntity
  8
0
100
AcDbLine
 62
7
  6
BYLAYER
 10
31.9824575804
 20
48.2516617091
 11
29.9548906414
 21
48.0656882519
  0
LINE
  5
28E
100
AcDbEntity
  8
0
100
AcDbLine
 62
7
  6
BYLAYER
 10
29.8764393886
 20
48.3507838084
 11
31.9040063276
 21
48.5367572656
  0
LINE
  5
28F
100
AcDbEntity
  8
0
100
AcDbLine
 62
7
  6
BYLAYER
 10
22.9658037776
 20
51.8383983973
 11
27.763681867
 21
49.0684048564
  0
LINE
  5
290
100
AcDbEntity
  8
0
100
AcDbLine
 62
7
  6
BYLAYER
 10
31.9286372338
 20
25.4760883584
 11
31.887214841
 21
25.3845311701
  0
LINE
  5
291
100
AcDbEntity
  8
0
100
AcDbLine
 62
7
  6
BYLAYER
 10
31.7872152887
 20
30.7017017372
 11
50.1012046726
 21
41.2752253225
  0
LINE
  5
292
100
AcDbEntity
  8
0
100
AcDbLine
 62
7
  6
BYLAYER
 10
50.2426266176
 20
41.0302766882
 11
31.9286372338
 21
30.4567531029
  0
LINE
  5
293
100
AcDbEntity
  8
0
100
AcDbLine
 62
7
  6
BYLAYER
 10
36.3125650322
 20
49.2359200356
 11
36.2125654799
 21
49.2458248914
  0
LINE
  5
294
100
AcDbEntity
  8
0
100
AcDbLine
 62
7
  6
BYLAYER
 10
22.9658037775
 20
53.5122283524
 11
27.763681867
 21
50.7422348116
  0
LINE
  5
295
100
AcDbEntity
  8
0
100
AcDbLine
 62
7
  6
BYLAYER
 10
32.1233062961
 20
48.2252614154
 11
33.2841063815
 21
47.555088335
  0
LINE
  5
296
100
AcDbEntity
  8
0
100
AcDbLine
 62
7
  6
BYLAYER
 10
23.3193556962
 20
53.7163504294
 11
28.1172337856
 21
50.9463568885
  0
LINE
  5
297
100
AcDbEntity
  8
0
100
AcDbLine
 62
7
  6
BYLAYER
 10
32.4768582147
 20
48.4293834924
 11
33.6376583001
 21
47.7592104119
  0
LINE
  5
298
100
AcDbEntity
  8
0
100
AcDbLine
 62
7
  6
BYLAYER
 10
50.1012046726
 20
41.2752253225
 11
36.3125650322
 21
49.2359200356
  0
LINE
  5
299
100
AcDbEntity
  8
0
100
AcDbLine
 62
7
  6
BYLAYER
 10
50.2012029759
 20
41.2851308994
 11
45.8878336525
 21
43.775399502
  0
LINE
  5
29A
100
AcDbEntity
  8
0
100
AcDbLine
 62
7
  6
BYLAYER
 10
44.8271690648
 20
44.3877606338
 11
43.9079264221
 21
44.9184736146
  0
LINE
  5
29B
100
AcDbEntity
  8
0
100
AcDbLine
 62
7
  6
BYLAYER
 10
42.8472618343
 20
45.5308347464
 11
41.9280191917
 21
46.0615477273
  0
LINE
  5
29C
100
AcDbEntity
  8
0
100
AcDbLine
 62
7
  6
BYLAYER
 10
40.8673546039
 20
46.6739088591
 11
39.9481119612
 21
47.2046218399
  0
LINE
  5
29D
100
AcDbEntity
  8
0
100
AcDbLine
 62
7
  6
BYLAYER
 10
38.8874473735
 20
47.8169829717
 11
36.4125633355
 21
49.2458256125
  0
LINE
  5
29E
100
AcDbEntity
  8
0
100
AcDbLine
 62
7
  6
BYLAYER
 10
36.9455513235
 20
29.1482946947
 11
36.9485930139
 21
29.1540932971
  0
LINE
  5
29F
100
AcDbEntity
  8
0
100
AcDbLine
 62
7
  6
BYLAYER
 10
31.9286372338
 20
25.4760883584
 11
50.2426266176
 21
36.0496119437
  0
LINE
  5
2A0
100
AcDbEntity
  8
0
100
AcDbLine
 62
7
  6
BYLAYER
 10
50.2012042249
 20
35.9580547553
 11
31.887214841
 21
25.3845311701
  0
LINE
  5
2A1
100
AcDbEntity
  8
0
100
AcDbLine
 62
7
  6
BYLAYER
 10
21.1459900096
 20
51.9302810333
 11
22.427620837
 21
51.9598816918
  0
LINE
  5
2A2
100
AcDbEntity
  8
0
100
AcDbLine
 62
7
  6
BYLAYER
 10
22.427620837
 20
53.633711647
 11
21.1459900096
 21
53.6041109884
  0
LINE
  5
2A3
100
AcDbEntity
  8
0
100
AcDbLine
 62
7
  6
BYLAYER
 10
38.8874452043
 20
47.8169792144
 11
38.9288698377
 21
47.7254257422
  0
LINE
  5
2A4
100
AcDbEntity
  8
0
100
AcDbLine
 62
7
  6
BYLAYER
 10
21.1260039104
 20
53.892551288
 11
22.4076347377
 21
53.9221519466
  0
LINE
  5
2A5
100
AcDbEntity
  8
0
100
AcDbLine
 62
7
  6
BYLAYER
 10
40.8673524347
 20
46.6739051017
 11
40.9087770681
 21
46.5823516295
  0
LINE
  5
2A6
100
AcDbEntity
  8
0
100
AcDbLine
 62
7
  6
BYLAYER
 10
42.8472596651
 20
45.5308309891
 11
42.8886842985
 21
45.4392775168
  0
LINE
  5
2A7
100
AcDbEntity
  8
0
100
AcDbLine
 62
7
  6
BYLAYER
 10
50.3012046726
 20
41.1119248391
 11
50.2426266176
 21
41.0302766882
  0
LINE
  5
2A8
100
AcDbEntity
  8
0
100
AcDbLine
 62
7
  6
BYLAYER
 10
44.8271668955
 20
44.3877568764
 11
44.8685915289
 21
44.2962034042
  0
LINE
  5
2A9
100
AcDbEntity
  8
0
100
AcDbLine
 62
7
  6
BYLAYER
 10
50.2426266176
 20
36.0496119437
 11
50.3012046726
 21
36.1312600946
  0
LINE
  5
2AA
100
AcDbEntity
  8
0
100
AcDbLine
 62
7
  6
BYLAYER
 10
50.2426266176
 20
36.0496119437
 11
50.2426266176
 21
41.0302766882
  0
LINE
  5
2AB
100
AcDbEntity
  8
0
100
AcDbLine
 62
7
  6
BYLAYER
 10
50.3012046726
 20
41.1119248391
 11
50.3012046726
 21
36.1312600946
  0
LINE
  5
2AC
100
AcDbEntity
  8
0
100
AcDbLine
 62
7
  6
BYLAYER
 10
50.2012042249
 20
35.9580547553
 11
50.2426266176
 21
36.0496119437
  0
ARC
  5
2AD
100
AcDbEntity
  8
0
100
AcDbCircle
 62
7
  6
BYLAYER
 10
35.9432350251
 20
29.730748492
 40
1.4250229595
100
AcDbArc
 50
240.0760086287
 51
0.0530398167
  0
ARC
  5
2AE
100
AcDbEntity
  8
0
100
AcDbCircle
 62
7
  6
BYLAYER
 10
35.9461505404
 20
29.7324166028
 40
1.4223669903
100
AcDbArc
 50
359.9868480223
 51
59.9836549357
  0
ARC
  5
2AF
100
AcDbEntity
  8
0
100
AcDbCircle
 62
7
  6
BYLAYER
 10
29.8268717941
 20
47.7866394831
 40
1.4006439173
100
AcDbArc
 50
262.8081536763
 51
275.2441529009
  0
ARC
  5
2B0
100
AcDbEntity
  8
0
100
AcDbCircle
 62
7
  6
BYLAYER
 10
50.1012046726
 20
41.1119248391
 40
0.2
100
AcDbArc
 50
0.0
 51
60.0005612632
  0
ARC
  5
2B1
100
AcDbEntity
  8
0
100
AcDbCircle
 62
7
  6
BYLAYER
 10
36.3125650322
 20
49.0726195522
 40
0.2
100
AcDbArc
 50
60.0005612632
 51
119.9998519061
  0
ARC
  5
2B2
100
AcDbEntity
  8
0
100
AcDbCircle
 62
7
  6
BYLAYER
 10
17.9985756484
 20
38.4990959669
 40
0.2
100
AcDbArc
 50
119.9998519061
 51
180.0
  0
ARC
  5
2B3
100
AcDbEntity
  8
0
100
AcDbCircle
 62
7
  6
BYLAYER
 10
17.9985756484
 20
33.5184312224
 40
0.2
100
AcDbArc
 50
180.0
 51
240.0005612632
  0
ARC
  5
2B4
100
AcDbEntity
  8
0
100
AcDbCircle
 62
7
  6
BYLAYER
 10
31.7872152887
 20
25.5577365093
 40
0.2
100
AcDbArc
 50
240.0005612632
 51
299.9998519061
  0
ARC
  5
2B5
100
AcDbEntity
  8
0
100
AcDbCircle
 62
7
  6
BYLAYER
 10
50.1012046726
 20
36.1312600946
 40
0.2
100
AcDbArc
 50
299.9998519061
 51
360.0
  0
SPLINE
  5
2B6
100
AcDbEntity
  8
0
100
AcDbSpline
 62
7
  6
BYLAYER
 70
0
 71
3
 72
18
 73
14
 74
0
 42
0.0000001
 43
0.0000001
 44
0.0000000001
 40
0.0
 40
0.0
 40
0.0
 40
0.0
 40
0.0428458059
 40
0.0874607978
 40
0.1352801933
 40
0.1872295381
 40
0.2437202082
 40
0.3047234345
 40
0.438356031
 40
0.582660981
 40
0.729781669
 40
0.871343991
 40
1.0
 40
1.0
 40
1.0
 40
1.0
 10
20.5512487446
 20
41.9691480352
 30
0.0
 10
20.5512407395
 20
41.9890739104
 30
0.0
 10
20.556576203
 20
42.0299217573
 30
0.0
 10
20.5799951224
 20
42.088904885
 30
0.0
 10
20.6180187538
 20
42.1448126551
 30
0.0
 10
20.6695322461
 20
42.1965607974
 30
0.0
 10
20.7333834811
 20
42.2432103259
 30
0.0
 10
20.8362251286
 20
42.299135064
 30
0.0
 10
20.9869315941
 20
42.3494671617
 30
0.0
 10
21.1835795935
 20
42.3770846584
 30
0.0
 10
21.3858565037
 20
42.3714999822
 30
0.0
 10
21.5770642528
 20
42.3332412651
 30
0.0
 10
21.694391908
 20
42.2848348041
 30
0.0
 10
21.7462089106
 20
42.2549189205
 30
0.0
  0
SPLINE
  5
2B7
100
AcDbEntity
  8
0
100
AcDbSpline
 62
7
  6
BYLAYER
 70
0
 71
3
 72
18
 73
14
 74
0
 42
0.0000001
 43
0.0000001
 44
0.0000000001
 40
0.0
 40
0.0
 40
0.0
 40
0.0
 40
0.0428458059
 40
0.0874607978
 40
0.1352801933
 40
0.1872295381
 40
0.2437202082
 40
0.3047234345
 40
0.438356031
 40
0.582660981
 40
0.729781669
 40
0.871343991
 40
1.0
 40
1.0
 40
1.0
 40
1.0
 10
28.2586805702
 20
46.4190093124
 30
0.0
 10
28.2586725651
 20
46.4389351876
 30
0.0
 10
28.2640080287
 20
46.4797830345
 30
0.0
 10
28.287426948
 20
46.5387661622
 30
0.0
 10
28.3254505794
 20
46.5946739323
 30
0.0
 10
28.3769640717
 20
46.6464220746
 30
0.0
 10
28.4408153067
 20
46.6930716031
 30
0.0
 10
28.5436569543
 20
46.7489963412
 30
0.0
 10
28.6943634197
 20
46.7993284389
 30
0.0
 10
28.8910114192
 20
46.8269459356
 30
0.0
 10
29.0932883293
 20
46.8213612594
 30
0.0
 10
29.2844960784
 20
46.7831025423
 30
0.0
 10
29.4018237336
 20
46.7346960813
 30
0.0
 10
29.4536407362
 20
46.7047801977
 30
0.0
  0
SPLINE
  5
2B8
100
AcDbEntity
  8
0
100
AcDbSpline
 62
7
  6
BYLAYER
 70
0
 71
3
 72
11
 73
7
 74
0
 42
0.0000001
 43
0.0000001
 44
0.0000000001
 40
0.0
 40
0.0
 40
0.0
 40
0.0
 40
0.217850958
 40
0.4509615976
 40
0.7102655221
 40
1.0
 40
1.0
 40
1.0
 40
1.0
 10
15.8071538517
 20
37.5141380248
 30
0.0
 10
15.8071480508
 20
37.4888765848
 30
0.0
 10
15.8164721602
 20
37.4362291455
 30
0.0
 10
15.8563977513
 20
37.3629067025
 30
0.0
 10
15.919457448
 20
37.2966039668
 30
0.0
 10
15.9722429002
 20
37.260262902
 30
0.0
 10
16.0013388076
 20
37.243464752
 30
0.0
  0
SPLINE
  5
2B9
100
AcDbEntity
  8
0
100
AcDbSpline
 62
7
  6
BYLAYER
 70
0
 71
3
 72
11
 73
7
 74
0
 42
0.0000001
 43
0.0000001
 44
0.0000000001
 40
0.0
 40
0.0
 40
0.0
 40
0.0
 40
0.2372423294
 40
0.4999983821
 40
0.7627553152
 40
1.0
 40
1.0
 40
1.0
 40
1.0
 10
27.4738459653
 20
33.1919703398
 30
0.0
 10
27.4537679905
 20
33.1803783848
 30
0.0
 10
27.4157749022
 20
33.1483992965
 30
0.0
 10
27.3714308065
 20
33.0878008186
 30
0.0
 10
27.3411232985
 20
33.0190980963
 30
0.0
 10
27.3324251979
 20
32.9702052695
 30
0.0
 10
27.3324251979
 20
32.9470210256
 30
0.0
  0
SPLINE
  5
2BA
100
AcDbEntity
  8
0
100
AcDbSpline
 62
7
  6
BYLAYER
 70
0
 71
3
 72
12
 73
8
 74
0
 42
0.0000001
 43
0.0000001
 44
0.0000000001
 40
0.0
 40
0.0
 40
0.0
 40
0.0
 40
0.108164409
 40
0.2184153908
 40
0.4513895088
 40
0.7104434406
 40
1.0
 40
1.0
 40
1.0
 40
1.0
 10
6.4863945325
 20
43.0286470566
 30
0.0
 10
6.486400341
 20
43.0055430225
 30
0.0
 10
6.4904245712
 20
42.9587943972
 30
0.0
 10
6.5146840417
 20
42.8650808597
 30
0.0
 10
6.5770367649
 20
42.7501920048
 30
0.0
 10
6.6931096883
 20
42.6282732268
 30
0.0
 10
6.7902726661
 20
42.5613559616
 30
0.0
 10
6.8438362891
 20
42.5304316891
 30
0.0
  0
SPLINE
  5
2BB
100
AcDbEntity
  8
0
100
AcDbSpline
 62
7
  6
BYLAYER
 70
0
 71
3
 72
11
 73
7
 74
0
 42
0.0000001
 43
0.0000001
 44
0.0000000001
 40
0.0
 40
0.0
 40
0.0
 40
0.0
 40
0.2372423294
 40
0.4999983821
 40
0.7627553152
 40
1.0
 40
1.0
 40
1.0
 40
1.0
 10
25.4939387349
 20
34.3350444524
 30
0.0
 10
25.4738607601
 20
34.3234524975
 30
0.0
 10
25.4358676718
 20
34.2914734091
 30
0.0
 10
25.3915235761
 20
34.2308749312
 30
0.0
 10
25.3612160681
 20
34.1621722089
 30
0.0
 10
25.3525179675
 20
34.1132793822
 30
0.0
 10
25.3525179675
 20
34.0900951382
 30
0.0
  0
SPLINE
  5
2BC
100
AcDbEntity
  8
0
100
AcDbSpline
 62
7
  6
BYLAYER
 70
0
 71
3
 72
11
 73
7
 74
0
 42
0.0000001
 43
0.0000001
 44
0.0000000001
 40
0.0
 40
0.0
 40
0.0
 40
0.0
 40
0.2372423294
 40
0.4999983821
 40
0.7627553152
 40
1.0
 40
1.0
 40
1.0
 40
1.0
 10
23.5140315045
 20
35.4781185651
 30
0.0
 10
23.4939535297
 20
35.4665266101
 30
0.0
 10
23.4559604414
 20
35.4345475218
 30
0.0
 10
23.4116163457
 20
35.3739490439
 30
0.0
 10
23.3813088377
 20
35.3052463216
 30
0.0
 10
23.3726107371
 20
35.2563534948
 30
0.0
 10
23.3726107371
 20
35.2331692509
 30
0.0
  0
SPLINE
  5
2BD
100
AcDbEntity
  8
0
100
AcDbSpline
 62
7
  6
BYLAYER
 70
0
 71
3
 72
9
 73
5
 74
0
 42
0.0000001
 43
0.0000001
 44
0.0000000001
 40
0.0
 40
0.0
 40
0.0
 40
0.0
 40
0.4931481146
 40
1.0
 40
1.0
 40
1.0
 40
1.0
 10
6.9863960633
 20
44.7024770937
 30
0.0
 10
6.9864062014
 20
44.6861405795
 30
0.0
 10
6.9898578688
 20
44.6529353745
 30
0.0
 10
6.9997874582
 20
44.6210945707
 30
0.0
 10
7.0062147146
 20
44.6055829407
 30
0.0
  0
SPLINE
  5
2BE
100
AcDbEntity
  8
0
100
AcDbSpline
 62
7
  6
BYLAYER
 70
0
 71
3
 72
10
 73
6
 74
0
 42
0.0000001
 43
0.0000001
 44
0.0000000001
 40
0.0
 40
0.0
 40
0.0
 40
0.0
 40
0.4605004274
 40
0.7202447713
 40
1.0
 40
1.0
 40
1.0
 40
1.0
 10
7.0062147146
 20
44.6055829407
 30
0.0
 10
7.0225863983
 20
44.5660712913
 30
0.0
 10
7.0627369966
 20
44.5100094236
 30
0.0
 10
7.1328525958
 20
44.4490197105
 30
0.0
 10
7.1748866724
 20
44.4213746947
 30
0.0
 10
7.1973882077
 20
44.4083837211
 30
0.0
  0
SPLINE
  5
2BF
100
AcDbEntity
  8
0
100
AcDbSpline
 62
7
  6
BYLAYER
 70
0
 71
3
 72
11
 73
7
 74
0
 42
0.0000001
 43
0.0000001
 44
0.0000000001
 40
0.0
 40
0.0
 40
0.0
 40
0.0
 40
0.2372423294
 40
0.4999983821
 40
0.7627553152
 40
1.0
 40
1.0
 40
1.0
 40
1.0
 10
21.5341242741
 20
36.6211926778
 30
0.0
 10
21.5140462993
 20
36.6096007228
 30
0.0
 10
21.476053211
 20
36.5776216345
 30
0.0
 10
21.4317091153
 20
36.5170231565
 30
0.0
 10
21.4014016073
 20
36.4483204343
 30
0.0
 10
21.3927035067
 20
36.3994276075
 30
0.0
 10
21.3927035067
 20
36.3762433636
 30
0.0
  0
SPLINE
  5
2C0
100
AcDbEntity
  8
0
100
AcDbSpline
 62
7
  6
BYLAYER
 70
0
 71
3
 72
9
 73
5
 74
0
 42
0.0000001
 43
0.0000001
 44
0.0000000001
 40
0.0
 40
0.0
 40
0.0
 40
0.0
 40
0.4767905738
 40
1.0
 40
1.0
 40
1.0
 40
1.0
 10
16.3071543378
 20
39.1879679488
 30
0.0
 10
16.3071561866
 20
39.1804908657
 30
0.0
 10
16.3105473623
 20
39.1646843181
 30
0.0
 10
16.3194711812
 20
39.1513997107
 30
0.0
 10
16.3249030926
 20
39.1452501708
 30
0.0
  0
SPLINE
  5
2C1
100
AcDbEntity
  8
0
100
AcDbSpline
 62
7
  6
BYLAYER
 70
0
 71
3
 72
9
 73
5
 74
0
 42
0.0000001
 43
0.0000001
 44
0.0000000001
 40
0.0
 40
0.0
 40
0.0
 40
0.0
 40
0.2343519472
 40
1.0
 40
1.0
 40
1.0
 40
1.0
 10
16.3249030926
 20
39.1452501708
 30
0.0
 10
16.326889066
 20
39.1430018238
 30
0.0
 10
16.3358404321
 20
39.1338303904
 30
0.0
 10
16.3464029374
 20
39.1263171004
 30
0.0
 10
16.3548907262
 20
39.1214167841
 30
0.0
  0
SPLINE
  5
2C2
100
AcDbEntity
  8
0
100
AcDbSpline
 62
7
  6
BYLAYER
 70
0
 71
3
 72
9
 73
5
 74
0
 42
0.0000001
 43
0.0000001
 44
0.0000000001
 40
0.0
 40
0.0
 40
0.0
 40
0.0
 40
0.4776034297
 40
1.0
 40
1.0
 40
1.0
 40
1.0
 10
11.9952662972
 20
41.6383901802
 30
0.0
 10
12.0668710743
 20
41.5970500781
 30
0.0
 10
12.2269627464
 20
41.5277787688
 30
0.0
 10
12.3961470043
 20
41.4875204467
 30
0.0
 10
12.4854374223
 20
41.4731709485
 30
0.0
  0
SPLINE
  5
2C3
100
AcDbEntity
  8
0
100
AcDbSpline
 62
7
  6
BYLAYER
 70
0
 71
3
 72
15
 73
11
 74
0
 42
0.0000001
 43
0.0000001
 44
0.0000000001
 40
0.0
 40
0.0
 40
0.0
 40
0.0
 40
0.1569579118
 40
0.3070572249
 40
0.4477392707
 40
0.5777186147
 40
0.6965536921
 40
0.8048354582
 40
0.9047405828
 40
1.0
 40
1.0
 40
1.0
 40
1.0
 10
16.0439840992
 20
40.9012914522
 30
0.0
 10
16.0857543391
 20
40.8945787277
 30
0.0
 10
16.1668968955
 20
40.8774612414
 30
0.0
 10
16.2819670413
 20
40.8403085884
 30
0.0
 10
16.3853095833
 20
40.7928625455
 30
0.0
 10
16.4742407618
 20
40.7363651765
 30
0.0
 10
16.5465618905
 20
40.6721070629
 30
0.0
 10
16.6003278577
 20
40.6014082812
 30
0.0
 10
16.6337432218
 20
40.525829904
 30
0.0
 10
16.6413378122
 20
40.4729523632
 30
0.0
 10
16.6413378237
 20
40.4472762897
 30
0.0
  0
SPLINE
  5
2C4
100
AcDbEntity
  8
0
100
AcDbSpline
 62
7
  6
BYLAYER
 70
0
 71
3
 72
9
 73
5
 74
0
 42
0.0000001
 43
0.0000001
 44
0.0000000001
 40
0.0
 40
0.0
 40
0.0
 40
0.0
 40
0.4776034297
 40
1.0
 40
1.0
 40
1.0
 40
1.0
 10
11.6417143786
 20
39.7604381482
 30
0.0
 10
11.7453798815
 20
39.7005881961
 30
0.0
 10
11.9771518996
 20
39.6003009611
 30
0.0
 10
12.222087669
 20
39.5420171514
 30
0.0
 10
12.3513574811
 20
39.5212427281
 30
0.0
  0
SPLINE
  5
2C5
100
AcDbEntity
  8
0
100
AcDbSpline
 62
7
  6
BYLAYER
 70
0
 71
3
 72
11
 73
7
 74
0
 42
0.0000001
 43
0.0000001
 44
0.0000000001
 40
0.0
 40
0.0
 40
0.0
 40
0.0
 40
0.2656421369
 40
0.5252749539
 40
0.7719617117
 40
1.0
 40
1.0
 40
1.0
 40
1.0
 10
22.4076347377
 20
53.9221519466
 30
0.0
 10
22.4912918838
 20
53.9240840994
 30
0.0
 10
22.6571067099
 20
53.9181174044
 30
0.0
 10
22.8979324336
 20
53.8802592035
 30
0.0
 10
23.1205814655
 20
53.8151054713
 30
0.0
 10
23.2571453323
 20
53.7522667872
 30
0.0
 10
23.3193556962
 20
53.7163504294
 30
0.0
  0
SPLINE
  5
2C6
100
AcDbEntity
  8
0
100
AcDbSpline
 62
7
  6
BYLAYER
 70
0
 71
3
 72
11
 73
7
 74
0
 42
0.0000001
 43
0.0000001
 44
0.0000000001
 40
0.0
 40
0.0
 40
0.0
 40
0.0
 40
0.2775180529
 40
0.5360867096
 40
0.776219382
 40
1.0
 40
1.0
 40
1.0
 40
1.0
 10
28.1172337856
 20
50.9463568885
 30
0.0
 10
28.1645586409
 20
50.9190344887
 30
0.0
 10
28.2532591929
 20
50.8612858767
 30
0.0
 10
28.3701651736
 20
50.7621002499
 30
0.0
 10
28.4643640413
 20
50.6547547497
 30
0.0
 10
28.5124069882
 20
50.5763438284
 30
0.0
 10
28.531544238
 20
50.5366521011
 30
0.0
  0
SPLINE
  5
2C7
100
AcDbEntity
  8
0
100
AcDbSpline
 62
7
  6
BYLAYER
 70
0
 71
3
 72
12
 73
8
 74
0
 42
0.0000001
 43
0.0000001
 44
0.0000000001
 40
0.0
 40
0.0
 40
0.0
 40
0.0
 40
0.1962124765
 40
0.3111700042
 40
0.4365362648
 40
0.7111860114
 40
1.0
 40
1.0
 40
1.0
 40
1.0
 10
29.5221123732
 20
48.4821583526
 30
0.0
 10
29.5333778947
 20
48.4587930306
 30
0.0
 10
29.5624945063
 20
48.4271608312
 30
0.0
 10
29.611183721
 20
48.3962031149
 30
0.0
 10
29.6736726922
 20
48.3684776968
 30
0.0
 10
29.7633397385
 20
48.3483228943
 30
0.0
 10
29.8384176832
 20
48.3472963635
 30
0.0
 10
29.8764393886
 20
48.3507838084
 30
0.0
  0
SPLINE
  5
2C8
100
AcDbEntity
  8
0
100
AcDbSpline
 62
7
  6
BYLAYER
 70
0
 71
3
 72
11
 73
7
 74
0
 42
0.0000001
 43
0.0000001
 44
0.0000000001
 40
0.0
 40
0.0
 40
0.0
 40
0.0
 40
0.2637546753
 40
0.5242884309
 40
0.772297819
 40
1.0
 40
1.0
 40
1.0
 40
1.0
 10
31.9040063276
 20
48.5367572656
 30
0.0
 10
31.9557405234
 20
48.5415024541
 30
0.0
 10
32.0593539133
 20
48.543838687
 30
0.0
 10
32.2109854828
 20
48.5267658425
 30
0.0
 10
32.351807625
 20
48.4900903635
 30
0.0
 10
32.4380166216
 20
48.4518081893
 30
0.0
 10
32.4768582147
 20
48.4293834924
 30
0.0
  0
SPLINE
  5
2C9
100
AcDbEntity
  8
0
100
AcDbSpline
 62
7
  6
BYLAYER
 70
0
 71
3
 72
11
 73
7
 74
0
 42
0.0000001
 43
0.0000001
 44
0.0000000001
 40
0.0
 40
0.0
 40
0.0
 40
0.0
 40
0.2655572107
 40
0.5252787969
 40
0.7720222706
 40
1.0
 40
1.0
 40
1.0
 40
1.0
 10
22.427620837
 20
51.9598816918
 30
0.0
 10
22.4769870573
 20
51.9610218584
 30
0.0
 10
22.5748638824
 20
51.9574740593
 30
0.0
 10
22.7170416843
 20
51.9351760695
 30
0.0
 10
22.8484698562
 20
51.8966615004
 30
0.0
 10
22.9290913509
 20
51.8595938472
 30
0.0
 10
22.9658037776
 20
51.8383983973
 30
0.0
  0
SPLINE
  5
2CA
100
AcDbEntity
  8
0
100
AcDbSpline
 62
7
  6
BYLAYER
 70
0
 71
3
 72
10
 73
6
 74
0
 42
0.0000001
 43
0.0000001
 44
0.0000000001
 40
0.0
 40
0.0
 40
0.0
 40
0.0
 40
0.2779867625
 40
0.5369921245
 40
1.0
 40
1.0
 40
1.0
 40
1.0
 10
27.763681867
 20
49.0684048564
 30
0.0
 10
27.7963705206
 20
49.0495324805
 30
0.0
 10
27.8576756723
 20
49.0095905932
 30
0.0
 10
27.961332763
 20
48.9217616734
 30
0.0
 10
28.0225545191
 20
48.8420390917
 30
0.0
 10
28.0498581434
 20
48.7854098469
 30
0.0
  0
SPLINE
  5
2CB
100
AcDbEntity
  8
0
100
AcDbSpline
 62
7
  6
BYLAYER
 70
0
 71
3
 72
9
 73
5
 74
0
 42
0.0000001
 43
0.0000001
 44
0.0000000001
 40
0.0
 40
0.0
 40
0.0
 40
0.0
 40
0.4827402547
 40
1.0
 40
1.0
 40
1.0
 40
1.0
 10
29.5744324415
 20
46.2268018973
 30
0.0
 10
29.6994005726
 20
46.1546531454
 30
0.0
 10
29.9699060262
 20
46.0249290824
 30
0.0
 10
30.254220239
 20
45.9302654222
 30
0.0
 10
30.4033542184
 20
45.8894496716
 30
0.0
  0
SPLINE
  5
2CC
100
AcDbEntity
  8
0
100
AcDbSpline
 62
7
  6
BYLAYER
 70
0
 71
3
 72
11
 73
7
 74
0
 42
0.0000001
 43
0.0000001
 44
0.0000000001
 40
0.0
 40
0.0
 40
0.0
 40
0.0
 40
0.2897196204
 40
0.549090253
 40
0.7822238898
 40
1.0
 40
1.0
 40
1.0
 40
1.0
 10
29.4536407362
 20
46.7047801977
 30
0.0
 10
29.4843578403
 20
46.6870460706
 30
0.0
 10
29.5400836488
 20
46.6486652475
 30
0.0
 10
29.6066862519
 20
46.5786725013
 30
0.0
 10
29.6488060216
 20
46.5012403879
 30
0.0
 10
29.6586633657
 20
46.445670482
 30
0.0
 10
29.6586664521
 20
46.4190092934
 30
0.0
  0
SPLINE
  5
2CD
100
AcDbEntity
  8
0
100
AcDbSpline
 62
7
  6
BYLAYER
 70
0
 71
3
 72
11
 73
7
 74
0
 42
0.0000001
 43
0.0000001
 44
0.0000000001
 40
0.0
 40
0.0
 40
0.0
 40
0.0
 40
0.2372446848
 40
0.5000016179
 40
0.7627576706
 40
1.0
 40
1.0
 40
1.0
 40
1.0
 10
22.3119461494
 20
35.8455303827
 30
0.0
 10
22.3119461494
 20
35.8687146266
 30
0.0
 10
22.32064425
 20
35.9176074534
 30
0.0
 10
22.350951758
 20
35.9863101757
 30
0.0
 10
22.3952958536
 20
36.0469086536
 30
0.0
 10
22.433288942
 20
36.0788877419
 30
0.0
 10
22.4533669168
 20
36.0904796969
 30
0.0
  0
SPLINE
  5
2CE
100
AcDbEntity
  8
0
100
AcDbSpline
 62
7
  6
BYLAYER
 70
0
 71
3
 72
10
 73
6
 74
0
 42
0.0000001
 43
0.0000001
 44
0.0000000001
 40
0.0
 40
0.0
 40
0.0
 40
0.0
 40
0.5097706746
 40
0.7300288801
 40
1.0
 40
1.0
 40
1.0
 40
1.0
 10
36.9485930139
 20
29.1540932971
 30
0.0
 10
36.9493936233
 20
29.154633179
 30
0.0
 10
36.9510557127
 20
29.1553873962
 30
0.0
 10
36.9524779175
 20
29.1538352619
 30
0.0
 10
36.9525906825
 20
29.152887547
 30
0.0
 10
36.9526223618
 20
29.1523771363
 30
0.0
  0
SPLINE
  5
2CF
100
AcDbEntity
  8
0
100
AcDbSpline
 62
7
  6
BYLAYER
 70
0
 71
3
 72
11
 73
7
 74
0
 42
0.0000001
 43
0.0000001
 44
0.0000000001
 40
0.0
 40
0.0
 40
0.0
 40
0.0
 40
0.2372185796
 40
0.5000005262
 40
0.7627821863
 40
1.0
 40
1.0
 40
1.0
 40
1.0
 10
31.6457945213
 20
25.4760876785
 30
0.0
 10
31.665870651
 20
25.4644969819
 30
0.0
 10
31.712560994
 20
25.4475806915
 30
0.0
 10
31.7872160999
 20
25.4394759152
 30
0.0
 10
31.8618710931
 20
25.4475810322
 30
0.0
 10
31.9085612525
 20
25.4644975544
 30
0.0
 10
31.9286372338
 20
25.4760883584
 30
0.0
  0
SPLINE
  5
2D0
100
AcDbEntity
  8
0
100
AcDbSpline
 62
7
  6
BYLAYER
 70
0
 71
3
 72
13
 73
9
 74
0
 42
0.0000001
 43
0.0000001
 44
0.0000000001
 40
0.0
 40
0.0
 40
0.0
 40
0.0
 40
0.2989914135
 40
0.4505277461
 40
0.5925758258
 40
0.7092563108
 40
0.798754374
 40
1.0
 40
1.0
 40
1.0
 40
1.0
 10
36.9526223618
 20
29.1523771363
 30
0.0
 10
36.9523984867
 20
29.1511722175
 30
0.0
 10
36.9519016995
 20
29.1493587155
 30
0.0
 10
36.9505369397
 20
29.1473035957
 30
0.0
 10
36.9492237658
 20
29.1462466774
 30
0.0
 10
36.9478624093
 20
29.1456174941
 30
0.0
 10
36.9461154445
 20
29.1461429442
 30
0.0
 10
36.9457455291
 20
29.1474929931
 30
0.0
 10
36.9455513235
 20
29.1482946947
 30
0.0
  0
SPLINE
  5
2D1
100
AcDbEntity
  8
0
100
AcDbSpline
 62
7
  6
BYLAYER
 70
0
 71
3
 72
21
 73
17
 74
0
 42
0.0000001
 43
0.0000001
 44
0.0000000001
 40
0.0
 40
0.0
 40
0.0
 40
0.0
 40
0.0623777641
 40
0.1287826336
 40
0.1984124248
 40
0.2704295697
 40
0.4174920106
 40
0.5617179259
 40
0.6303448489
 40
0.695463104
 40
0.7564271269
 40
0.8128815289
 40
0.8648043128
 40
0.9125907919
 40
0.9571764785
 40
1.0
 40
1.0
 40
1.0
 40
1.0
 10
34.9373680649
 20
29.1482898676
 30
0.0
 10
34.937368295
 20
29.2073763356
 30
0.0
 10
34.9454014425
 20
29.3294433857
 30
0.0
 10
34.9783193337
 20
29.5147965567
 30
0.0
 10
35.0319204286
 20
29.7047669958
 30
0.0
 10
35.1300347685
 20
29.9603685316
 30
0.0
 10
35.2946646415
 20
30.2645262643
 30
0.0
 10
35.5056552135
 20
30.5347380335
 30
0.0
 10
35.695584094
 20
30.7176429146
 30
0.0
 10
35.841092596
 20
30.8315695461
 30
0.0
 10
35.9889655075
 20
30.9220180701
 30
0.0
 10
36.1361942057
 20
30.9870626896
 30
0.0
 10
36.2798420659
 20
31.0252409151
 30
0.0
 10
36.4170999835
 20
31.0353199835
 30
0.0
 10
36.5449165421
 20
31.0165953167
 30
0.0
 10
36.6223446908
 20
30.9844046221
 30
0.0
 10
36.657477619
 20
30.9641286716
 30
0.0
  0
SPLINE
  5
2D2
100
AcDbEntity
  8
0
100
AcDbSpline
 62
7
  6
BYLAYER
 70
0
 71
3
 72
11
 73
7
 74
0
 42
0.0000001
 43
0.0000001
 44
0.0000000001
 40
0.0
 40
0.0
 40
0.0
 40
0.0
 40
0.2897344779
 40
0.5490384024
 40
0.782149042
 40
1.0
 40
1.0
 40
1.0
 40
1.0
 10
16.0013388076
 20
38.9172947072
 30
0.0
 10
15.9722429002
 20
38.9340928571
 30
0.0
 10
15.919457448
 20
38.9704339219
 30
0.0
 10
15.8563977513
 20
39.0367366576
 30
0.0
 10
15.8164721602
 20
39.1100591006
 30
0.0
 10
15.8071480508
 20
39.16270654
 30
0.0
 10
15.8071538517
 20
39.1879679799
 30
0.0
  0
SPLINE
  5
2D3
100
AcDbEntity
  8
0
100
AcDbSpline
 62
7
  6
BYLAYER
 70
0
 71
3
 72
9
 73
5
 74
0
 42
0.0000001
 43
0.0000001
 44
0.0000000001
 40
0.0
 40
0.0
 40
0.0
 40
0.0
 40
0.5223965703
 40
1.0
 40
1.0
 40
1.0
 40
1.0
 10
12.3513574811
 20
41.1950726832
 30
0.0
 10
12.222087669
 20
41.2158471065
 30
0.0
 10
11.9771518996
 20
41.2741309162
 30
0.0
 10
11.7453798815
 20
41.3744181512
 30
0.0
 10
11.6417143786
 20
41.4342681033
 30
0.0
  0
SPLINE
  5
2D4
100
AcDbEntity
  8
0
100
AcDbSpline
 62
7
  6
BYLAYER
 70
0
 71
3
 72
12
 73
8
 74
0
 42
0.0000001
 43
0.0000001
 44
0.0000000001
 40
0.0
 40
0.0
 40
0.0
 40
0.0
 40
0.2895565594
 40
0.5486104912
 40
0.7815846092
 40
0.891835591
 40
1.0
 40
1.0
 40
1.0
 40
1.0
 10
6.8438362891
 20
44.2042616442
 30
0.0
 10
6.7902726661
 20
44.2351859167
 30
0.0
 10
6.6931096883
 20
44.3021031819
 30
0.0
 10
6.5770367649
 20
44.42402196
 30
0.0
 10
6.5146840417
 20
44.5389108148
 30
0.0
 10
6.4904245712
 20
44.6326243523
 30
0.0
 10
6.486400341
 20
44.6793729777
 30
0.0
 10
6.4863945325
 20
44.7024770118
 30
0.0
  0
SPLINE
  5
2D5
100
AcDbEntity
  8
0
100
AcDbSpline
 62
7
  6
BYLAYER
 70
0
 71
3
 72
11
 73
7
 74
0
 42
0.0000001
 43
0.0000001
 44
0.0000000001
 40
0.0
 40
0.0
 40
0.0
 40
0.0
 40
0.2372446848
 40
0.5000016179
 40
0.7627576706
 40
1.0
 40
1.0
 40
1.0
 40
1.0
 10
20.3320389189
 20
36.9886044953
 30
0.0
 10
20.3320389189
 20
37.0117887393
 30
0.0
 10
20.3407370195
 20
37.060681566
 30
0.0
 10
20.3710445276
 20
37.1293842883
 30
0.0
 10
20.4153886232
 20
37.1899827662
 30
0.0
 10
20.4533817116
 20
37.2219618546
 30
0.0
 10
20.4734596864
 20
37.2335538095
 30
0.0
  0
SPLINE
  5
2D6
100
AcDbEntity
  8
0
100
AcDbSpline
 62
7
  6
BYLAYER
 70
0
 71
3
 72
13
 73
9
 74
0
 42
0.0000001
 43
0.0000001
 44
0.0000000001
 40
0.0
 40
0.0
 40
0.0
 40
0.0
 40
0.0954061495
 40
0.1954932342
 40
0.3038809644
 40
0.4227419639
 40
0.6931530978
 40
1.0
 40
1.0
 40
1.0
 40
1.0
 10
16.1413430558
 20
40.4472764925
 30
0.0
 10
16.141335821
 20
40.4572295567
 30
0.0
 10
16.1384037681
 20
40.4777299203
 30
0.0
 10
16.1254501417
 20
40.5070252941
 30
0.0
 10
16.1046174863
 20
40.5344142585
 30
0.0
 10
16.0655948929
 20
40.5690514807
 30
0.0
 10
16.0002567983
 20
40.6030194658
 30
0.0
 10
15.941509854
 20
40.6181139647
 30
0.0
 10
15.909904158
 20
40.623193187
 30
0.0
  0
SPLINE
  5
2D7
100
AcDbEntity
  8
0
100
AcDbSpline
 62
7
  6
BYLAYER
 70
0
 71
3
 72
11
 73
7
 74
0
 42
0.0000001
 43
0.0000001
 44
0.0000000001
 40
0.0
 40
0.0
 40
0.0
 40
0.0
 40
0.2372193634
 40
0.5000010919
 40
0.762782226
 40
1.0
 40
1.0
 40
1.0
 40
1.0
 10
50.2426266176
 20
41.0302766882
 30
0.0
 10
50.2426266176
 20
41.0534585919
 30
0.0
 10
50.2339317666
 20
41.1023519977
 30
0.0
 10
50.2036232882
 20
41.1710578452
 30
0.0
 10
50.159276336
 20
41.2316583544
 30
0.0
 10
50.1212807692
 20
41.2636346449
 30
0.0
 10
50.1012046726
 20
41.2752253225
 30
0.0
  0
SPLINE
  5
2D8
100
AcDbEntity
  8
0
100
AcDbSpline
 62
7
  6
BYLAYER
 70
0
 71
3
 72
11
 73
7
 74
0
 42
0.0000001
 43
0.0000001
 44
0.0000000001
 40
0.0
 40
0.0
 40
0.0
 40
0.0
 40
0.2372196254
 40
0.500001618
 40
0.76278273
 40
1.0
 40
1.0
 40
1.0
 40
1.0
 10
31.6457945213
 20
30.456752423
 30
0.0
 10
31.6457945213
 20
30.4799343392
 30
0.0
 10
31.6544893007
 20
30.5288277669
 30
0.0
 10
31.6847975061
 20
30.5975337309
 30
0.0
 10
31.7291440604
 20
30.6581344336
 30
0.0
 10
31.7671393298
 20
30.6901109461
 30
0.0
 10
31.7872152887
 20
30.7017017372
 30
0.0
  0
SPLINE
  5
2D9
100
AcDbEntity
  8
0
100
AcDbSpline
 62
7
  6
BYLAYER
 70
0
 71
3
 72
11
 73
7
 74
0
 42
0.0000001
 43
0.0000001
 44
0.0000000001
 40
0.0
 40
0.0
 40
0.0
 40
0.0
 40
0.2372178137
 40
0.4999994738
 40
0.7627814204
 40
1.0
 40
1.0
 40
1.0
 40
1.0
 10
31.9286372338
 20
30.4567531029
 30
0.0
 10
31.9085612525
 20
30.4451622989
 30
0.0
 10
31.8618710931
 20
30.4282457767
 30
0.0
 10
31.7872160999
 20
30.4201406597
 30
0.0
 10
31.712560994
 20
30.428245436
 30
0.0
 10
31.665870651
 20
30.4451617264
 30
0.0
 10
31.6457945213
 20
30.456752423
 30
0.0
  0
SPLINE
  5
2DA
100
AcDbEntity
  8
0
100
AcDbSpline
 62
7
  6
BYLAYER
 70
0
 71
3
 72
11
 73
7
 74
0
 42
0.0000001
 43
0.0000001
 44
0.0000000001
 40
0.0
 40
0.0
 40
0.0
 40
0.0
 40
0.237217774
 40
0.4999989081
 40
0.7627806366
 40
1.0
 40
1.0
 40
1.0
 40
1.0
 10
31.7872152887
 20
30.7017017372
 30
0.0
 10
31.8072913853
 20
30.6901110597
 30
0.0
 10
31.8452869522
 20
30.6581347691
 30
0.0
 10
31.8896339044
 20
30.5975342599
 30
0.0
 10
31.9199423828
 20
30.5288284125
 30
0.0
 10
31.9286372338
 20
30.4799350067
 30
0.0
 10
31.9286372338
 20
30.4567531029
 30
0.0
  0
SPLINE
  5
2DB
100
AcDbEntity
  8
0
100
AcDbSpline
 62
7
  6
BYLAYER
 70
0
 71
3
 72
11
 73
7
 74
0
 42
0.0000001
 43
0.0000001
 44
0.0000000001
 40
0.0
 40
0.0
 40
0.0
 40
0.0
 40
0.2339640461
 40
0.4749802795
 40
0.729087764
 40
1.0
 40
1.0
 40
1.0
 40
1.0
 10
29.6586664521
 20
46.4190092934
 30
0.0
 10
29.6586683902
 20
46.4022674002
 30
0.0
 10
29.6549503076
 20
46.3681740665
 30
0.0
 10
29.6384693235
 20
46.3183123802
 30
0.0
 10
29.6114482529
 20
46.270281251
 30
0.0
 10
29.5876833629
 20
46.2409519119
 30
0.0
 10
29.5744324415
 20
46.2268018973
 30
0.0
  0
SPLINE
  5
2DC
100
AcDbEntity
  8
0
100
AcDbSpline
 62
7
  6
BYLAYER
 70
0
 71
3
 72
11
 73
7
 74
0
 42
0.0000001
 43
0.0000001
 44
0.0000000001
 40
0.0
 40
0.0
 40
0.0
 40
0.0
 40
0.2372446848
 40
0.5000016179
 40
0.7627576706
 40
1.0
 40
1.0
 40
1.0
 40
1.0
 10
26.2717606102
 20
33.5593821574
 30
0.0
 10
26.2717606102
 20
33.5825664013
 30
0.0
 10
26.2804587108
 20
33.6314592281
 30
0.0
 10
26.3107662188
 20
33.7001619503
 30
0.0
 10
26.3551103145
 20
33.7607604283
 30
0.0
 10
26.3931034028
 20
33.7927395166
 30
0.0
 10
26.4131813776
 20
33.8043314716
 30
0.0
  0
SPLINE
  5
2DD
100
AcDbEntity
  8
0
100
AcDbSpline
 62
7
  6
BYLAYER
 70
0
 71
3
 72
11
 73
7
 74
0
 42
0.0000001
 43
0.0000001
 44
0.0000000001
 40
0.0
 40
0.0
 40
0.0
 40
0.0
 40
0.2896433527
 40
0.5491132405
 40
0.7822372579
 40
1.0
 40
1.0
 40
1.0
 40
1.0
 10
20.7562635385
 20
41.6833771051
 30
0.0
 10
20.7255545603
 20
41.7011065408
 30
0.0
 10
20.6698337777
 20
41.7394997322
 30
0.0
 10
20.6032225627
 20
41.80948016
 30
0.0
 10
20.5610727232
 20
41.8869158078
 30
0.0
 10
20.5512594548
 20
41.9424885197
 30
0.0
 10
20.5512487446
 20
41.9691480352
 30
0.0
  0
SPLINE
  5
2DE
100
AcDbEntity
  8
0
100
AcDbSpline
 62
7
  6
BYLAYER
 70
0
 71
3
 72
9
 73
5
 74
0
 42
0.0000001
 43
0.0000001
 44
0.0000000001
 40
0.0
 40
0.0
 40
0.0
 40
0.0
 40
0.4754245936
 40
1.0
 40
1.0
 40
1.0
 40
1.0
 10
32.1233062961
 20
48.2252614154
 30
0.0
 10
32.1034239289
 20
48.2367402458
 30
0.0
 10
32.0564921433
 20
48.251963763
 30
0.0
 10
32.0076832129
 20
48.2539754665
 30
0.0
 10
31.9824575804
 20
48.2516617091
 30
0.0
  0
SPLINE
  5
2DF
100
AcDbEntity
  8
0
100
AcDbSpline
 62
7
  6
BYLAYER
 70
0
 71
3
 72
15
 73
11
 74
0
 42
0.0000001
 43
0.0000001
 44
0.0000000001
 40
0.0
 40
0.0
 40
0.0
 40
0.0
 40
0.14457423
 40
0.2889489164
 40
0.4295955374
 40
0.5637760596
 40
0.6890974967
 40
0.7479026512
 40
0.8039699362
 40
1.0
 40
1.0
 40
1.0
 40
1.0
 10
29.9548906414
 20
48.0656882519
 30
0.0
 10
29.9057219908
 20
48.0611783816
 30
0.0
 10
29.8068955579
 20
48.0574526636
 30
0.0
 10
29.6602441806
 20
48.0671284106
 30
0.0
 10
29.5189279606
 20
48.0918749383
 30
0.0
 10
29.3876151352
 20
48.1308747584
 30
0.0
 10
29.287874818
 20
48.1750222563
 30
0.0
 10
29.2171124394
 20
48.2168089444
 30
0.0
 10
29.1306248231
 20
48.2780171662
 30
0.0
 10
29.06950206
 20
48.3444412556
 30
0.0
 10
29.0404262786
 20
48.4047460534
 30
0.0
  0
SPLINE
  5
2E0
100
AcDbEntity
  8
0
100
AcDbSpline
 62
7
  6
BYLAYER
 70
0
 71
3
 72
10
 73
6
 74
0
 42
0.0000001
 43
0.0000001
 44
0.0000000001
 40
0.0
 40
0.0
 40
0.0
 40
0.0
 40
0.4630078755
 40
0.7220132375
 40
1.0
 40
1.0
 40
1.0
 40
1.0
 10
28.0498581434
 20
50.459239802
 30
0.0
 10
28.0225545191
 20
50.5158690468
 30
0.0
 10
27.961332763
 20
50.5955916285
 30
0.0
 10
27.8576756723
 20
50.6834205483
 30
0.0
 10
27.7963705206
 20
50.7233624356
 30
0.0
 10
27.763681867
 20
50.7422348116
 30
0.0
  0
SPLINE
  5
2E1
100
AcDbEntity
  8
0
100
AcDbSpline
 62
7
  6
BYLAYER
 70
0
 71
3
 72
11
 73
7
 74
0
 42
0.0000001
 43
0.0000001
 44
0.0000000001
 40
0.0
 40
0.0
 40
0.0
 40
0.0
 40
0.2279777294
 40
0.4747212031
 40
0.7344427893
 40
1.0
 40
1.0
 40
1.0
 40
1.0
 10
22.9658037776
 20
53.5122283524
 30
0.0
 10
22.9290913509
 20
53.5334238023
 30
0.0
 10
22.8484698562
 20
53.5704914555
 30
0.0
 10
22.7170416843
 20
53.6090060246
 30
0.0
 10
22.5748638824
 20
53.6313040144
 30
0.0
 10
22.4769870573
 20
53.6348518135
 30
0.0
 10
22.427620837
 20
53.633711647
 30
0.0
  0
SPLINE
  5
2E2
100
AcDbEntity
  8
0
100
AcDbSpline
 62
7
  6
BYLAYER
 70
0
 71
3
 72
21
 73
17
 74
0
 42
0.0000001
 43
0.0000001
 44
0.0000000001
 40
0.0
 40
0.0
 40
0.0
 40
0.0
 40
0.0428236825
 40
0.0874166097
 40
0.1352099324
 40
0.1871338379
 40
0.2435940015
 40
0.3045656526
 40
0.3696810093
 40
0.4383052232
 40
0.582533841
 40
0.7295779519
 40
0.8015835739
 40
0.8712063245
 40
0.9376170575
 40
1.0
 40
1.0
 40
1.0
 40
1.0
 10
36.1766402745
 20
31.2417276552
 30
0.0
 10
36.1415071973
 20
31.2620034479
 30
0.0
 10
36.0640757565
 20
31.2942062545
 30
0.0
 10
35.9362419421
 20
31.3129114372
 30
0.0
 10
35.7989711593
 20
31.3028363062
 30
0.0
 10
35.6553109282
 20
31.2646497797
 30
0.0
 10
35.5080777485
 20
31.1995827523
 30
0.0
 10
35.3601991682
 20
31.1091263439
 30
0.0
 10
35.2146908024
 20
30.9951965513
 30
0.0
 10
35.0247778304
 20
30.8122802153
 30
0.0
 10
34.8137994284
 20
30.5420831082
 30
0.0
 10
34.6491910223
 20
30.2379437253
 30
0.0
 10
34.5510899756
 20
29.9823758939
 30
0.0
 10
34.4974851985
 20
29.7924191318
 30
0.0
 10
34.4645755036
 20
29.6070613603
 30
0.0
 10
34.4565334518
 20
29.4849848049
 30
0.0
 10
34.4565334518
 20
29.4258935807
 30
0.0
  0
SPLINE
  5
2E3
100
AcDbEntity
  8
0
100
AcDbSpline
 62
7
  6
BYLAYER
 70
0
 71
3
 72
12
 73
8
 74
0
 42
0.0000001
 43
0.0000001
 44
0.0000000001
 40
0.0
 40
0.0
 40
0.0
 40
0.0
 40
0.2526573178
 40
0.514902124
 40
0.7691661673
 40
0.8884308626
 40
1.0
 40
1.0
 40
1.0
 40
1.0
 10
21.584159081
 20
41.6136429585
 30
0.0
 10
21.5157392324
 20
41.5922856624
 30
0.0
 10
21.3712015135
 20
41.5642186945
 30
0.0
 10
21.1519904664
 20
41.5624010327
 30
0.0
 10
20.9730255515
 20
41.5937025535
 30
0.0
 10
20.842780755
 20
41.638855725
 30
0.0
 10
20.7836740655
 20
41.667551988
 30
0.0
 10
20.7562635385
 20
41.6833771051
 30
0.0
  0
SPLINE
  5
2E4
100
AcDbEntity
  8
0
100
AcDbSpline
 62
7
  6
BYLAYER
 70
0
 71
3
 72
9
 73
5
 74
0
 42
0.0000001
 43
0.0000001
 44
0.0000000001
 40
0.0
 40
0.0
 40
0.0
 40
0.0
 40
0.4758978016
 40
1.0
 40
1.0
 40
1.0
 40
1.0
 10
22.1684855316
 20
41.1350743983
 30
0.0
 10
22.0921492993
 20
41.2280430482
 30
0.0
 10
21.9093828811
 20
41.4054200192
 30
0.0
 10
21.6988886844
 20
41.5474052896
 30
0.0
 10
21.584159081
 20
41.6136429585
 30
0.0
  0
SPLINE
  5
2E5
100
AcDbEntity
  8
0
100
AcDbSpline
 62
7
  6
BYLAYER
 70
0
 71
3
 72
11
 73
7
 74
0
 42
0.0000001
 43
0.0000001
 44
0.0000000001
 40
0.0
 40
0.0
 40
0.0
 40
0.0
 40
0.23721727
 40
0.499998382
 40
0.7627803746
 40
1.0
 40
1.0
 40
1.0
 40
1.0
 10
17.9985756484
 20
38.6623964504
 30
0.0
 10
17.9784996894
 20
38.6508056592
 30
0.0
 10
17.9405044201
 20
38.6188291467
 30
0.0
 10
17.8961578657
 20
38.558228444
 30
0.0
 10
17.8658496604
 20
38.4895224801
 30
0.0
 10
17.8571548809
 20
38.4406290523
 30
0.0
 10
17.8571548809
 20
38.4174471362
 30
0.0
  0
SPLINE
  5
2E6
100
AcDbEntity
  8
0
100
AcDbSpline
 62
7
  6
BYLAYER
 70
0
 71
3
 72
11
 73
7
 74
0
 42
0.0000001
 43
0.0000001
 44
0.0000000001
 40
0.0
 40
0.0
 40
0.0
 40
0.0
 40
0.2372446848
 40
0.5000016179
 40
0.7627576706
 40
1.0
 40
1.0
 40
1.0
 40
1.0
 10
24.2918533798
 20
34.70245627
 30
0.0
 10
24.2918533798
 20
34.7256405139
 30
0.0
 10
24.3005514804
 20
34.7745333407
 30
0.0
 10
24.3308589884
 20
34.843236063
 30
0.0
 10
24.3752030841
 20
34.9038345409
 30
0.0
 10
24.4131961724
 20
34.9358136293
 30
0.0
 10
24.4332741472
 20
34.9474055842
 30
0.0
  0
SPLINE
  5
2E7
100
AcDbEntity
  8
0
100
AcDbSpline
 62
7
  6
BYLAYER
 70
0
 71
3
 72
13
 73
9
 74
0
 42
0.0000001
 43
0.0000001
 44
0.0000000001
 40
0.0
 40
0.0
 40
0.0
 40
0.0
 40
0.1080854121
 40
0.2182191214
 40
0.3322291145
 40
0.4516618784
 40
0.7106650434
 40
1.0
 40
1.0
 40
1.0
 40
1.0
 10
35.2325044469
 20
28.4959469022
 30
0.0
 10
35.2091409417
 20
28.5094304715
 30
0.0
 10
35.1642289944
 20
28.5407839968
 30
0.0
 10
35.1048913711
 20
28.5991979109
 30
0.0
 10
35.053821125
 20
28.6685012245
 30
0.0
 10
34.9959435235
 20
28.7773481627
 30
0.0
 10
34.948264106
 20
28.9388198586
 30
0.0
 10
34.9373683461
 20
29.0760797454
 30
0.0
 10
34.9373680649
 20
29.1482898676
 30
0.0
  0
SPLINE
  5
2E8
100
AcDbEntity
  8
0
100
AcDbSpline
 62
7
  6
BYLAYER
 70
0
 71
3
 72
11
 73
7
 74
0
 42
0.0000001
 43
0.0000001
 44
0.0000000001
 40
0.0
 40
0.0
 40
0.0
 40
0.0
 40
0.2896433527
 40
0.5491132405
 40
0.7822372579
 40
1.0
 40
1.0
 40
1.0
 40
1.0
 10
28.4636953641
 20
46.1332383823
 30
0.0
 10
28.432986386
 20
46.150967818
 30
0.0
 10
28.3772656034
 20
46.1893610094
 30
0.0
 10
28.3106543884
 20
46.2593414372
 30
0.0
 10
28.2685045488
 20
46.336777085
 30
0.0
 10
28.2586912805
 20
46.3923497969
 30
0.0
 10
28.2586805702
 20
46.4190093124
 30
0.0
  0
SPLINE
  5
2E9
100
AcDbEntity
  8
0
100
AcDbSpline
 62
7
  6
BYLAYER
 70
0
 71
3
 72
13
 73
9
 74
0
 42
0.0000001
 43
0.0000001
 44
0.0000000001
 40
0.0
 40
0.0
 40
0.0
 40
0.0
 40
0.2893499415
 40
0.5483271948
 40
0.6677522534
 40
0.7817657139
 40
0.8919062674
 40
1.0
 40
1.0
 40
1.0
 40
1.0
 10
34.4565334518
 20
29.4258935807
 30
0.0
 10
34.4565334518
 20
29.3536798047
 30
0.0
 10
34.4674288853
 20
29.216422922
 30
0.0
 10
34.5151048986
 20
29.0549550579
 30
0.0
 10
34.5729832803
 20
28.946116907
 30
0.0
 10
34.624053639
 20
28.8768140633
 30
0.0
 10
34.6833862784
 20
28.8183875299
 30
0.0
 10
34.7283072192
 20
28.7870398145
 30
0.0
 10
34.7516725652
 20
28.7735553448
 30
0.0
  0
ENDSEC
  0
SECTION
  2
OBJECTS
  0
DICTIONARY
  5
C
100
AcDbDictionary
280
0
281
1
  3
ACAD_GROUP
350
D
  3
ACAD_MLINESTYLE
350
17
  3
ACAD_LAYOUT
350
1A
  3
ACAD_PLOTSETTINGS
350
19
  3
ACAD_PLOTSTYLENAME
350
E
  0
DICTIONARY
  5
D
102
{ACAD_REACTORS
330
C
102
}
100
AcDbDictionary
280
0
281
1
  0
ACDBDICTIONARYWDFLT
  5
E
102
{ACAD_REACTORS
330
C
102
}
100
AcDbDictionary
281
1
  3
Normal
350
F
100
AcDbDictionaryWithDefault
340
F
  0
DICTIONARY
  5
17
102
{ACAD_REACTORS
330
C
102
}
100
AcDbDictionary
280
0
281
1
  3
Standard
350
18
  0
DICTIONARY
  5
19
102
{ACAD_REACTORS
330
C
102
}
100
AcDbDictionary
281
1
  0
DICTIONARY
  5
1A
102
{ACAD_REACTORS
330
C
102
}
100
AcDbDictionary
281
1
  3
Model
350
2EA
  3
Layout1
350
2EB
  0
ACDBPLACEHOLDER
  5
F
102
{ACAD_REACTORS
330
E
102
}
  0
MLINESTYLE
  5
18
102
{ACAD_REACTORS
330
17
102
}
100
AcDbMlineStyle
  2
STANDARD
 70
0
  3

 62
256
 51
90.0
 52
90.0
 71
2
 49
0.5
 62
256
  6
BYLAYER
 49
-0.5
 62
256
  6
BYLAYER
  0
LAYOUT
  5
2EA
102
{ACAD_REACTORS
330
1A
102
}
100
AcDbPlotSettings
  1

  2
none_device
  4

  6

 40
0.0
 41
0.0
 42
0.0
 43
0.0
 44
210.0
 45
297.0
 46
0.0
 47
0.0
 48
0.0
 49
0.0
140
0.0
141
0.0
142
1.0
143
1.0
 70
1024
 72
1
 73
0
 74
0
  7

 75
0
147
1.0
148
0.0
149
0.0
100
AcDbLayout
  1
Model
 70
0
 71
0
 10
0.0
 20
0.0
 11
210.0
 21
297.0
 12
0.0
 22
0.0
 32
0.0
 14
0.0
 24
0.0
 34
0.0
 15
0.0
 25
0.0
 35
0.0
146
0.0
 13
0.0
 23
0.0
 33
0.0
 16
1.0
 26
0.0
 36
0.0
 17
0.0
 27
1.0
 37
0.0
 76
0
330
210
345
0
346
0
  0
LAYOUT
  5
2EB
102
{ACAD_REACTORS
330
1A
102
}
100
AcDbPlotSettings
  1

  2
none_device
  4

  6

 40
0.0
 41
0.0
 42
0.0
 43
0.0
 44
210.0
 45
297.0
 46
0.0
 47
0.0
 48
0.0
 49
0.0
140
0.0
141
0.0
142
1.0
143
1.0
 70
0
 72
1
 73
0
 74
0
  7

 75
0
147
1.0
148
0.0
149
0.0
100
AcDbLayout
  1
Layout1
 70
0
 71
1
 10
0.0
 20
0.0
 11
210.0
 21
297.0
 12
0.0
 22
0.0
 32
0.0
 14
0.0
 24
0.0
 34
0.0
 15
0.0
 25
0.0
 35
0.0
146
0.0
 13
0.0
 23
0.0
 33
0.0
 16
1.0
 26
0.0
 36
0.0
 17
0.0
 27
1.0
 37
0.0
 76
0
330
211
345
0
346
0
  0
ENDSEC
  0
EOF
