999
DXF file: C:\Users\sesa63760\Dev\_Creo\CAD\MCADID0005031_3D-CAD\drw0001_1.dxf
999
Pro/ENGINEER 2019471 by Parametric Technology Corporation
  0
SECTION
  2
HEADER
  9
$ACADVER
  1
AC1024
  9
$DWGCODEPAGE
  3
ANSI_1252
  9
$EXTMAX
 10
26.2150773038
 20
37.0756093297
 30
0.0
  9
$EXTMIN
 10
0.0
 20
0.0
 30
0.0
  9
$LIMMIN
 10
0.0
 20
0.0
  9
$LIMMAX
 10
26.2150773038
 20
37.0756093297
  9
$VIEWCTR
 10
13.1075386519
 20
18.5378046648
  9
$VIEWSIZE
 40
37.0756093297
  9
$CLAYER
  8
0
  9
$LTSCALE
 40
2.41678046
  9
$CELTYPE
  6
BYLAYER
  9
$DIMSCALE
 40
1.0
  9
$DIMASZ
 40
0.3120842536
  9
$DIMEXO
 40
1.0
  9
$DIMDLI
 40
1.6697755906
  9
$DIMEXE
 40
1.0
  9
$DIMCEN
 40
0.3954731662
  9
$DIMLFAC
 40
1.0
  9
$DIMBLK
  1
_FILLED
  9
$DIMALT
 70
0
  9
$DIMALTF
 40
0.0393700787
  9
$DIMTXT
 40
0.4369179551
  9
$DIMTOL
 70
1
  9
$DIMLIM
 70
0
  9
$DIMTFAC
 40
1.0
  9
$DIMTP
 40
0.01
  9
$DIMTM
 40
0.01
  9
$DIMGAP
 40
0.625
  9
$DIMDSEP
 70
46
  9
$AUNITS
 70
0
  9
$PDMODE
 70
3
  9
$PDSIZE
 40
0.3125
  9
$HANDSEED
  5
243
  9
$TILEMODE
 70
1
  9
$MEASUREMENT
 70
1
  9
$INSUNITS
 70
4
  0
ENDSEC
  0
SECTION
  2
CLASSES
  0
CLASS
  1
ACDBDICTIONARYWDFLT
  2
AcDbDictionaryWithDefault
  3
AutoCAD 2000
 90
0
 91
1
280
0
281
0
  0
CLASS
  1
ACDBPLACEHOLDER
  2
AcDbPlaceHolder
  3
AutoCAD 2000
 90
0
 91
1
280
0
281
0
  0
CLASS
  1
LAYOUT
  2
AcDbLayout
  3
AutoCAD 2000
 90
0
 91
0
280
0
281
0
  0
ENDSEC
  0
SECTION
  2
TABLES
  0
TABLE
  2
VPORT
  5
8
100
AcDbSymbolTable
 70
2
  0
VPORT
  5
1F4
100
AcDbSymbolTableRecord
100
AcDbViewportTableRecord
  2
*ACTIVE
 70
0
 10
0.0
 20
0.0
 11
1.0
 21
1.0
 12
13.1075386519
 22
18.5378046648
 13
0.0
 23
0.0
 14
1.0
 24
1.0
 15
0.0
 25
0.0
 16
0.0
 26
0.0
 36
1.0
 17
0.0
 27
0.0
 37
0.0
 40
37.0756093297
 41
0.7070707071
 42
50.0
 43
0.0
 44
0.0
 50
0.0
 51
0.0
 71
0
 72
100
 73
1
 74
1
 75
0
 76
0
 77
0
 78
0
  0
ENDTAB
  0
TABLE
  2
LTYPE
  5
5
100
AcDbSymbolTable
 70
6
  0
LTYPE
  5
14
100
AcDbSymbolTableRecord
100
AcDbLinetypeTableRecord
  2
BYBLOCK
 70
0
  3

 72
65
 73
0
 40
0.0
  0
LTYPE
  5
15
100
AcDbSymbolTableRecord
100
AcDbLinetypeTableRecord
  2
BYLAYER
 70
0
  3

 72
65
 73
0
 40
0.0
  0
LTYPE
  5
16
100
AcDbSymbolTableRecord
100
AcDbLinetypeTableRecord
  2
CONTINUOUS
 70
64
  3
Solid line
 72
65
 73
0
 40
0.0
  0
LTYPE
  5
1F5
100
AcDbSymbolTableRecord
100
AcDbLinetypeTableRecord
  2
CENTER
 70
64
  3
____ _ ____ _ ____ _ ____ _ ____ _ ____ _ ____
 72
65
 73
4
 40
0.6
 49
0.375
 74
0
 49
-0.075
 74
0
 49
0.075
 74
0
 49
-0.075
 74
0
  0
LTYPE
  5
1F6
100
AcDbSymbolTableRecord
100
AcDbLinetypeTableRecord
  2
HIDDEN
 70
64
  3
- - - - - - - - - - - - - - - - - - - -
 72
65
 73
2
 40
0.2
 49
0.1
 74
0
 49
-0.1
 74
0
  0
LTYPE
  5
1F7
100
AcDbSymbolTableRecord
100
AcDbLinetypeTableRecord
  2
PHANTOM
 70
64
  3
_____ _ _ _____ _ _ _____ _ _ _____
 72
65
 73
6
 40
0.8
 49
0.45
 74
0
 49
-0.05
 74
0
 49
0.1
 74
0
 49
-0.05
 74
0
 49
0.1
 74
0
 49
-0.05
 74
0
  0
LTYPE
  5
1F8
100
AcDbSymbolTableRecord
100
AcDbLinetypeTableRecord
  2
DOT
 70
64
  3
. . . . . . . . . . . . . . . . . . . .
 72
65
 73
2
 40
0.2
 49
0.1
 74
0
 49
-0.1
 74
0
  0
LTYPE
  5
1F9
100
AcDbSymbolTableRecord
100
AcDbLinetypeTableRecord
  2
DASHED
 70
64
  3
- - - - - - - - - - - - - - - - - - - -
 72
65
 73
2
 40
0.2
 49
0.1
 74
0
 49
-0.1
 74
0
  0
ENDTAB
  0
TABLE
  2
LAYER
  5
2
100
AcDbSymbolTable
 70
36
  0
LAYER
  5
10
100
AcDbSymbolTableRecord
100
AcDbLayerTableRecord
  2
0
 70
0
 62
7
  6
CONTINUOUS
370
-3
390
F
  0
LAYER
  5
1FA
100
AcDbSymbolTableRecord
100
AcDbLayerTableRecord
  2
DEFAULT_1
 70
0
 62
7
  6
CENTER
370
-3
390
F
  0
LAYER
  5
1FB
100
AcDbSymbolTableRecord
100
AcDbLayerTableRecord
  2
DEFAULT_2
 70
0
 62
7
  6
HIDDEN
370
-3
390
F
  0
LAYER
  5
1FC
100
AcDbSymbolTableRecord
100
AcDbLayerTableRecord
  2
DEFAULT_3
 70
0
 62
7
  6
PHANTOM
370
-3
390
F
  0
LAYER
  5
1FD
100
AcDbSymbolTableRecord
100
AcDbLayerTableRecord
  2
00_COMPONENTS
 70
0
 62
7
  6
CONTINUOUS
370
-3
390
F
  0
LAYER
  5
1FE
100
AcDbSymbolTableRecord
100
AcDbLayerTableRecord
  2
01_1_DEFAULT_DATUMS
 70
0
 62
7
  6
CONTINUOUS
370
-3
390
F
  0
LAYER
  5
1FF
100
AcDbSymbolTableRecord
100
AcDbLayerTableRecord
  2
01_PLANES
 70
0
 62
7
  6
CONTINUOUS
370
-3
390
F
  0
LAYER
  5
200
100
AcDbSymbolTableRecord
100
AcDbLayerTableRecord
  2
02_COORD_SYS
 70
0
 62
7
  6
CONTINUOUS
370
-3
390
F
  0
LAYER
  5
201
100
AcDbSymbolTableRecord
100
AcDbLayerTableRecord
  2
03_AXES
 70
0
 62
7
  6
CONTINUOUS
370
-3
390
F
  0
LAYER
  5
202
100
AcDbSymbolTableRecord
100
AcDbLayerTableRecord
  2
04_POINTS
 70
0
 62
7
  6
CONTINUOUS
370
-3
390
F
  0
LAYER
  5
203
100
AcDbSymbolTableRecord
100
AcDbLayerTableRecord
  2
05_CURVES
 70
0
 62
7
  6
CONTINUOUS
370
-3
390
F
  0
LAYER
  5
204
100
AcDbSymbolTableRecord
100
AcDbLayerTableRecord
  2
06_SURFS
 70
0
 62
7
  6
CONTINUOUS
370
-3
390
F
  0
LAYER
  5
205
100
AcDbSymbolTableRecord
100
AcDbLayerTableRecord
  2
07_COSMETICS
 70
0
 62
7
  6
CONTINUOUS
370
-3
390
F
  0
LAYER
  5
206
100
AcDbSymbolTableRecord
100
AcDbLayerTableRecord
  2
10_NOTES
 70
0
 62
7
  6
CONTINUOUS
370
-3
390
F
  0
LAYER
  5
207
100
AcDbSymbolTableRecord
100
AcDbLayerTableRecord
  2
11_NOTES_PUB
 70
0
 62
7
  6
CONTINUOUS
370
-3
390
F
  0
LAYER
  5
208
100
AcDbSymbolTableRecord
100
AcDbLayerTableRecord
  2
13_REF_GTOL
 70
0
 62
7
  6
CONTINUOUS
370
-3
390
F
  0
LAYER
  5
209
100
AcDbSymbolTableRecord
100
AcDbLayerTableRecord
  2
16_MISC
 70
0
 62
7
  6
CONTINUOUS
370
-3
390
F
  0
LAYER
  5
20A
100
AcDbSymbolTableRecord
100
AcDbLayerTableRecord
  2
17_NO_PRINT
 70
0
 62
7
  6
CONTINUOUS
370
-3
390
F
  0
LAYER
  5
20B
100
AcDbSymbolTableRecord
100
AcDbLayerTableRecord
  2
18_DATUM_CAMS_JOINTS
 70
0
 62
7
  6
CONTINUOUS
370
-3
390
F
  0
LAYER
  5
20C
100
AcDbSymbolTableRecord
100
AcDbLayerTableRecord
  2
19_DATUM_FUNCTIONAL
 70
0
 62
7
  6
CONTINUOUS
370
-3
390
F
  0
LAYER
  5
20D
100
AcDbSymbolTableRecord
100
AcDbLayerTableRecord
  2
20_DATUM_KINEMATIC_SCHEME
 70
0
 62
7
  6
CONTINUOUS
370
-3
390
F
  0
ENDTAB
  0
TABLE
  2
STYLE
  5
3
100
AcDbSymbolTable
 70
1
  0
STYLE
  5
11
100
AcDbSymbolTableRecord
100
AcDbTextStyleTableRecord
  2
STANDARD
 70
0
 40
0.0
 41
1.0
 50
0.0
 71
0
 42
0.2
  3
ARIAL.TTF
  4

  0
STYLE
  5
20E
100
AcDbSymbolTableRecord
100
AcDbTextStyleTableRecord
  2
TEXTSTYLE_1
 70
0
 40
0.0
 41
0.8
 50
0.0
 71
0
 42
0.2
  3
gdt
  4

  0
ENDTAB
  0
TABLE
  2
VIEW
  5
6
100
AcDbSymbolTable
 70
0
  0
ENDTAB
  0
TABLE
  2
UCS
  5
7
100
AcDbSymbolTable
 70
0
  0
ENDTAB
  0
TABLE
  2
APPID
  5
9
100
AcDbSymbolTable
 70
1
  0
APPID
  5
20F
100
AcDbSymbolTableRecord
100
AcDbRegAppTableRecord
  2
ACAD
 70
0
  0
ENDTAB
  0
TABLE
  2
BLOCK_RECORD
  5
1
100
AcDbSymbolTable
 70
0
  0
BLOCK_RECORD
  5
210
100
AcDbSymbolTableRecord
100
AcDbBlockTableRecord
  2
*Model_Space
  0
BLOCK_RECORD
  5
211
100
AcDbSymbolTableRecord
100
AcDbBlockTableRecord
  2
*Paper_Space
  0
BLOCK_RECORD
  5
212
100
AcDbSymbolTableRecord
100
AcDbBlockTableRecord
  2
_FILLED
  0
ENDTAB
  0
TABLE
  2
DIMSTYLE
  5
A
100
AcDbSymbolTable
 70
1
100
AcDbDimStyleTable
 71
0
  0
DIMSTYLE
105
213
100
AcDbSymbolTableRecord
100
AcDbDimStyleTableRecord
  2
STANDARD
 70
0
  3

  4

 40
1.0
 41
0.3120842536
 42
1.0
 43
0.38
 44
1.0
 45
0.0
 46
0.0
 47
0.01
 48
0.01
140
0.4369179551
141
0.09
142
0.0
143
25.4
144
1.0
145
0.0
146
1.0
147
0.625
 71
1
 72
0
 73
0
 74
0
 75
0
 76
0
 77
1
 78
8
 79
2
170
0
171
1
172
0
173
0
174
0
175
0
176
0
177
0
178
0
270
2
179
2
271
2
272
2
273
2
274
2
275
0
280
0
281
0
282
0
283
1
284
8
285
0
286
0
287
3
288
0
340
11
278
46
341
212
342
212
343
212
344
212
  0
ENDTAB
  0
ENDSEC
  0
SECTION
  2
BLOCKS
  0
BLOCK
  5
20
100
AcDbEntity
  8
0
100
AcDbBlockBegin
  2
*Model_Space
 70
0
 10
0.0
 20
0.0
 30
0.0
  3
*Model_Space
  1

  0
ENDBLK
  5
21
100
AcDbEntity
  8
0
100
AcDbBlockEnd
  0
BLOCK
  5
1C
100
AcDbEntity
  8
0
100
AcDbBlockBegin
  2
*Paper_Space
 70
0
 10
0.0
 20
0.0
 30
0.0
  3
*Paper_Space
  1

  0
ENDBLK
  5
1D
100
AcDbEntity
  8
0
100
AcDbBlockEnd
  0
BLOCK
  5
214
100
AcDbEntity
  8
0
100
AcDbBlockBegin
  2
_FILLED
 70
64
 10
0.0
 20
0.0
  3
_FILLED
  1

  0
SOLID
  5
215
100
AcDbEntity
  8
0
  6
BYBLOCK
 62
0
100
AcDbTrace
 10
0.0
 20
0.0
 11
-1.0
 21
0.25
 12
-1.0
 22
-0.25
 13
-1.0
 23
-0.25
  0
ENDBLK
  5
216
100
AcDbEntity
  8
0
  6
BYBLOCK
 62
0
100
AcDbBlockEnd
  0
ENDSEC
  0
SECTION
  2
ENTITIES
  0
LINE
  5
217
100
AcDbEntity
  8
0
100
AcDbLine
 62
7
  6
BYLAYER
 10
5.815800508
 20
29.1606761618
 11
14.7253088569
 21
34.3045525006
  0
LINE
  5
218
100
AcDbEntity
  8
0
100
AcDbLine
 62
7
  6
BYLAYER
 10
11.8969441443
 20
6.8702500789
 11
5.815800508
 21
10.3811205678
  0
LINE
  5
219
100
AcDbEntity
  8
0
100
AcDbLine
 62
7
  6
BYLAYER
 10
9.7402594826
 20
9.3401380059
 11
7.9724851697
 21
10.3607398922
  0
LINE
  5
21A
100
AcDbEntity
  8
0
100
AcDbLine
 62
7
  6
BYLAYER
 10
9.7402594826
 20
9.5034343077
 11
8.1139059371
 21
10.442388723
  0
LINE
  5
21B
100
AcDbEntity
  8
0
100
AcDbLine
 62
7
  6
BYLAYER
 10
7.9724851697
 20
11.6671437596
 11
9.7402594826
 21
10.6465418733
  0
LINE
  5
21C
100
AcDbEntity
  8
0
100
AcDbLine
 62
7
  6
BYLAYER
 10
5.815800508
 20
10.3811205678
 11
5.815800508
 21
29.1606761618
  0
LINE
  5
21D
100
AcDbEntity
  8
0
100
AcDbLine
 62
7
  6
BYLAYER
 10
20.8064524931
 20
30.7936820117
 11
11.8969441443
 21
25.6498056729
  0
LINE
  5
21E
100
AcDbEntity
  8
0
100
AcDbLine
 62
7
  6
BYLAYER
 10
8.0610664046
 20
3.8695282165
 11
8.065045235
 21
3.8004940528
  0
LINE
  5
21F
100
AcDbEntity
  8
0
100
AcDbLine
 62
7
  6
BYLAYER
 10
7.9724851697
 20
10.3607398922
 11
7.9724851697
 21
11.6671437596
  0
LINE
  5
220
100
AcDbEntity
  8
0
100
AcDbLine
 62
7
  6
BYLAYER
 10
8.0609554408
 20
9.0849090872
 11
8.0609554408
 21
3.8695282093
  0
LINE
  5
221
100
AcDbEntity
  8
0
100
AcDbLine
 62
7
  6
BYLAYER
 10
8.065045235
 20
4.5353462282
 11
8.065045235
 21
3.8004940528
  0
LINE
  5
222
100
AcDbEntity
  8
0
100
AcDbLine
 62
7
  6
BYLAYER
 10
8.1139059371
 20
10.442388723
 11
8.1139059371
 21
11.5854962886
  0
LINE
  5
223
100
AcDbEntity
  8
0
100
AcDbLine
 62
7
  6
BYLAYER
 10
9.6913976028
 20
2.8615403174
 11
9.6913976028
 21
3.5963924928
  0
LINE
  5
224
100
AcDbEntity
  8
0
100
AcDbLine
 62
7
  6
BYLAYER
 10
9.7402594826
 20
10.6465418733
 11
9.7402594826
 21
9.3401380059
  0
LINE
  5
225
100
AcDbEntity
  8
0
100
AcDbLine
 62
7
  6
BYLAYER
 10
11.5609554408
 20
7.0642288589
 11
11.5609554408
 21
3.8695282093
  0
LINE
  5
226
100
AcDbEntity
  8
0
100
AcDbLine
 62
7
  6
BYLAYER
 10
11.8969441443
 20
6.8702500789
 11
11.8969441443
 21
25.6498056729
  0
LINE
  5
227
100
AcDbEntity
  8
0
100
AcDbLine
 62
7
  6
BYLAYER
 10
13.3643451837
 20
6.9313593705
 11
13.3683240141
 21
6.8623252068
  0
LINE
  5
228
100
AcDbEntity
  8
0
100
AcDbLine
 62
7
  6
BYLAYER
 10
13.3642342199
 20
7.7173853424
 11
13.3642342199
 21
6.9313593633
  0
LINE
  5
229
100
AcDbEntity
  8
0
100
AcDbLine
 62
7
  6
BYLAYER
 10
13.3683240141
 20
7.5971773822
 11
13.3683240141
 21
6.8623252068
  0
LINE
  5
22A
100
AcDbEntity
  8
0
100
AcDbLine
 62
7
  6
BYLAYER
 10
14.9946763819
 20
5.9233714714
 11
14.9946763819
 21
6.6582236468
  0
LINE
  5
22B
100
AcDbEntity
  8
0
100
AcDbLine
 62
7
  6
BYLAYER
 10
16.8642342199
 20
9.7380992225
 11
16.8642342199
 21
6.9313593633
  0
LINE
  5
22C
100
AcDbEntity
  8
0
100
AcDbLine
 62
7
  6
BYLAYER
 10
8.1139059371
 20
10.442388723
 11
7.9724851697
 21
10.3607398922
  0
LINE
  5
22D
100
AcDbEntity
  8
0
100
AcDbLine
 62
7
  6
BYLAYER
 10
11.8969441443
 20
25.6498056729
 11
5.815800508
 21
29.1606761618
  0
LINE
  5
22E
100
AcDbEntity
  8
0
100
AcDbLine
 62
7
  6
BYLAYER
 10
20.8064524931
 20
12.0141264177
 11
20.8064524931
 21
30.7936820117
  0
LINE
  5
22F
100
AcDbEntity
  8
0
100
AcDbLine
 62
7
  6
BYLAYER
 10
20.8064524931
 20
12.0141264177
 11
11.8969441443
 21
6.8702500789
  0
LINE
  5
230
100
AcDbEntity
  8
0
100
AcDbLine
 62
7
  6
BYLAYER
 10
13.7225222394
 20
7.0668204269
 11
13.3683240141
 21
6.8623252068
  0
LINE
  5
231
100
AcDbEntity
  8
0
100
AcDbLine
 62
7
  6
BYLAYER
 10
8.4192434603
 20
4.0049892729
 11
8.065045235
 21
3.8004940528
  0
LINE
  5
232
100
AcDbEntity
  8
0
100
AcDbLine
 62
7
  6
BYLAYER
 10
14.7253088569
 20
34.3045525006
 11
20.8064524931
 21
30.7936820117
  0
SPLINE
  5
233
100
AcDbEntity
  8
0
100
AcDbSpline
 62
7
  6
BYLAYER
 70
0
 71
3
 72
12
 73
8
 74
0
 42
0.0000001
 43
0.0000001
 44
0.0000000001
 40
0.0
 40
0.0
 40
0.0
 40
0.0
 40
0.2894249481
 40
0.5486994449
 40
0.781648259
 40
0.8918334611
 40
1.0
 40
1.0
 40
1.0
 40
1.0
 10
11.0599225925
 20
28.2692095088
 30
0.0
 10
11.0818571665
 20
28.2818733655
 30
0.0
 10
11.1216563308
 20
28.3093106954
 30
0.0
 10
11.1692373455
 20
28.3592417569
 30
0.0
 10
11.194781057
 20
28.4063287742
 30
0.0
 10
11.2047045399
 20
28.4447177282
 30
0.0
 10
11.2063549835
 20
28.4638641559
 30
0.0
 10
11.2063587861
 20
28.4733299021
 30
0.0
  0
SPLINE
  5
234
100
AcDbEntity
  8
0
100
AcDbSpline
 62
7
  6
BYLAYER
 70
0
 71
3
 72
23
 73
19
 74
0
 42
0.0000001
 43
0.0000001
 44
0.0000000001
 40
0.0
 40
0.0
 40
0.0
 40
0.0
 40
0.0428114904
 40
0.0873907623
 40
0.1351718898
 40
0.1870796814
 40
0.2435251783
 40
0.30447963
 40
0.3695773383
 40
0.4381833641
 40
0.5094791977
 40
0.5825141605
 40
0.6562608501
 40
0.7296501009
 40
0.8016240994
 40
0.8712488781
 40
0.9376627499
 40
1.0
 40
1.0
 40
1.0
 40
1.0
 10
10.2063766738
 20
28.4733298701
 30
0.0
 10
10.206370956
 20
28.4590970514
 30
0.0
 10
10.2101820256
 20
28.4299199214
 30
0.0
 10
10.2269099541
 20
28.3877889115
 30
0.0
 10
10.2540698579
 20
28.3478549192
 30
0.0
 10
10.2908655426
 20
28.3108908155
 30
0.0
 10
10.3364735112
 20
28.2775741366
 30
0.0
 10
10.3899013706
 20
28.2485026416
 30
0.0
 10
10.450049117
 20
28.2242827204
 30
0.0
 10
10.5156364809
 20
28.2053668337
 30
0.0
 10
10.58528982
 20
28.1921940308
 30
0.0
 10
10.6575226333
 20
28.1849962394
 30
0.0
 10
10.7307994165
 20
28.1839811242
 30
0.0
 10
10.8035514871
 20
28.1891073234
 30
0.0
 10
10.8742339771
 20
28.2003196444
 30
0.0
 10
10.941369643
 20
28.2173486537
 30
0.0
 10
11.0034663945
 20
28.2398858779
 30
0.0
 10
11.0419748626
 20
28.258847444
 30
0.0
 10
11.0599225925
 20
28.2692095088
 30
0.0
  0
SPLINE
  5
235
100
AcDbEntity
  8
0
100
AcDbSpline
 62
7
  6
BYLAYER
 70
0
 71
3
 72
15
 73
11
 74
0
 42
0.0000001
 43
0.0000001
 44
0.0000000001
 40
0.0
 40
0.0
 40
0.0
 40
0.0
 40
0.1484863618
 40
0.2894616428
 40
0.4227160391
 40
0.5486119365
 40
0.6679339237
 40
0.7818638112
 40
0.8919551958
 40
1.0
 40
1.0
 40
1.0
 40
1.0
 10
16.3516762389
 20
6.2169380429
 30
0.0
 10
16.3911181222
 20
6.2397096889
 30
0.0
 10
16.4662118207
 20
6.2873295107
 30
0.0
 10
16.5689208277
 20
6.3667907919
 30
0.0
 10
16.6577591313
 20
6.4518301957
 30
0.0
 10
16.7318296478
 20
6.5415992506
 30
0.0
 10
16.7903772866
 20
6.6353227814
 30
0.0
 10
16.832785391
 20
6.7321686265
 30
0.0
 10
16.858463607
 20
6.8311800967
 30
0.0
 10
16.8642110925
 20
6.8982200222
 30
0.0
 10
16.8642192782
 20
6.9313593482
 30
0.0
  0
SPLINE
  5
236
100
AcDbEntity
  8
0
100
AcDbSpline
 62
7
  6
BYLAYER
 70
0
 71
3
 72
15
 73
11
 74
0
 42
0.0000001
 43
0.0000001
 44
0.0000000001
 40
0.0
 40
0.0
 40
0.0
 40
0.0
 40
0.1327227063
 40
0.2652436651
 40
0.396348776
 40
0.5250796114
 40
0.6505730991
 40
0.7720475837
 40
0.8887720603
 40
1.0
 40
1.0
 40
1.0
 40
1.0
 10
14.9946763819
 20
5.9233714714
 30
0.0
 10
15.0568102968
 20
5.9209149657
 30
0.0
 10
15.1811686188
 20
5.9198609832
 30
0.0
 10
15.3667181372
 20
5.9296441703
 30
0.0
 10
15.5494471546
 20
5.9507898154
 30
0.0
 10
15.7272166066
 20
5.9829804909
 30
0.0
 10
15.8980660418
 20
6.0258983461
 30
0.0
 10
16.0601284762
 20
6.0790372465
 30
0.0
 10
16.2114822144
 20
6.141853832
 30
0.0
 10
16.3065459813
 20
6.190882232
 30
0.0
 10
16.3516762389
 20
6.2169380429
 30
0.0
  0
SPLINE
  5
237
100
AcDbEntity
  8
0
100
AcDbSpline
 62
7
  6
BYLAYER
 70
0
 71
3
 72
18
 73
14
 74
0
 42
0.0000001
 43
0.0000001
 44
0.0000000001
 40
0.0
 40
0.0
 40
0.0
 40
0.0
 40
0.0454238604
 40
0.0921161641
 40
0.1406025516
 40
0.1913409071
 40
0.2446885502
 40
0.3008705119
 40
0.4219093642
 40
0.5542678213
 40
0.696397359
 40
0.8459687021
 40
1.0
 40
1.0
 40
1.0
 40
1.0
 10
8.065045235
 20
4.5353462282
 30
0.0
 10
8.0686425677
 20
4.5050209484
 30
0.0
 10
8.0807748979
 20
4.4440052243
 30
0.0
 10
8.1127842
 20
4.354737039
 30
0.0
 10
8.1585267131
 20
4.2676207313
 30
0.0
 10
8.2175182073
 20
4.1834046481
 30
0.0
 10
8.2892384953
 20
4.1027028085
 30
0.0
 10
8.4038712824
 20
3.9980157599
 30
0.0
 10
8.5769691192
 20
3.8804235891
 30
0.0
 10
8.8178953871
 20
3.7659874966
 30
0.0
 10
9.0898138362
 20
3.6779322508
 30
0.0
 10
9.3842182441
 20
3.6190238861
 30
0.0
 10
9.5879250972
 20
3.6004833473
 30
0.0
 10
9.6913976028
 20
3.5963924928
 30
0.0
  0
SPLINE
  5
238
100
AcDbEntity
  8
0
100
AcDbSpline
 62
7
  6
BYLAYER
 70
0
 71
3
 72
18
 73
14
 74
0
 42
0.0000001
 43
0.0000001
 44
0.0000000001
 40
0.0
 40
0.0
 40
0.0
 40
0.0
 40
0.0454238604
 40
0.0921161641
 40
0.1406025516
 40
0.1913409071
 40
0.2446885502
 40
0.3008705119
 40
0.4219093642
 40
0.5542678213
 40
0.696397359
 40
0.8459687021
 40
1.0
 40
1.0
 40
1.0
 40
1.0
 10
13.3683240141
 20
7.5971773822
 30
0.0
 10
13.3719213468
 20
7.5668521025
 30
0.0
 10
13.384053677
 20
7.5058363783
 30
0.0
 10
13.4160629791
 20
7.4165681931
 30
0.0
 10
13.4618054922
 20
7.3294518854
 30
0.0
 10
13.5207969864
 20
7.2452358022
 30
0.0
 10
13.5925172744
 20
7.1645339626
 30
0.0
 10
13.7071500615
 20
7.0598469139
 30
0.0
 10
13.8802478983
 20
6.9422547432
 30
0.0
 10
14.1211741662
 20
6.8278186506
 30
0.0
 10
14.3930926153
 20
6.7397634049
 30
0.0
 10
14.6874970232
 20
6.6808550401
 30
0.0
 10
14.8912038763
 20
6.6623145013
 30
0.0
 10
14.9946763819
 20
6.6582236468
 30
0.0
  0
SPLINE
  5
239
100
AcDbEntity
  8
0
100
AcDbSpline
 62
7
  6
BYLAYER
 70
0
 71
3
 72
15
 73
11
 74
0
 42
0.0000001
 43
0.0000001
 44
0.0000000001
 40
0.0
 40
0.0
 40
0.0
 40
0.0
 40
0.1327227063
 40
0.2652436651
 40
0.396348776
 40
0.5250796114
 40
0.6505730991
 40
0.7720475837
 40
0.8887720603
 40
1.0
 40
1.0
 40
1.0
 40
1.0
 10
9.6913976028
 20
2.8615403174
 30
0.0
 10
9.7535315177
 20
2.8590838116
 30
0.0
 10
9.8778898397
 20
2.8580298292
 30
0.0
 10
10.0634393581
 20
2.8678130163
 30
0.0
 10
10.2461683755
 20
2.8889586613
 30
0.0
 10
10.4239378275
 20
2.9211493368
 30
0.0
 10
10.5947872627
 20
2.9640671921
 30
0.0
 10
10.7568496971
 20
3.0172060924
 30
0.0
 10
10.9082034353
 20
3.0800226779
 30
0.0
 10
11.0032672022
 20
3.129051078
 30
0.0
 10
11.0483974598
 20
3.1551068889
 30
0.0
  0
SPLINE
  5
23A
100
AcDbEntity
  8
0
100
AcDbSpline
 62
7
  6
BYLAYER
 70
0
 71
3
 72
15
 73
11
 74
0
 42
0.0000001
 43
0.0000001
 44
0.0000000001
 40
0.0
 40
0.0
 40
0.0
 40
0.0
 40
0.1484863618
 40
0.2894616428
 40
0.4227160391
 40
0.5486119365
 40
0.6679339237
 40
0.7818638112
 40
0.8919551958
 40
1.0
 40
1.0
 40
1.0
 40
1.0
 10
11.0483974598
 20
3.1551068889
 30
0.0
 10
11.0878393431
 20
3.1778785349
 30
0.0
 10
11.1629330416
 20
3.2254983567
 30
0.0
 10
11.2656420486
 20
3.3049596379
 30
0.0
 10
11.3544803522
 20
3.3899990417
 30
0.0
 10
11.4285508686
 20
3.4797680966
 30
0.0
 10
11.4870985075
 20
3.5734916273
 30
0.0
 10
11.5295066119
 20
3.6703374725
 30
0.0
 10
11.5551848279
 20
3.7693489427
 30
0.0
 10
11.5609323134
 20
3.8363888681
 30
0.0
 10
11.5609404991
 20
3.8695281941
 30
0.0
  0
SPLINE
  5
23B
100
AcDbEntity
  8
0
100
AcDbSpline
 62
7
  6
BYLAYER
 70
0
 71
3
 72
9
 73
5
 74
0
 42
0.0000001
 43
0.0000001
 44
0.0000000001
 40
0.0
 40
0.0
 40
0.0
 40
0.0
 40
0.2434952592
 40
1.0
 40
1.0
 40
1.0
 40
1.0
 10
10.2406730451
 20
28.4559356889
 30
0.0
 10
10.2425836858
 20
28.4587586911
 30
0.0
 10
10.2506795454
 20
28.4701827832
 30
0.0
 10
10.2597335284
 20
28.480919514
 30
0.0
 10
10.2669924981
 20
28.4886311275
 30
0.0
  0
SPLINE
  5
23C
100
AcDbEntity
  8
0
100
AcDbSpline
 62
7
  6
BYLAYER
 70
0
 71
3
 72
9
 73
5
 74
0
 42
0.0000001
 43
0.0000001
 44
0.0000000001
 40
0.0
 40
0.0
 40
0.0
 40
0.0
 40
0.4805795491
 40
1.0
 40
1.0
 40
1.0
 40
1.0
 10
10.2669924981
 20
28.4886311275
 30
0.0
 10
10.2789340885
 20
28.5013173535
 30
0.0
 10
10.306160633
 20
28.5255181751
 30
0.0
 10
10.3365051051
 20
28.5455596661
 30
0.0
 10
10.3528128674
 20
28.5549749008
 30
0.0
  0
SPLINE
  5
23D
100
AcDbEntity
  8
0
100
AcDbSpline
 62
7
  6
BYLAYER
 70
0
 71
3
 72
17
 73
13
 74
0
 42
0.0000001
 43
0.0000001
 44
0.0000000001
 40
0.0
 40
0.0
 40
0.0
 40
0.0
 40
0.0591606125
 40
0.1217494685
 40
0.2546864012
 40
0.3939980323
 40
0.5339851175
 40
0.6687917786
 40
0.7932804532
 40
0.8505386519
 40
0.9040816495
 40
1.0
 40
1.0
 40
1.0
 40
1.0
 10
10.3528128674
 20
28.5549749008
 30
0.0
 10
10.3681182275
 20
28.5638114018
 30
0.0
 10
10.4006619527
 20
28.5802241808
 30
0.0
 10
10.4716406094
 20
28.607864702
 30
0.0
 10
10.5693264272
 20
28.6315824508
 30
0.0
 10
10.6924071387
 20
28.6423994556
 30
0.0
 10
10.8163670702
 20
28.6355183252
 30
0.0
 10
10.9336241342
 20
28.6113301689
 30
0.0
 10
11.0223804145
 20
28.5770229536
 30
0.0
 10
11.0833148965
 20
28.5416587173
 30
0.0
 10
11.132794758
 20
28.5046450055
 30
0.0
 10
11.1633660623
 20
28.4708168251
 30
0.0
 10
11.1782299924
 20
28.4463198785
 30
0.0
  0
SPLINE
  5
23E
100
AcDbEntity
  8
0
100
AcDbSpline
 62
7
  6
BYLAYER
 70
0
 71
3
 72
9
 73
5
 74
0
 42
0.0000001
 43
0.0000001
 44
0.0000000001
 40
0.0
 40
0.0
 40
0.0
 40
0.0
 40
0.2552582194
 40
1.0
 40
1.0
 40
1.0
 40
1.0
 10
11.1782299924
 20
28.4463198785
 30
0.0
 10
11.1798248545
 20
28.443691418
 30
0.0
 10
11.185859788
 20
28.4332670912
 30
0.0
 10
11.1910155496
 20
28.4223280525
 30
0.0
 10
11.1942609378
 20
28.4139656385
 30
0.0
  0
SPLINE
  5
23F
100
AcDbEntity
  8
0
100
AcDbSpline
 62
7
  6
BYLAYER
 70
0
 71
3
 72
23
 73
19
 74
0
 42
0.0000001
 43
0.0000001
 44
0.0000000001
 40
0.0
 40
0.0
 40
0.0
 40
0.0
 40
0.0428114904
 40
0.0873907623
 40
0.1351718898
 40
0.1870796814
 40
0.2435251783
 40
0.30447963
 40
0.3695773383
 40
0.4381833641
 40
0.5094791977
 40
0.5825141605
 40
0.6562608501
 40
0.7296501009
 40
0.8016240994
 40
0.8712488781
 40
0.9376627499
 40
1.0
 40
1.0
 40
1.0
 40
1.0
 10
11.2063587861
 20
28.4733299021
 30
0.0
 10
11.2063645038
 20
28.4875627208
 30
0.0
 10
11.2025534343
 20
28.5167398508
 30
0.0
 10
11.1858255058
 20
28.5588708607
 30
0.0
 10
11.158665602
 20
28.598804853
 30
0.0
 10
11.1218699173
 20
28.6357689567
 30
0.0
 10
11.0762619487
 20
28.6690856356
 30
0.0
 10
11.0228340893
 20
28.6981571306
 30
0.0
 10
10.9626863429
 20
28.7223770518
 30
0.0
 10
10.897098979
 20
28.7412929385
 30
0.0
 10
10.8274456399
 20
28.7544657414
 30
0.0
 10
10.7552128266
 20
28.7616635329
 30
0.0
 10
10.6819360434
 20
28.762678648
 30
0.0
 10
10.6091839728
 20
28.7575524488
 30
0.0
 10
10.5385014828
 20
28.7463401278
 30
0.0
 10
10.4713658169
 20
28.7293111185
 30
0.0
 10
10.4092690653
 20
28.7067738943
 30
0.0
 10
10.3707605972
 20
28.6878123282
 30
0.0
 10
10.3528128674
 20
28.6774502634
 30
0.0
  0
SPLINE
  5
240
100
AcDbEntity
  8
0
100
AcDbSpline
 62
7
  6
BYLAYER
 70
0
 71
3
 72
12
 73
8
 74
0
 42
0.0000001
 43
0.0000001
 44
0.0000000001
 40
0.0
 40
0.0
 40
0.0
 40
0.0
 40
0.2894249481
 40
0.5486994449
 40
0.781648259
 40
0.8918334611
 40
1.0
 40
1.0
 40
1.0
 40
1.0
 10
10.3528128674
 20
28.6774502634
 30
0.0
 10
10.3308782934
 20
28.6647864068
 30
0.0
 10
10.291079129
 20
28.6373490768
 30
0.0
 10
10.2434981144
 20
28.5874180154
 30
0.0
 10
10.2179544029
 20
28.5403309981
 30
0.0
 10
10.20803092
 20
28.501942044
 30
0.0
 10
10.2063804764
 20
28.4827956164
 30
0.0
 10
10.2063766738
 20
28.4733298701
 30
0.0
  0
ENDSEC
  0
SECTION
  2
OBJECTS
  0
DICTIONARY
  5
C
100
AcDbDictionary
280
0
281
1
  3
ACAD_GROUP
350
D
  3
ACAD_MLINESTYLE
350
17
  3
ACAD_LAYOUT
350
1A
  3
ACAD_PLOTSETTINGS
350
19
  3
ACAD_PLOTSTYLENAME
350
E
  0
DICTIONARY
  5
D
102
{ACAD_REACTORS
330
C
102
}
100
AcDbDictionary
280
0
281
1
  0
ACDBDICTIONARYWDFLT
  5
E
102
{ACAD_REACTORS
330
C
102
}
100
AcDbDictionary
281
1
  3
Normal
350
F
100
AcDbDictionaryWithDefault
340
F
  0
DICTIONARY
  5
17
102
{ACAD_REACTORS
330
C
102
}
100
AcDbDictionary
280
0
281
1
  3
Standard
350
18
  0
DICTIONARY
  5
19
102
{ACAD_REACTORS
330
C
102
}
100
AcDbDictionary
281
1
  0
DICTIONARY
  5
1A
102
{ACAD_REACTORS
330
C
102
}
100
AcDbDictionary
281
1
  3
Model
350
241
  3
Layout1
350
242
  0
ACDBPLACEHOLDER
  5
F
102
{ACAD_REACTORS
330
E
102
}
  0
MLINESTYLE
  5
18
102
{ACAD_REACTORS
330
17
102
}
100
AcDbMlineStyle
  2
STANDARD
 70
0
  3

 62
256
 51
90.0
 52
90.0
 71
2
 49
0.5
 62
256
  6
BYLAYER
 49
-0.5
 62
256
  6
BYLAYER
  0
LAYOUT
  5
241
102
{ACAD_REACTORS
330
1A
102
}
100
AcDbPlotSettings
  1

  2
none_device
  4

  6

 40
0.0
 41
0.0
 42
0.0
 43
0.0
 44
210.0
 45
297.0
 46
0.0
 47
0.0
 48
0.0
 49
0.0
140
0.0
141
0.0
142
1.0
143
1.0
 70
1024
 72
1
 73
0
 74
0
  7

 75
0
147
1.0
148
0.0
149
0.0
100
AcDbLayout
  1
Model
 70
0
 71
0
 10
0.0
 20
0.0
 11
210.0
 21
297.0
 12
0.0
 22
0.0
 32
0.0
 14
0.0
 24
0.0
 34
0.0
 15
0.0
 25
0.0
 35
0.0
146
0.0
 13
0.0
 23
0.0
 33
0.0
 16
1.0
 26
0.0
 36
0.0
 17
0.0
 27
1.0
 37
0.0
 76
0
330
210
345
0
346
0
  0
LAYOUT
  5
242
102
{ACAD_REACTORS
330
1A
102
}
100
AcDbPlotSettings
  1

  2
none_device
  4

  6

 40
0.0
 41
0.0
 42
0.0
 43
0.0
 44
210.0
 45
297.0
 46
0.0
 47
0.0
 48
0.0
 49
0.0
140
0.0
141
0.0
142
1.0
143
1.0
 70
0
 72
1
 73
0
 74
0
  7

 75
0
147
1.0
148
0.0
149
0.0
100
AcDbLayout
  1
Layout1
 70
0
 71
1
 10
0.0
 20
0.0
 11
210.0
 21
297.0
 12
0.0
 22
0.0
 32
0.0
 14
0.0
 24
0.0
 34
0.0
 15
0.0
 25
0.0
 35
0.0
146
0.0
 13
0.0
 23
0.0
 33
0.0
 16
1.0
 26
0.0
 36
0.0
 17
0.0
 27
1.0
 37
0.0
 76
0
330
211
345
0
346
0
  0
ENDSEC
  0
EOF
