  0
SECTION
  2
HEADER
  9
$ACADVER
  1
AC1006
  9
$EXTMIN
 10
-2.415224
 20
-3.887555
  9
$EXTMAX
 10
2.407000
 20
3.893000
  9
$LTSCALE
 40
0.000394
  9
$PDMODE
 70
    35
  9
$PDSIZE
 40
0.000315
  0
ENDSEC
  0
SECTION
  2
TABLES
  0
TABLE
  2
LTYPE
 70
     9
  0
LTYPE
  2
CONTINUOUS
 70
    64
  3
Solid line
 72
    65
 73
     0
 40
0.000000
  0
LTYPE
  2
DASHED
 70
    64
  3
__ __ __ __ __ __ __ __ __ __ __ __ __ __ __
 72
    65
 73
     2
 40
0.000003
 49
0.000002
 49
-0.000001
  0
LTYPE
  2
HIDDEN
 70
    64
  3
 _ _ _ _ _ _ _ _ _ _ _ _ _ _ _ _ _ _ _ _ _ _
 72
    65
 73
     2
 40
0.000001
 49
0.000001
 49
-0.000000
  0
LTYPE
  2
CENTER
 70
    64
  3
____ _ ____ _ ____ _ ____ _ ____ _ ____ _ ____
 72
    65
 73
     4
 40
0.000008
 49
0.000005
 49
-0.000001
 49
0.000001
 49
-0.000001
  0
LTYPE
  2
PHANTOM
 70
    64
  3
_____ _ _ _____ _ _ _____ _ _ _____ _ _ ____
 72
    65
 73
     6
 40
0.000010
 49
0.000005
 49
-0.000001
 49
0.000001
 49
-0.000001
 49
0.000001
 49
-0.000001
  0
LTYPE
  2
DOT
 70
    64
  3
...............................................
 72
    65
 73
     2
 40
0.000001
 49
0.000000
 49
-0.000001
  0
LTYPE
  2
DASHDOT
 70
    64
  3
__ . __ . __ . __ . __ . __ . __ . __ . __ . __
 72
    65
 73
     4
 40
0.000004
 49
0.000002
 49
-0.000001
 49
0.000000
 49
-0.000001
  0
LTYPE
  2
BORDER
 70
    64
  3
__ __ . __ __ . __ __ . __ __ . __ __ . __ __
 72
    65
 73
     6
 40
0.000007
 49
0.000002
 49
-0.000001
 49
0.000002
 49
-0.000001
 49
0.000000
 49
-0.000001
  0
LTYPE
  2
DIVIDE
 70
    64
  3
__ . . __ . . __ . . __ . . __ . . __ . . __
 72
    65
 73
     6
 40
0.000005
 49
0.000002
 49
-0.000001
 49
0.000000
 49
-0.000001
 49
0.000000
 49
-0.000001
  0
LTYPE
  2
DOTDOT
 70
    64
  3
 . .  . .  . .  . .  . .  . . 
 72
    65
 73
     5
 40
0.000002
 49
-0.000001
 49
0.000000
 49
-0.000001
 49
0.000000
 49
-0.000001
  0
ENDTAB
  0
TABLE
  2
STYLE
 70
     0
  0
ENDTAB
  0
TABLE
  2
LAYER
 70
     3
  0
LAYER
  2
FOREGROUND
 70
    64
 62
     7
  6
CONTINUOUS
  0
LAYER
  2
BACKGROUND
 70
    65
 62
    -7
  6
CONTINUOUS
  0
LAYER
  2
PLAN_1
 70
    64
 62
     7
  6
CONTINUOUS
  0
ENDTAB
  0
ENDSEC
  0
SECTION
  2
ENTITIES
  0
POLYLINE
  8
PLAN_1
  6
CONTINUOUS
 66
     1
 40
0.003000
 41
0.003000
  0
VERTEX
  8
PLAN_1
  6
CONTINUOUS
 10
0.546472
 20
-3.853031
  0
VERTEX
  8
PLAN_1
  6
CONTINUOUS
 10
0.389406
 20
-3.853031
  0
VERTEX
  8
PLAN_1
  6
CONTINUOUS
 10
0.389406
 20
-3.830173
  0
VERTEX
  8
PLAN_1
  6
CONTINUOUS
 10
0.511461
 20
-3.677480
  0
VERTEX
  8
PLAN_1
  6
CONTINUOUS
 10
0.398646
 20
-3.677480
  0
VERTEX
  8
PLAN_1
  6
CONTINUOUS
 10
0.398646
 20
-3.653654
  0
VERTEX
  8
PLAN_1
  6
CONTINUOUS
 10
0.546472
 20
-3.653654
  0
VERTEX
  8
PLAN_1
  6
CONTINUOUS
 10
0.546472
 20
-3.676996
  0
VERTEX
  8
PLAN_1
  6
CONTINUOUS
 10
0.423445
 20
-3.829201
  0
VERTEX
  8
PLAN_1
  6
CONTINUOUS
 10
0.546472
 20
-3.829201
  0
VERTEX
  8
PLAN_1
  6
CONTINUOUS
 10
0.546472
 20
-3.853031
  0
SEQEND
  8
0
  0
POLYLINE
  8
PLAN_1
  6
CONTINUOUS
 66
     1
 40
0.003000
 41
0.003000
  0
VERTEX
  8
PLAN_1
  6
CONTINUOUS
 10
0.713756
 20
-3.713469
  0
VERTEX
  8
PLAN_1
  6
CONTINUOUS
 10
0.711811
 20
-3.707146
  0
VERTEX
  8
PLAN_1
  6
CONTINUOUS
 10
0.709866
 20
-3.701795
  0
VERTEX
  8
PLAN_1
  6
CONTINUOUS
 10
0.707433
 20
-3.696933
  0
VERTEX
  8
PLAN_1
  6
CONTINUOUS
 10
0.704516
 20
-3.692555
  0
VERTEX
  8
PLAN_1
  6
CONTINUOUS
 10
0.701114
 20
-3.688665
  0
VERTEX
  8
PLAN_1
  6
CONTINUOUS
 10
0.697709
 20
-3.685264
  0
VERTEX
  8
PLAN_1
  6
CONTINUOUS
 10
0.693819
 20
-3.682346
  0
VERTEX
  8
PLAN_1
  6
CONTINUOUS
 10
0.689929
 20
-3.679913
  0
VERTEX
  8
PLAN_1
  6
CONTINUOUS
 10
0.686039
 20
-3.677480
  0
VERTEX
  8
PLAN_1
  6
CONTINUOUS
 10
0.682150
 20
-3.676024
  0
VERTEX
  8
PLAN_1
  6
CONTINUOUS
 10
0.677772
 20
-3.674563
  0
VERTEX
  8
PLAN_1
  6
CONTINUOUS
 10
0.673394
 20
-3.673591
  0
VERTEX
  8
PLAN_1
  6
CONTINUOUS
 10
0.665614
 20
-3.672618
  0
VERTEX
  8
PLAN_1
  6
CONTINUOUS
 10
0.657835
 20
-3.672134
  0
VERTEX
  8
PLAN_1
  6
CONTINUOUS
 10
0.651028
 20
-3.672618
  0
VERTEX
  8
PLAN_1
  6
CONTINUOUS
 10
0.644705
 20
-3.673591
  0
VERTEX
  8
PLAN_1
  6
CONTINUOUS
 10
0.638382
 20
-3.675051
  0
VERTEX
  8
PLAN_1
  6
CONTINUOUS
 10
0.632547
 20
-3.676996
  0
VERTEX
  8
PLAN_1
  6
CONTINUOUS
 10
0.626713
 20
-3.679913
  0
VERTEX
  8
PLAN_1
  6
CONTINUOUS
 10
0.621362
 20
-3.683319
  0
VERTEX
  8
PLAN_1
  6
CONTINUOUS
 10
0.616500
 20
-3.687209
  0
VERTEX
  8
PLAN_1
  6
CONTINUOUS
 10
0.611638
 20
-3.692071
  0
VERTEX
  8
PLAN_1
  6
CONTINUOUS
 10
0.607748
 20
-3.697421
  0
VERTEX
  8
PLAN_1
  6
CONTINUOUS
 10
0.603854
 20
-3.703256
  0
VERTEX
  8
PLAN_1
  6
CONTINUOUS
 10
0.600453
 20
-3.709575
  0
VERTEX
  8
PLAN_1
  6
CONTINUOUS
 10
0.597535
 20
-3.716870
  0
VERTEX
  8
PLAN_1
  6
CONTINUOUS
 10
0.595591
 20
-3.724650
  0
VERTEX
  8
PLAN_1
  6
CONTINUOUS
 10
0.594130
 20
-3.732917
  0
VERTEX
  8
PLAN_1
  6
CONTINUOUS
 10
0.593157
 20
-3.741669
  0
VERTEX
  8
PLAN_1
  6
CONTINUOUS
 10
0.592673
 20
-3.751398
  0
VERTEX
  8
PLAN_1
  6
CONTINUOUS
 10
0.592673
 20
-3.760150
  0
VERTEX
  8
PLAN_1
  6
CONTINUOUS
 10
0.593646
 20
-3.768417
  0
VERTEX
  8
PLAN_1
  6
CONTINUOUS
 10
0.594618
 20
-3.776197
  0
VERTEX
  8
PLAN_1
  6
CONTINUOUS
 10
0.596075
 20
-3.783976
  0
VERTEX
  8
PLAN_1
  6
CONTINUOUS
 10
0.598020
 20
-3.791272
  0
VERTEX
  8
PLAN_1
  6
CONTINUOUS
 10
0.600453
 20
-3.798079
  0
VERTEX
  8
PLAN_1
  6
CONTINUOUS
 10
0.603370
 20
-3.804402
  0
VERTEX
  8
PLAN_1
  6
CONTINUOUS
 10
0.607260
 20
-3.810236
  0
VERTEX
  8
PLAN_1
  6
CONTINUOUS
 10
0.611150
 20
-3.815587
  0
VERTEX
  8
PLAN_1
  6
CONTINUOUS
 10
0.616012
 20
-3.820449
  0
VERTEX
  8
PLAN_1
  6
CONTINUOUS
 10
0.621362
 20
-3.824339
  0
VERTEX
  8
PLAN_1
  6
CONTINUOUS
 10
0.627685
 20
-3.827744
  0
VERTEX
  8
PLAN_1
  6
CONTINUOUS
 10
0.634492
 20
-3.830661
  0
VERTEX
  8
PLAN_1
  6
CONTINUOUS
 10
0.641787
 20
-3.832606
  0
VERTEX
  8
PLAN_1
  6
CONTINUOUS
 10
0.650051
 20
-3.834067
  0
VERTEX
  8
PLAN_1
  6
CONTINUOUS
 10
0.658807
 20
-3.834067
  0
VERTEX
  8
PLAN_1
  6
CONTINUOUS
 10
0.662209
 20
-3.834067
  0
VERTEX
  8
PLAN_1
  6
CONTINUOUS
 10
0.665614
 20
-3.833579
  0
VERTEX
  8
PLAN_1
  6
CONTINUOUS
 10
0.669504
 20
-3.833094
  0
VERTEX
  8
PLAN_1
  6
CONTINUOUS
 10
0.673882
 20
-3.832122
  0
VERTEX
  8
PLAN_1
  6
CONTINUOUS
 10
0.677772
 20
-3.831150
  0
VERTEX
  8
PLAN_1
  6
CONTINUOUS
 10
0.682150
 20
-3.829201
  0
VERTEX
  8
PLAN_1
  6
CONTINUOUS
 10
0.686039
 20
-3.826772
  0
VERTEX
  8
PLAN_1
  6
CONTINUOUS
 10
0.690413
 20
-3.824339
  0
VERTEX
  8
PLAN_1
  6
CONTINUOUS
 10
0.694303
 20
-3.820937
  0
VERTEX
  8
PLAN_1
  6
CONTINUOUS
 10
0.698197
 20
-3.817047
  0
VERTEX
  8
PLAN_1
  6
CONTINUOUS
 10
0.702087
 20
-3.812669
  0
VERTEX
  8
PLAN_1
  6
CONTINUOUS
 10
0.705488
 20
-3.807807
  0
VERTEX
  8
PLAN_1
  6
CONTINUOUS
 10
0.708406
 20
-3.801972
  0
VERTEX
  8
PLAN_1
  6
CONTINUOUS
 10
0.711327
 20
-3.795161
  0
VERTEX
  8
PLAN_1
  6
CONTINUOUS
 10
0.713756
 20
-3.787870
  0
VERTEX
  8
PLAN_1
  6
CONTINUOUS
 10
0.715701
 20
-3.779602
  0
VERTEX
  8
PLAN_1
  6
CONTINUOUS
 10
0.741476
 20
-3.779602
  0
VERTEX
  8
PLAN_1
  6
CONTINUOUS
 10
0.740504
 20
-3.786409
  0
VERTEX
  8
PLAN_1
  6
CONTINUOUS
 10
0.739043
 20
-3.792732
  0
VERTEX
  8
PLAN_1
  6
CONTINUOUS
 10
0.737098
 20
-3.799051
  0
VERTEX
  8
PLAN_1
  6
CONTINUOUS
 10
0.735154
 20
-3.804402
  0
VERTEX
  8
PLAN_1
  6
CONTINUOUS
 10
0.733209
 20
-3.809752
  0
VERTEX
  8
PLAN_1
  6
CONTINUOUS
 10
0.730776
 20
-3.814614
  0
VERTEX
  8
PLAN_1
  6
CONTINUOUS
 10
0.728346
 20
-3.819476
  0
VERTEX
  8
PLAN_1
  6
CONTINUOUS
 10
0.725429
 20
-3.823366
  0
VERTEX
  8
PLAN_1
  6
CONTINUOUS
 10
0.722508
 20
-3.827744
  0
VERTEX
  8
PLAN_1
  6
CONTINUOUS
 10
0.719591
 20
-3.831150
  0
VERTEX
  8
PLAN_1
  6
CONTINUOUS
 10
0.716189
 20
-3.834551
  0
VERTEX
  8
PLAN_1
  6
CONTINUOUS
 10
0.713272
 20
-3.837469
  0
VERTEX
  8
PLAN_1
  6
CONTINUOUS
 10
0.706461
 20
-3.842819
  0
VERTEX
  8
PLAN_1
  6
CONTINUOUS
 10
0.699654
 20
-3.847197
  0
VERTEX
  8
PLAN_1
  6
CONTINUOUS
 10
0.692846
 20
-3.850598
  0
VERTEX
  8
PLAN_1
  6
CONTINUOUS
 10
0.685551
 20
-3.853031
  0
VERTEX
  8
PLAN_1
  6
CONTINUOUS
 10
0.679228
 20
-3.854976
  0
VERTEX
  8
PLAN_1
  6
CONTINUOUS
 10
0.672909
 20
-3.856433
  0
VERTEX
  8
PLAN_1
  6
CONTINUOUS
 10
0.662209
 20
-3.857894
  0
VERTEX
  8
PLAN_1
  6
CONTINUOUS
 10
0.654429
 20
-3.858378
  0
VERTEX
  8
PLAN_1
  6
CONTINUOUS
 10
0.646161
 20
-3.857894
  0
VERTEX
  8
PLAN_1
  6
CONTINUOUS
 10
0.637898
 20
-3.856921
  0
VERTEX
  8
PLAN_1
  6
CONTINUOUS
 10
0.629630
 20
-3.854976
  0
VERTEX
  8
PLAN_1
  6
CONTINUOUS
 10
0.621362
 20
-3.852543
  0
VERTEX
  8
PLAN_1
  6
CONTINUOUS
 10
0.613583
 20
-3.849142
  0
VERTEX
  8
PLAN_1
  6
CONTINUOUS
 10
0.606287
 20
-3.844764
  0
VERTEX
  8
PLAN_1
  6
CONTINUOUS
 10
0.602882
 20
-3.842331
  0
VERTEX
  8
PLAN_1
  6
CONTINUOUS
 10
0.599480
 20
-3.839902
  0
VERTEX
  8
PLAN_1
  6
CONTINUOUS
 10
0.596075
 20
-3.836984
  0
VERTEX
  8
PLAN_1
  6
CONTINUOUS
 10
0.592673
 20
-3.834067
  0
VERTEX
  8
PLAN_1
  6
CONTINUOUS
 10
0.589752
 20
-3.830661
  0
VERTEX
  8
PLAN_1
  6
CONTINUOUS
 10
0.586835
 20
-3.827256
  0
VERTEX
  8
PLAN_1
  6
CONTINUOUS
 10
0.583917
 20
-3.823366
  0
VERTEX
  8
PLAN_1
  6
CONTINUOUS
 10
0.581488
 20
-3.819476
  0
VERTEX
  8
PLAN_1
  6
CONTINUOUS
 10
0.579055
 20
-3.815098
  0
VERTEX
  8
PLAN_1
  6
CONTINUOUS
 10
0.576626
 20
-3.810724
  0
VERTEX
  8
PLAN_1
  6
CONTINUOUS
 10
0.574677
 20
-3.805862
  0
VERTEX
  8
PLAN_1
  6
CONTINUOUS
 10
0.572732
 20
-3.800996
  0
VERTEX
  8
PLAN_1
  6
CONTINUOUS
 10
0.570787
 20
-3.795650
  0
VERTEX
  8
PLAN_1
  6
CONTINUOUS
 10
0.569331
 20
-3.790299
  0
VERTEX
  8
PLAN_1
  6
CONTINUOUS
 10
0.567870
 20
-3.784465
  0
VERTEX
  8
PLAN_1
  6
CONTINUOUS
 10
0.566898
 20
-3.778630
  0
VERTEX
  8
PLAN_1
  6
CONTINUOUS
 10
0.565925
 20
-3.772307
  0
VERTEX
  8
PLAN_1
  6
CONTINUOUS
 10
0.565441
 20
-3.765984
  0
VERTEX
  8
PLAN_1
  6
CONTINUOUS
 10
0.564953
 20
-3.759177
  0
VERTEX
  8
PLAN_1
  6
CONTINUOUS
 10
0.564953
 20
-3.751882
  0
VERTEX
  8
PLAN_1
  6
CONTINUOUS
 10
0.565441
 20
-3.740697
  0
VERTEX
  8
PLAN_1
  6
CONTINUOUS
 10
0.566413
 20
-3.730000
  0
VERTEX
  8
PLAN_1
  6
CONTINUOUS
 10
0.568358
 20
-3.719787
  0
VERTEX
  8
PLAN_1
  6
CONTINUOUS
 10
0.571276
 20
-3.710063
  0
VERTEX
  8
PLAN_1
  6
CONTINUOUS
 10
0.574677
 20
-3.700823
  0
VERTEX
  8
PLAN_1
  6
CONTINUOUS
 10
0.579055
 20
-3.692555
  0
VERTEX
  8
PLAN_1
  6
CONTINUOUS
 10
0.583917
 20
-3.684291
  0
VERTEX
  8
PLAN_1
  6
CONTINUOUS
 10
0.589752
 20
-3.676996
  0
VERTEX
  8
PLAN_1
  6
CONTINUOUS
 10
0.592673
 20
-3.674079
  0
VERTEX
  8
PLAN_1
  6
CONTINUOUS
 10
0.596075
 20
-3.670673
  0
VERTEX
  8
PLAN_1
  6
CONTINUOUS
 10
0.599480
 20
-3.667756
  0
VERTEX
  8
PLAN_1
  6
CONTINUOUS
 10
0.602882
 20
-3.664839
  0
VERTEX
  8
PLAN_1
  6
CONTINUOUS
 10
0.606776
 20
-3.662406
  0
VERTEX
  8
PLAN_1
  6
CONTINUOUS
 10
0.610665
 20
-3.659976
  0
VERTEX
  8
PLAN_1
  6
CONTINUOUS
 10
0.614555
 20
-3.658031
  0
VERTEX
  8
PLAN_1
  6
CONTINUOUS
 10
0.618929
 20
-3.656087
  0
VERTEX
  8
PLAN_1
  6
CONTINUOUS
 10
0.623307
 20
-3.654142
  0
VERTEX
  8
PLAN_1
  6
CONTINUOUS
 10
0.627685
 20
-3.652681
  0
VERTEX
  8
PLAN_1
  6
CONTINUOUS
 10
0.632547
 20
-3.651220
  0
VERTEX
  8
PLAN_1
  6
CONTINUOUS
 10
0.637409
 20
-3.650248
  0
VERTEX
  8
PLAN_1
  6
CONTINUOUS
 10
0.642272
 20
-3.649276
  0
VERTEX
  8
PLAN_1
  6
CONTINUOUS
 10
0.647134
 20
-3.648791
  0
VERTEX
  8
PLAN_1
  6
CONTINUOUS
 10
0.652484
 20
-3.648303
  0
VERTEX
  8
PLAN_1
  6
CONTINUOUS
 10
0.657835
 20
-3.648303
  0
VERTEX
  8
PLAN_1
  6
CONTINUOUS
 10
0.667075
 20
-3.648791
  0
VERTEX
  8
PLAN_1
  6
CONTINUOUS
 10
0.675827
 20
-3.649764
  0
VERTEX
  8
PLAN_1
  6
CONTINUOUS
 10
0.684094
 20
-3.651709
  0
VERTEX
  8
PLAN_1
  6
CONTINUOUS
 10
0.691874
 20
-3.653654
  0
VERTEX
  8
PLAN_1
  6
CONTINUOUS
 10
0.698681
 20
-3.656571
  0
VERTEX
  8
PLAN_1
  6
CONTINUOUS
 10
0.705488
 20
-3.659976
  0
VERTEX
  8
PLAN_1
  6
CONTINUOUS
 10
0.711327
 20
-3.663866
  0
VERTEX
  8
PLAN_1
  6
CONTINUOUS
 10
0.716673
 20
-3.668244
  0
VERTEX
  8
PLAN_1
  6
CONTINUOUS
 10
0.721535
 20
-3.673106
  0
VERTEX
  8
PLAN_1
  6
CONTINUOUS
 10
0.725913
 20
-3.678453
  0
VERTEX
  8
PLAN_1
  6
CONTINUOUS
 10
0.729319
 20
-3.683803
  0
VERTEX
  8
PLAN_1
  6
CONTINUOUS
 10
0.732720
 20
-3.689154
  0
VERTEX
  8
PLAN_1
  6
CONTINUOUS
 10
0.735154
 20
-3.694988
  0
VERTEX
  8
PLAN_1
  6
CONTINUOUS
 10
0.737098
 20
-3.701311
  0
VERTEX
  8
PLAN_1
  6
CONTINUOUS
 10
0.738555
 20
-3.707146
  0
VERTEX
  8
PLAN_1
  6
CONTINUOUS
 10
0.739528
 20
-3.713469
  0
VERTEX
  8
PLAN_1
  6
CONTINUOUS
 10
0.713756
 20
-3.713469
  0
SEQEND
  8
0
  0
POLYLINE
  8
PLAN_1
  6
CONTINUOUS
 66
     1
 40
0.003000
 41
0.003000
  0
VERTEX
  8
PLAN_1
  6
CONTINUOUS
 10
0.801287
 20
-3.853031
  0
VERTEX
  8
PLAN_1
  6
CONTINUOUS
 10
0.774055
 20
-3.853031
  0
VERTEX
  8
PLAN_1
  6
CONTINUOUS
 10
0.774055
 20
-3.653654
  0
VERTEX
  8
PLAN_1
  6
CONTINUOUS
 10
0.801287
 20
-3.653654
  0
VERTEX
  8
PLAN_1
  6
CONTINUOUS
 10
0.801287
 20
-3.749937
  0
VERTEX
  8
PLAN_1
  6
CONTINUOUS
 10
0.897571
 20
-3.653654
  0
VERTEX
  8
PLAN_1
  6
CONTINUOUS
 10
0.935016
 20
-3.653654
  0
VERTEX
  8
PLAN_1
  6
CONTINUOUS
 10
0.851862
 20
-3.733890
  0
VERTEX
  8
PLAN_1
  6
CONTINUOUS
 10
0.936961
 20
-3.853031
  0
VERTEX
  8
PLAN_1
  6
CONTINUOUS
 10
0.902433
 20
-3.853031
  0
VERTEX
  8
PLAN_1
  6
CONTINUOUS
 10
0.832409
 20
-3.752854
  0
VERTEX
  8
PLAN_1
  6
CONTINUOUS
 10
0.801287
 20
-3.783004
  0
VERTEX
  8
PLAN_1
  6
CONTINUOUS
 10
0.801287
 20
-3.853031
  0
SEQEND
  8
0
  0
POLYLINE
  8
PLAN_1
  6
CONTINUOUS
 66
     1
 40
0.003000
 41
0.003000
  0
VERTEX
  8
PLAN_1
  6
CONTINUOUS
 10
1.044429
 20
-3.853031
  0
VERTEX
  8
PLAN_1
  6
CONTINUOUS
 10
1.017685
 20
-3.853031
  0
VERTEX
  8
PLAN_1
  6
CONTINUOUS
 10
1.017685
 20
-3.772795
  0
VERTEX
  8
PLAN_1
  6
CONTINUOUS
 10
0.942311
 20
-3.653654
  0
VERTEX
  8
PLAN_1
  6
CONTINUOUS
 10
0.973433
 20
-3.653654
  0
VERTEX
  8
PLAN_1
  6
CONTINUOUS
 10
1.030815
 20
-3.749453
  0
VERTEX
  8
PLAN_1
  6
CONTINUOUS
 10
1.088197
 20
-3.653654
  0
VERTEX
  8
PLAN_1
  6
CONTINUOUS
 10
1.119803
 20
-3.653654
  0
VERTEX
  8
PLAN_1
  6
CONTINUOUS
 10
1.044429
 20
-3.772795
  0
VERTEX
  8
PLAN_1
  6
CONTINUOUS
 10
1.044429
 20
-3.853031
  0
SEQEND
  8
0
  0
POLYLINE
  8
PLAN_1
  6
CONTINUOUS
 66
     1
 40
0.003000
 41
0.003000
  0
VERTEX
  8
PLAN_1
  6
CONTINUOUS
 10
1.239429
 20
-3.709575
  0
VERTEX
  8
PLAN_1
  6
CONTINUOUS
 10
1.237972
 20
-3.703256
  0
VERTEX
  8
PLAN_1
  6
CONTINUOUS
 10
1.236028
 20
-3.697906
  0
VERTEX
  8
PLAN_1
  6
CONTINUOUS
 10
1.234567
 20
-3.694988
  0
VERTEX
  8
PLAN_1
  6
CONTINUOUS
 10
1.233110
 20
-3.692555
  0
VERTEX
  8
PLAN_1
  6
CONTINUOUS
 10
1.231161
 20
-3.690126
  0
VERTEX
  8
PLAN_1
  6
CONTINUOUS
 10
1.229217
 20
-3.688181
  0
VERTEX
  8
PLAN_1
  6
CONTINUOUS
 10
1.227272
 20
-3.686236
  0
VERTEX
  8
PLAN_1
  6
CONTINUOUS
 10
1.224843
 20
-3.684776
  0
VERTEX
  8
PLAN_1
  6
CONTINUOUS
 10
1.222409
 20
-3.683319
  0
VERTEX
  8
PLAN_1
  6
CONTINUOUS
 10
1.219492
 20
-3.681858
  0
VERTEX
  8
PLAN_1
  6
CONTINUOUS
 10
1.216575
 20
-3.680886
  0
VERTEX
  8
PLAN_1
  6
CONTINUOUS
 10
1.213169
 20
-3.680398
  0
VERTEX
  8
PLAN_1
  6
CONTINUOUS
 10
1.209768
 20
-3.679913
  0
VERTEX
  8
PLAN_1
  6
CONTINUOUS
 10
1.205878
 20
-3.679913
  0
VERTEX
  8
PLAN_1
  6
CONTINUOUS
 10
1.202472
 20
-3.679913
  0
VERTEX
  8
PLAN_1
  6
CONTINUOUS
 10
1.199067
 20
-3.680398
  0
VERTEX
  8
PLAN_1
  6
CONTINUOUS
 10
1.195665
 20
-3.680886
  0
VERTEX
  8
PLAN_1
  6
CONTINUOUS
 10
1.192748
 20
-3.681858
  0
VERTEX
  8
PLAN_1
  6
CONTINUOUS
 10
1.189831
 20
-3.683319
  0
VERTEX
  8
PLAN_1
  6
CONTINUOUS
 10
1.187398
 20
-3.684776
  0
VERTEX
  8
PLAN_1
  6
CONTINUOUS
 10
1.184965
 20
-3.686236
  0
VERTEX
  8
PLAN_1
  6
CONTINUOUS
 10
1.182535
 20
-3.688181
  0
VERTEX
  8
PLAN_1
  6
CONTINUOUS
 10
1.178157
 20
-3.692071
  0
VERTEX
  8
PLAN_1
  6
CONTINUOUS
 10
1.174268
 20
-3.696933
  0
VERTEX
  8
PLAN_1
  6
CONTINUOUS
 10
1.170862
 20
-3.702283
  0
VERTEX
  8
PLAN_1
  6
CONTINUOUS
 10
1.168433
 20
-3.708118
  0
VERTEX
  8
PLAN_1
  6
CONTINUOUS
 10
1.166000
 20
-3.713953
  0
VERTEX
  8
PLAN_1
  6
CONTINUOUS
 10
1.164055
 20
-3.719787
  0
VERTEX
  8
PLAN_1
  6
CONTINUOUS
 10
1.162598
 20
-3.726110
  0
VERTEX
  8
PLAN_1
  6
CONTINUOUS
 10
1.161138
 20
-3.731945
  0
VERTEX
  8
PLAN_1
  6
CONTINUOUS
 10
1.159681
 20
-3.742646
  0
VERTEX
  8
PLAN_1
  6
CONTINUOUS
 10
1.159681
 20
-3.751882
  0
VERTEX
  8
PLAN_1
  6
CONTINUOUS
 10
1.160165
 20
-3.752370
  0
VERTEX
  8
PLAN_1
  6
CONTINUOUS
 10
1.162598
 20
-3.748480
  0
VERTEX
  8
PLAN_1
  6
CONTINUOUS
 10
1.166000
 20
-3.744102
  0
VERTEX
  8
PLAN_1
  6
CONTINUOUS
 10
1.170378
 20
-3.740213
  0
VERTEX
  8
PLAN_1
  6
CONTINUOUS
 10
1.175240
 20
-3.736323
  0
VERTEX
  8
PLAN_1
  6
CONTINUOUS
 10
1.178157
 20
-3.734862
  0
VERTEX
  8
PLAN_1
  6
CONTINUOUS
 10
1.181563
 20
-3.733406
  0
VERTEX
  8
PLAN_1
  6
CONTINUOUS
 10
1.184965
 20
-3.731945
  0
VERTEX
  8
PLAN_1
  6
CONTINUOUS
 10
1.188858
 20
-3.730972
  0
VERTEX
  8
PLAN_1
  6
CONTINUOUS
 10
1.192748
 20
-3.730000
  0
VERTEX
  8
PLAN_1
  6
CONTINUOUS
 10
1.197122
 20
-3.729028
  0
VERTEX
  8
PLAN_1
  6
CONTINUOUS
 10
1.201500
 20
-3.728543
  0
VERTEX
  8
PLAN_1
  6
CONTINUOUS
 10
1.206362
 20
-3.728543
  0
VERTEX
  8
PLAN_1
  6
CONTINUOUS
 10
1.210740
 20
-3.728543
  0
VERTEX
  8
PLAN_1
  6
CONTINUOUS
 10
1.215602
 20
-3.729028
  0
VERTEX
  8
PLAN_1
  6
CONTINUOUS
 10
1.220953
 20
-3.730000
  0
VERTEX
  8
PLAN_1
  6
CONTINUOUS
 10
1.225815
 20
-3.731461
  0
VERTEX
  8
PLAN_1
  6
CONTINUOUS
 10
1.231161
 20
-3.733406
  0
VERTEX
  8
PLAN_1
  6
CONTINUOUS
 10
1.236028
 20
-3.735835
  0
VERTEX
  8
PLAN_1
  6
CONTINUOUS
 10
1.240890
 20
-3.738752
  0
VERTEX
  8
PLAN_1
  6
CONTINUOUS
 10
1.245752
 20
-3.742157
  0
VERTEX
  8
PLAN_1
  6
CONTINUOUS
 10
1.250130
 20
-3.746047
  0
VERTEX
  8
PLAN_1
  6
CONTINUOUS
 10
1.254504
 20
-3.750425
  0
VERTEX
  8
PLAN_1
  6
CONTINUOUS
 10
1.257909
 20
-3.755287
  0
VERTEX
  8
PLAN_1
  6
CONTINUOUS
 10
1.261315
 20
-3.761122
  0
VERTEX
  8
PLAN_1
  6
CONTINUOUS
 10
1.263744
 20
-3.767445
  0
VERTEX
  8
PLAN_1
  6
CONTINUOUS
 10
1.265689
 20
-3.774252
  0
VERTEX
  8
PLAN_1
  6
CONTINUOUS
 10
1.267150
 20
-3.782031
  0
VERTEX
  8
PLAN_1
  6
CONTINUOUS
 10
1.267634
 20
-3.790299
  0
VERTEX
  8
PLAN_1
  6
CONTINUOUS
 10
1.267150
 20
-3.797594
  0
VERTEX
  8
PLAN_1
  6
CONTINUOUS
 10
1.266177
 20
-3.804402
  0
VERTEX
  8
PLAN_1
  6
CONTINUOUS
 10
1.265205
 20
-3.810724
  0
VERTEX
  8
PLAN_1
  6
CONTINUOUS
 10
1.263260
 20
-3.817047
  0
VERTEX
  8
PLAN_1
  6
CONTINUOUS
 10
1.260339
 20
-3.822882
  0
VERTEX
  8
PLAN_1
  6
CONTINUOUS
 10
1.257421
 20
-3.828228
  0
VERTEX
  8
PLAN_1
  6
CONTINUOUS
 10
1.253531
 20
-3.834067
  0
VERTEX
  8
PLAN_1
  6
CONTINUOUS
 10
1.248669
 20
-3.839413
  0
VERTEX
  8
PLAN_1
  6
CONTINUOUS
 10
1.244780
 20
-3.843303
  0
VERTEX
  8
PLAN_1
  6
CONTINUOUS
 10
1.240402
 20
-3.847197
  0
VERTEX
  8
PLAN_1
  6
CONTINUOUS
 10
1.236028
 20
-3.850114
  0
VERTEX
  8
PLAN_1
  6
CONTINUOUS
 10
1.230677
 20
-3.853031
  0
VERTEX
  8
PLAN_1
  6
CONTINUOUS
 10
1.224354
 20
-3.854976
  0
VERTEX
  8
PLAN_1
  6
CONTINUOUS
 10
1.217063
 20
-3.856921
  0
VERTEX
  8
PLAN_1
  6
CONTINUOUS
 10
1.208795
 20
-3.857894
  0
VERTEX
  8
PLAN_1
  6
CONTINUOUS
 10
1.199555
 20
-3.858378
  0
VERTEX
  8
PLAN_1
  6
CONTINUOUS
 10
1.193720
 20
-3.857894
  0
VERTEX
  8
PLAN_1
  6
CONTINUOUS
 10
1.187398
 20
-3.856921
  0
VERTEX
  8
PLAN_1
  6
CONTINUOUS
 10
1.180591
 20
-3.854976
  0
VERTEX
  8
PLAN_1
  6
CONTINUOUS
 10
1.173783
 20
-3.852059
  0
VERTEX
  8
PLAN_1
  6
CONTINUOUS
 10
1.170378
 20
-3.850114
  0
VERTEX
  8
PLAN_1
  6
CONTINUOUS
 10
1.166972
 20
-3.848169
  0
VERTEX
  8
PLAN_1
  6
CONTINUOUS
 10
1.164055
 20
-3.846224
  0
VERTEX
  8
PLAN_1
  6
CONTINUOUS
 10
1.160654
 20
-3.843303
  0
VERTEX
  8
PLAN_1
  6
CONTINUOUS
 10
1.157736
 20
-3.840386
  0
VERTEX
  8
PLAN_1
  6
CONTINUOUS
 10
1.154815
 20
-3.837469
  0
VERTEX
  8
PLAN_1
  6
CONTINUOUS
 10
1.151898
 20
-3.833579
  0
VERTEX
  8
PLAN_1
  6
CONTINUOUS
 10
1.148980
 20
-3.829689
  0
VERTEX
  8
PLAN_1
  6
CONTINUOUS
 10
1.145091
 20
-3.822882
  0
VERTEX
  8
PLAN_1
  6
CONTINUOUS
 10
1.141685
 20
-3.815098
  0
VERTEX
  8
PLAN_1
  6
CONTINUOUS
 10
1.139256
 20
-3.807319
  0
VERTEX
  8
PLAN_1
  6
CONTINUOUS
 10
1.137311
 20
-3.798567
  0
VERTEX
  8
PLAN_1
  6
CONTINUOUS
 10
1.135850
 20
-3.789815
  0
VERTEX
  8
PLAN_1
  6
CONTINUOUS
 10
1.134878
 20
-3.781059
  0
VERTEX
  8
PLAN_1
  6
CONTINUOUS
 10
1.134394
 20
-3.771823
  0
VERTEX
  8
PLAN_1
  6
CONTINUOUS
 10
1.134394
 20
-3.762094
  0
VERTEX
  8
PLAN_1
  6
CONTINUOUS
 10
1.134394
 20
-3.753827
  0
VERTEX
  8
PLAN_1
  6
CONTINUOUS
 10
1.134878
 20
-3.745563
  0
VERTEX
  8
PLAN_1
  6
CONTINUOUS
 10
1.135850
 20
-3.736807
  0
VERTEX
  8
PLAN_1
  6
CONTINUOUS
 10
1.137311
 20
-3.727571
  0
VERTEX
  8
PLAN_1
  6
CONTINUOUS
 10
1.139256
 20
-3.718815
  0
VERTEX
  8
PLAN_1
  6
CONTINUOUS
 10
1.141685
 20
-3.710063
  0
VERTEX
  8
PLAN_1
  6
CONTINUOUS
 10
1.144606
 20
-3.701795
  0
VERTEX
  8
PLAN_1
  6
CONTINUOUS
 10
1.148496
 20
-3.694016
  0
VERTEX
  8
PLAN_1
  6
CONTINUOUS
 10
1.152870
 20
-3.686236
  0
VERTEX
  8
PLAN_1
  6
CONTINUOUS
 10
1.157736
 20
-3.679425
  0
VERTEX
  8
PLAN_1
  6
CONTINUOUS
 10
1.160654
 20
-3.676508
  0
VERTEX
  8
PLAN_1
  6
CONTINUOUS
 10
1.163571
 20
-3.673591
  0
VERTEX
  8
PLAN_1
  6
CONTINUOUS
 10
1.166972
 20
-3.670673
  0
VERTEX
  8
PLAN_1
  6
CONTINUOUS
 10
1.170378
 20
-3.668244
  0
VERTEX
  8
PLAN_1
  6
CONTINUOUS
 10
1.174268
 20
-3.665811
  0
VERTEX
  8
PLAN_1
  6
CONTINUOUS
 10
1.178157
 20
-3.663866
  0
VERTEX
  8
PLAN_1
  6
CONTINUOUS
 10
1.182047
 20
-3.661921
  0
VERTEX
  8
PLAN_1
  6
CONTINUOUS
 10
1.186425
 20
-3.660461
  0
VERTEX
  8
PLAN_1
  6
CONTINUOUS
 10
1.191287
 20
-3.659488
  0
VERTEX
  8
PLAN_1
  6
CONTINUOUS
 10
1.196150
 20
-3.658516
  0
VERTEX
  8
PLAN_1
  6
CONTINUOUS
 10
1.201012
 20
-3.658031
  0
VERTEX
  8
PLAN_1
  6
CONTINUOUS
 10
1.206362
 20
-3.657543
  0
VERTEX
  8
PLAN_1
  6
CONTINUOUS
 10
1.210740
 20
-3.658031
  0
VERTEX
  8
PLAN_1
  6
CONTINUOUS
 10
1.215114
 20
-3.658516
  0
VERTEX
  8
PLAN_1
  6
CONTINUOUS
 10
1.219492
 20
-3.659004
  0
VERTEX
  8
PLAN_1
  6
CONTINUOUS
 10
1.224354
 20
-3.660461
  0
VERTEX
  8
PLAN_1
  6
CONTINUOUS
 10
1.229217
 20
-3.661921
  0
VERTEX
  8
PLAN_1
  6
CONTINUOUS
 10
1.233594
 20
-3.663866
  0
VERTEX
  8
PLAN_1
  6
CONTINUOUS
 10
1.237972
 20
-3.665811
  0
VERTEX
  8
PLAN_1
  6
CONTINUOUS
 10
1.242346
 20
-3.668728
  0
VERTEX
  8
PLAN_1
  6
CONTINUOUS
 10
1.246240
 20
-3.672134
  0
VERTEX
  8
PLAN_1
  6
CONTINUOUS
 10
1.250130
 20
-3.676024
  0
VERTEX
  8
PLAN_1
  6
CONTINUOUS
 10
1.253531
 20
-3.679913
  0
VERTEX
  8
PLAN_1
  6
CONTINUOUS
 10
1.256449
 20
-3.684776
  0
VERTEX
  8
PLAN_1
  6
CONTINUOUS
 10
1.258882
 20
-3.690126
  0
VERTEX
  8
PLAN_1
  6
CONTINUOUS
 10
1.260827
 20
-3.695961
  0
VERTEX
  8
PLAN_1
  6
CONTINUOUS
 10
1.262287
 20
-3.702768
  0
VERTEX
  8
PLAN_1
  6
CONTINUOUS
 10
1.263260
 20
-3.709575
  0
VERTEX
  8
PLAN_1
  6
CONTINUOUS
 10
1.239429
 20
-3.709575
  0
SEQEND
  8
0
  0
POLYLINE
  8
PLAN_1
  6
CONTINUOUS
 66
     1
 40
0.003000
 41
0.003000
  0
VERTEX
  8
PLAN_1
  6
CONTINUOUS
 10
1.203933
 20
-3.836012
  0
VERTEX
  8
PLAN_1
  6
CONTINUOUS
 10
1.208307
 20
-3.836012
  0
VERTEX
  8
PLAN_1
  6
CONTINUOUS
 10
1.212197
 20
-3.835524
  0
VERTEX
  8
PLAN_1
  6
CONTINUOUS
 10
1.216087
 20
-3.834551
  0
VERTEX
  8
PLAN_1
  6
CONTINUOUS
 10
1.219492
 20
-3.833094
  0
VERTEX
  8
PLAN_1
  6
CONTINUOUS
 10
1.222898
 20
-3.831150
  0
VERTEX
  8
PLAN_1
  6
CONTINUOUS
 10
1.226299
 20
-3.829201
  0
VERTEX
  8
PLAN_1
  6
CONTINUOUS
 10
1.229217
 20
-3.826772
  0
VERTEX
  8
PLAN_1
  6
CONTINUOUS
 10
1.231650
 20
-3.823854
  0
VERTEX
  8
PLAN_1
  6
CONTINUOUS
 10
1.234083
 20
-3.820449
  0
VERTEX
  8
PLAN_1
  6
CONTINUOUS
 10
1.236028
 20
-3.817047
  0
VERTEX
  8
PLAN_1
  6
CONTINUOUS
 10
1.237972
 20
-3.813642
  0
VERTEX
  8
PLAN_1
  6
CONTINUOUS
 10
1.239429
 20
-3.809752
  0
VERTEX
  8
PLAN_1
  6
CONTINUOUS
 10
1.240402
 20
-3.805374
  0
VERTEX
  8
PLAN_1
  6
CONTINUOUS
 10
1.241374
 20
-3.800996
  0
VERTEX
  8
PLAN_1
  6
CONTINUOUS
 10
1.241862
 20
-3.796622
  0
VERTEX
  8
PLAN_1
  6
CONTINUOUS
 10
1.242346
 20
-3.791760
  0
VERTEX
  8
PLAN_1
  6
CONTINUOUS
 10
1.241862
 20
-3.784949
  0
VERTEX
  8
PLAN_1
  6
CONTINUOUS
 10
1.240402
 20
-3.777657
  0
VERTEX
  8
PLAN_1
  6
CONTINUOUS
 10
1.238945
 20
-3.774252
  0
VERTEX
  8
PLAN_1
  6
CONTINUOUS
 10
1.237484
 20
-3.770846
  0
VERTEX
  8
PLAN_1
  6
CONTINUOUS
 10
1.236028
 20
-3.767445
  0
VERTEX
  8
PLAN_1
  6
CONTINUOUS
 10
1.233594
 20
-3.764528
  0
VERTEX
  8
PLAN_1
  6
CONTINUOUS
 10
1.231161
 20
-3.761610
  0
VERTEX
  8
PLAN_1
  6
CONTINUOUS
 10
1.228732
 20
-3.758693
  0
VERTEX
  8
PLAN_1
  6
CONTINUOUS
 10
1.225327
 20
-3.756748
  0
VERTEX
  8
PLAN_1
  6
CONTINUOUS
 10
1.221437
 20
-3.754315
  0
VERTEX
  8
PLAN_1
  6
CONTINUOUS
 10
1.217547
 20
-3.752854
  0
VERTEX
  8
PLAN_1
  6
CONTINUOUS
 10
1.213169
 20
-3.751398
  0
VERTEX
  8
PLAN_1
  6
CONTINUOUS
 10
1.208307
 20
-3.750909
  0
VERTEX
  8
PLAN_1
  6
CONTINUOUS
 10
1.202961
 20
-3.750425
  0
VERTEX
  8
PLAN_1
  6
CONTINUOUS
 10
1.198094
 20
-3.750909
  0
VERTEX
  8
PLAN_1
  6
CONTINUOUS
 10
1.193232
 20
-3.751398
  0
VERTEX
  8
PLAN_1
  6
CONTINUOUS
 10
1.188858
 20
-3.752370
  0
VERTEX
  8
PLAN_1
  6
CONTINUOUS
 10
1.184965
 20
-3.753827
  0
VERTEX
  8
PLAN_1
  6
CONTINUOUS
 10
1.181563
 20
-3.755772
  0
VERTEX
  8
PLAN_1
  6
CONTINUOUS
 10
1.178157
 20
-3.757720
  0
VERTEX
  8
PLAN_1
  6
CONTINUOUS
 10
1.175240
 20
-3.760150
  0
VERTEX
  8
PLAN_1
  6
CONTINUOUS
 10
1.172811
 20
-3.763067
  0
VERTEX
  8
PLAN_1
  6
CONTINUOUS
 10
1.170378
 20
-3.765984
  0
VERTEX
  8
PLAN_1
  6
CONTINUOUS
 10
1.168433
 20
-3.769390
  0
VERTEX
  8
PLAN_1
  6
CONTINUOUS
 10
1.166488
 20
-3.772795
  0
VERTEX
  8
PLAN_1
  6
CONTINUOUS
 10
1.165028
 20
-3.776685
  0
VERTEX
  8
PLAN_1
  6
CONTINUOUS
 10
1.164055
 20
-3.780575
  0
VERTEX
  8
PLAN_1
  6
CONTINUOUS
 10
1.163571
 20
-3.784465
  0
VERTEX
  8
PLAN_1
  6
CONTINUOUS
 10
1.163083
 20
-3.788843
  0
VERTEX
  8
PLAN_1
  6
CONTINUOUS
 10
1.162598
 20
-3.792732
  0
VERTEX
  8
PLAN_1
  6
CONTINUOUS
 10
1.163083
 20
-3.796622
  0
VERTEX
  8
PLAN_1
  6
CONTINUOUS
 10
1.163571
 20
-3.800996
  0
VERTEX
  8
PLAN_1
  6
CONTINUOUS
 10
1.164055
 20
-3.804402
  0
VERTEX
  8
PLAN_1
  6
CONTINUOUS
 10
1.165028
 20
-3.808291
  0
VERTEX
  8
PLAN_1
  6
CONTINUOUS
 10
1.166488
 20
-3.812181
  0
VERTEX
  8
PLAN_1
  6
CONTINUOUS
 10
1.168433
 20
-3.815587
  0
VERTEX
  8
PLAN_1
  6
CONTINUOUS
 10
1.170378
 20
-3.818992
  0
VERTEX
  8
PLAN_1
  6
CONTINUOUS
 10
1.172811
 20
-3.822394
  0
VERTEX
  8
PLAN_1
  6
CONTINUOUS
 10
1.175240
 20
-3.825311
  0
VERTEX
  8
PLAN_1
  6
CONTINUOUS
 10
1.178157
 20
-3.828228
  0
VERTEX
  8
PLAN_1
  6
CONTINUOUS
 10
1.181563
 20
-3.830173
  0
VERTEX
  8
PLAN_1
  6
CONTINUOUS
 10
1.185453
 20
-3.832606
  0
VERTEX
  8
PLAN_1
  6
CONTINUOUS
 10
1.189343
 20
-3.834067
  0
VERTEX
  8
PLAN_1
  6
CONTINUOUS
 10
1.193720
 20
-3.835039
  0
VERTEX
  8
PLAN_1
  6
CONTINUOUS
 10
1.198583
 20
-3.836012
  0
VERTEX
  8
PLAN_1
  6
CONTINUOUS
 10
1.203933
 20
-3.836012
  0
SEQEND
  8
0
  0
POLYLINE
  8
PLAN_1
  6
CONTINUOUS
 66
     1
 40
0.003000
 41
0.003000
  0
VERTEX
  8
PLAN_1
  6
CONTINUOUS
 10
1.377535
 20
-3.853031
  0
VERTEX
  8
PLAN_1
  6
CONTINUOUS
 10
1.351764
 20
-3.853031
  0
VERTEX
  8
PLAN_1
  6
CONTINUOUS
 10
1.351764
 20
-3.714441
  0
VERTEX
  8
PLAN_1
  6
CONTINUOUS
 10
1.306051
 20
-3.714441
  0
VERTEX
  8
PLAN_1
  6
CONTINUOUS
 10
1.306051
 20
-3.694988
  0
VERTEX
  8
PLAN_1
  6
CONTINUOUS
 10
1.317236
 20
-3.694016
  0
VERTEX
  8
PLAN_1
  6
CONTINUOUS
 10
1.326476
 20
-3.692555
  0
VERTEX
  8
PLAN_1
  6
CONTINUOUS
 10
1.330850
 20
-3.691583
  0
VERTEX
  8
PLAN_1
  6
CONTINUOUS
 10
1.334740
 20
-3.690610
  0
VERTEX
  8
PLAN_1
  6
CONTINUOUS
 10
1.338146
 20
-3.689154
  0
VERTEX
  8
PLAN_1
  6
CONTINUOUS
 10
1.341063
 20
-3.687693
  0
VERTEX
  8
PLAN_1
  6
CONTINUOUS
 10
1.343980
 20
-3.685264
  0
VERTEX
  8
PLAN_1
  6
CONTINUOUS
 10
1.346898
 20
-3.682831
  0
VERTEX
  8
PLAN_1
  6
CONTINUOUS
 10
1.349331
 20
-3.679913
  0
VERTEX
  8
PLAN_1
  6
CONTINUOUS
 10
1.351276
 20
-3.676508
  0
VERTEX
  8
PLAN_1
  6
CONTINUOUS
 10
1.353709
 20
-3.672618
  0
VERTEX
  8
PLAN_1
  6
CONTINUOUS
 10
1.355165
 20
-3.668244
  0
VERTEX
  8
PLAN_1
  6
CONTINUOUS
 10
1.357110
 20
-3.663378
  0
VERTEX
  8
PLAN_1
  6
CONTINUOUS
 10
1.358571
 20
-3.657543
  0
VERTEX
  8
PLAN_1
  6
CONTINUOUS
 10
1.377535
 20
-3.657543
  0
VERTEX
  8
PLAN_1
  6
CONTINUOUS
 10
1.377535
 20
-3.853031
  0
SEQEND
  8
0
  0
SOLID
  8
PLAN_1
 10
1.432484
 20
-3.887555
 11
1.432484
 21
-3.873453
 12
1.586638
 22
-3.887555
 13
1.586638
 23
-3.873453
  0
POLYLINE
  8
PLAN_1
  6
CONTINUOUS
 66
     1
 40
0.003000
 41
0.003000
  0
VERTEX
  8
PLAN_1
  6
CONTINUOUS
 10
1.432484
 20
-3.887555
  0
VERTEX
  8
PLAN_1
  6
CONTINUOUS
 10
1.432484
 20
-3.873453
  0
VERTEX
  8
PLAN_1
  6
CONTINUOUS
 10
1.586638
 20
-3.873453
  0
VERTEX
  8
PLAN_1
  6
CONTINUOUS
 10
1.586638
 20
-3.887555
  0
VERTEX
  8
PLAN_1
  6
CONTINUOUS
 10
1.432484
 20
-3.887555
  0
SEQEND
  8
0
  0
POLYLINE
  8
PLAN_1
  6
CONTINUOUS
 66
     1
 40
0.003000
 41
0.003000
  0
VERTEX
  8
PLAN_1
  6
CONTINUOUS
 10
1.638185
 20
-3.853031
  0
VERTEX
  8
PLAN_1
  6
CONTINUOUS
 10
1.611437
 20
-3.853031
  0
VERTEX
  8
PLAN_1
  6
CONTINUOUS
 10
1.611437
 20
-3.653654
  0
VERTEX
  8
PLAN_1
  6
CONTINUOUS
 10
1.703346
 20
-3.653654
  0
VERTEX
  8
PLAN_1
  6
CONTINUOUS
 10
1.709669
 20
-3.653654
  0
VERTEX
  8
PLAN_1
  6
CONTINUOUS
 10
1.715504
 20
-3.654142
  0
VERTEX
  8
PLAN_1
  6
CONTINUOUS
 10
1.721339
 20
-3.655114
  0
VERTEX
  8
PLAN_1
  6
CONTINUOUS
 10
1.727661
 20
-3.656087
  0
VERTEX
  8
PLAN_1
  6
CONTINUOUS
 10
1.733008
 20
-3.657543
  0
VERTEX
  8
PLAN_1
  6
CONTINUOUS
 10
1.738358
 20
-3.659488
  0
VERTEX
  8
PLAN_1
  6
CONTINUOUS
 10
1.743709
 20
-3.661921
  0
VERTEX
  8
PLAN_1
  6
CONTINUOUS
 10
1.748571
 20
-3.664350
  0
VERTEX
  8
PLAN_1
  6
CONTINUOUS
 10
1.752949
 20
-3.667756
  0
VERTEX
  8
PLAN_1
  6
CONTINUOUS
 10
1.756839
 20
-3.671646
  0
VERTEX
  8
PLAN_1
  6
CONTINUOUS
 10
1.760240
 20
-3.676024
  0
VERTEX
  8
PLAN_1
  6
CONTINUOUS
 10
1.763157
 20
-3.680886
  0
VERTEX
  8
PLAN_1
  6
CONTINUOUS
 10
1.765591
 20
-3.686720
  0
VERTEX
  8
PLAN_1
  6
CONTINUOUS
 10
1.767535
 20
-3.692555
  0
VERTEX
  8
PLAN_1
  6
CONTINUOUS
 10
1.768508
 20
-3.699366
  0
VERTEX
  8
PLAN_1
  6
CONTINUOUS
 10
1.768996
 20
-3.707146
  0
VERTEX
  8
PLAN_1
  6
CONTINUOUS
 10
1.768508
 20
-3.712496
  0
VERTEX
  8
PLAN_1
  6
CONTINUOUS
 10
1.768024
 20
-3.717358
  0
VERTEX
  8
PLAN_1
  6
CONTINUOUS
 10
1.767535
 20
-3.721732
  0
VERTEX
  8
PLAN_1
  6
CONTINUOUS
 10
1.766563
 20
-3.726110
  0
VERTEX
  8
PLAN_1
  6
CONTINUOUS
 10
1.765102
 20
-3.730000
  0
VERTEX
  8
PLAN_1
  6
CONTINUOUS
 10
1.763646
 20
-3.733406
  0
VERTEX
  8
PLAN_1
  6
CONTINUOUS
 10
1.761701
 20
-3.736323
  0
VERTEX
  8
PLAN_1
  6
CONTINUOUS
 10
1.759756
 20
-3.739240
  0
VERTEX
  8
PLAN_1
  6
CONTINUOUS
 10
1.755378
 20
-3.744102
  0
VERTEX
  8
PLAN_1
  6
CONTINUOUS
 10
1.751000
 20
-3.748480
  0
VERTEX
  8
PLAN_1
  6
CONTINUOUS
 10
1.746138
 20
-3.751882
  0
VERTEX
  8
PLAN_1
  6
CONTINUOUS
 10
1.741276
 20
-3.754799
  0
VERTEX
  8
PLAN_1
  6
CONTINUOUS
 10
1.745165
 20
-3.756748
  0
VERTEX
  8
PLAN_1
  6
CONTINUOUS
 10
1.749543
 20
-3.758693
  0
VERTEX
  8
PLAN_1
  6
CONTINUOUS
 10
1.753433
 20
-3.761610
  0
VERTEX
  8
PLAN_1
  6
CONTINUOUS
 10
1.756839
 20
-3.765012
  0
VERTEX
  8
PLAN_1
  6
CONTINUOUS
 10
1.758295
 20
-3.766957
  0
VERTEX
  8
PLAN_1
  6
CONTINUOUS
 10
1.759756
 20
-3.769390
  0
VERTEX
  8
PLAN_1
  6
CONTINUOUS
 10
1.761213
 20
-3.772307
  0
VERTEX
  8
PLAN_1
  6
CONTINUOUS
 10
1.762185
 20
-3.775224
  0
VERTEX
  8
PLAN_1
  6
CONTINUOUS
 10
1.763157
 20
-3.779114
  0
VERTEX
  8
PLAN_1
  6
CONTINUOUS
 10
1.764130
 20
-3.783004
  0
VERTEX
  8
PLAN_1
  6
CONTINUOUS
 10
1.764618
 20
-3.787382
  0
VERTEX
  8
PLAN_1
  6
CONTINUOUS
 10
1.765102
 20
-3.792244
  0
VERTEX
  8
PLAN_1
  6
CONTINUOUS
 10
1.766563
 20
-3.828228
  0
VERTEX
  8
PLAN_1
  6
CONTINUOUS
 10
1.767051
 20
-3.832122
  0
VERTEX
  8
PLAN_1
  6
CONTINUOUS
 10
1.767051
 20
-3.835524
  0
VERTEX
  8
PLAN_1
  6
CONTINUOUS
 10
1.767535
 20
-3.838441
  0
VERTEX
  8
PLAN_1
  6
CONTINUOUS
 10
1.768508
 20
-3.840874
  0
VERTEX
  8
PLAN_1
  6
CONTINUOUS
 10
1.769969
 20
-3.842819
  0
VERTEX
  8
PLAN_1
  6
CONTINUOUS
 10
1.771425
 20
-3.844764
  0
VERTEX
  8
PLAN_1
  6
CONTINUOUS
 10
1.773858
 20
-3.846709
  0
VERTEX
  8
PLAN_1
  6
CONTINUOUS
 10
1.776776
 20
-3.848654
  0
VERTEX
  8
PLAN_1
  6
CONTINUOUS
 10
1.776776
 20
-3.853031
  0
VERTEX
  8
PLAN_1
  6
CONTINUOUS
 10
1.743709
 20
-3.853031
  0
VERTEX
  8
PLAN_1
  6
CONTINUOUS
 10
1.742248
 20
-3.847681
  0
VERTEX
  8
PLAN_1
  6
CONTINUOUS
 10
1.741276
 20
-3.840874
  0
VERTEX
  8
PLAN_1
  6
CONTINUOUS
 10
1.740303
 20
-3.833579
  0
VERTEX
  8
PLAN_1
  6
CONTINUOUS
 10
1.739819
 20
-3.826283
  0
VERTEX
  8
PLAN_1
  6
CONTINUOUS
 10
1.739331
 20
-3.818992
  0
VERTEX
  8
PLAN_1
  6
CONTINUOUS
 10
1.739331
 20
-3.812181
  0
VERTEX
  8
PLAN_1
  6
CONTINUOUS
 10
1.738846
 20
-3.806835
  0
VERTEX
  8
PLAN_1
  6
CONTINUOUS
 10
1.738846
 20
-3.802945
  0
VERTEX
  8
PLAN_1
  6
CONTINUOUS
 10
1.738846
 20
-3.796622
  0
VERTEX
  8
PLAN_1
  6
CONTINUOUS
 10
1.737874
 20
-3.790299
  0
VERTEX
  8
PLAN_1
  6
CONTINUOUS
 10
1.736898
 20
-3.787382
  0
VERTEX
  8
PLAN_1
  6
CONTINUOUS
 10
1.735925
 20
-3.784465
  0
VERTEX
  8
PLAN_1
  6
CONTINUOUS
 10
1.734953
 20
-3.781547
  0
VERTEX
  8
PLAN_1
  6
CONTINUOUS
 10
1.733008
 20
-3.779114
  0
VERTEX
  8
PLAN_1
  6
CONTINUOUS
 10
1.731063
 20
-3.776685
  0
VERTEX
  8
PLAN_1
  6
CONTINUOUS
 10
1.728634
 20
-3.774252
  0
VERTEX
  8
PLAN_1
  6
CONTINUOUS
 10
1.725717
 20
-3.772307
  0
VERTEX
  8
PLAN_1
  6
CONTINUOUS
 10
1.722311
 20
-3.770846
  0
VERTEX
  8
PLAN_1
  6
CONTINUOUS
 10
1.718421
 20
-3.769390
  0
VERTEX
  8
PLAN_1
  6
CONTINUOUS
 10
1.714043
 20
-3.768417
  0
VERTEX
  8
PLAN_1
  6
CONTINUOUS
 10
1.709181
 20
-3.767445
  0
VERTEX
  8
PLAN_1
  6
CONTINUOUS
 10
1.703346
 20
-3.767445
  0
VERTEX
  8
PLAN_1
  6
CONTINUOUS
 10
1.638185
 20
-3.767445
  0
VERTEX
  8
PLAN_1
  6
CONTINUOUS
 10
1.638185
 20
-3.853031
  0
SEQEND
  8
0
  0
POLYLINE
  8
PLAN_1
  6
CONTINUOUS
 66
     1
 40
0.003000
 41
0.003000
  0
VERTEX
  8
PLAN_1
  6
CONTINUOUS
 10
1.638185
 20
-3.744102
  0
VERTEX
  8
PLAN_1
  6
CONTINUOUS
 10
1.700429
 20
-3.744102
  0
VERTEX
  8
PLAN_1
  6
CONTINUOUS
 10
1.708209
 20
-3.744102
  0
VERTEX
  8
PLAN_1
  6
CONTINUOUS
 10
1.715016
 20
-3.743130
  0
VERTEX
  8
PLAN_1
  6
CONTINUOUS
 10
1.718906
 20
-3.742157
  0
VERTEX
  8
PLAN_1
  6
CONTINUOUS
 10
1.722311
 20
-3.741185
  0
VERTEX
  8
PLAN_1
  6
CONTINUOUS
 10
1.725228
 20
-3.739724
  0
VERTEX
  8
PLAN_1
  6
CONTINUOUS
 10
1.728146
 20
-3.738268
  0
VERTEX
  8
PLAN_1
  6
CONTINUOUS
 10
1.731063
 20
-3.736323
  0
VERTEX
  8
PLAN_1
  6
CONTINUOUS
 10
1.733496
 20
-3.733890
  0
VERTEX
  8
PLAN_1
  6
CONTINUOUS
 10
1.735441
 20
-3.730972
  0
VERTEX
  8
PLAN_1
  6
CONTINUOUS
 10
1.737386
 20
-3.727571
  0
VERTEX
  8
PLAN_1
  6
CONTINUOUS
 10
1.738846
 20
-3.724165
  0
VERTEX
  8
PLAN_1
  6
CONTINUOUS
 10
1.740303
 20
-3.719787
  0
VERTEX
  8
PLAN_1
  6
CONTINUOUS
 10
1.740791
 20
-3.714925
  0
VERTEX
  8
PLAN_1
  6
CONTINUOUS
 10
1.741276
 20
-3.710063
  0
VERTEX
  8
PLAN_1
  6
CONTINUOUS
 10
1.740791
 20
-3.704713
  0
VERTEX
  8
PLAN_1
  6
CONTINUOUS
 10
1.740303
 20
-3.699850
  0
VERTEX
  8
PLAN_1
  6
CONTINUOUS
 10
1.738846
 20
-3.695472
  0
VERTEX
  8
PLAN_1
  6
CONTINUOUS
 10
1.737386
 20
-3.691583
  0
VERTEX
  8
PLAN_1
  6
CONTINUOUS
 10
1.735441
 20
-3.688665
  0
VERTEX
  8
PLAN_1
  6
CONTINUOUS
 10
1.733496
 20
-3.685748
  0
VERTEX
  8
PLAN_1
  6
CONTINUOUS
 10
1.731063
 20
-3.683803
  0
VERTEX
  8
PLAN_1
  6
CONTINUOUS
 10
1.728146
 20
-3.681858
  0
VERTEX
  8
PLAN_1
  6
CONTINUOUS
 10
1.725228
 20
-3.680398
  0
VERTEX
  8
PLAN_1
  6
CONTINUOUS
 10
1.722311
 20
-3.678941
  0
VERTEX
  8
PLAN_1
  6
CONTINUOUS
 10
1.719394
 20
-3.677969
  0
VERTEX
  8
PLAN_1
  6
CONTINUOUS
 10
1.716476
 20
-3.677480
  0
VERTEX
  8
PLAN_1
  6
CONTINUOUS
 10
1.710642
 20
-3.676996
  0
VERTEX
  8
PLAN_1
  6
CONTINUOUS
 10
1.705291
 20
-3.676508
  0
VERTEX
  8
PLAN_1
  6
CONTINUOUS
 10
1.638185
 20
-3.676508
  0
VERTEX
  8
PLAN_1
  6
CONTINUOUS
 10
1.638185
 20
-3.744102
  0
SEQEND
  8
0
  0
SOLID
  8
PLAN_1
 10
1.840476
 20
-3.853031
 11
1.811299
 21
-3.853031
 12
1.840476
 22
-3.823366
 13
1.811299
 23
-3.823366
  0
POLYLINE
  8
PLAN_1
  6
CONTINUOUS
 66
     1
 40
0.003000
 41
0.003000
  0
VERTEX
  8
PLAN_1
  6
CONTINUOUS
 10
1.840476
 20
-3.853031
  0
VERTEX
  8
PLAN_1
  6
CONTINUOUS
 10
1.811299
 20
-3.853031
  0
VERTEX
  8
PLAN_1
  6
CONTINUOUS
 10
1.811299
 20
-3.823366
  0
VERTEX
  8
PLAN_1
  6
CONTINUOUS
 10
1.840476
 20
-3.823366
  0
VERTEX
  8
PLAN_1
  6
CONTINUOUS
 10
1.840476
 20
-3.853031
  0
SEQEND
  8
0
  0
POLYLINE
  8
PLAN_1
  6
CONTINUOUS
 66
     1
 40
0.003000
 41
0.003000
  0
VERTEX
  8
PLAN_1
  6
CONTINUOUS
 10
2.035480
 20
-3.853031
  0
VERTEX
  8
PLAN_1
  6
CONTINUOUS
 10
1.888134
 20
-3.853031
  0
VERTEX
  8
PLAN_1
  6
CONTINUOUS
 10
1.888134
 20
-3.653654
  0
VERTEX
  8
PLAN_1
  6
CONTINUOUS
 10
2.033531
 20
-3.653654
  0
VERTEX
  8
PLAN_1
  6
CONTINUOUS
 10
2.033531
 20
-3.677480
  0
VERTEX
  8
PLAN_1
  6
CONTINUOUS
 10
1.915366
 20
-3.677480
  0
VERTEX
  8
PLAN_1
  6
CONTINUOUS
 10
1.915366
 20
-3.738752
  0
VERTEX
  8
PLAN_1
  6
CONTINUOUS
 10
2.024295
 20
-3.738752
  0
VERTEX
  8
PLAN_1
  6
CONTINUOUS
 10
2.024295
 20
-3.762583
  0
VERTEX
  8
PLAN_1
  6
CONTINUOUS
 10
1.915366
 20
-3.762583
  0
VERTEX
  8
PLAN_1
  6
CONTINUOUS
 10
1.915366
 20
-3.829201
  0
VERTEX
  8
PLAN_1
  6
CONTINUOUS
 10
2.035480
 20
-3.829201
  0
VERTEX
  8
PLAN_1
  6
CONTINUOUS
 10
2.035480
 20
-3.853031
  0
SEQEND
  8
0
  0
POLYLINE
  8
PLAN_1
  6
CONTINUOUS
 66
     1
 40
0.003000
 41
0.003000
  0
VERTEX
  8
PLAN_1
  6
CONTINUOUS
 10
2.100642
 20
-3.853031
  0
VERTEX
  8
PLAN_1
  6
CONTINUOUS
 10
2.073409
 20
-3.853031
  0
VERTEX
  8
PLAN_1
  6
CONTINUOUS
 10
2.073409
 20
-3.653654
  0
VERTEX
  8
PLAN_1
  6
CONTINUOUS
 10
2.163370
 20
-3.653654
  0
VERTEX
  8
PLAN_1
  6
CONTINUOUS
 10
2.170181
 20
-3.653654
  0
VERTEX
  8
PLAN_1
  6
CONTINUOUS
 10
2.176500
 20
-3.654626
  0
VERTEX
  8
PLAN_1
  6
CONTINUOUS
 10
2.182335
 20
-3.656087
  0
VERTEX
  8
PLAN_1
  6
CONTINUOUS
 10
2.188173
 20
-3.658031
  0
VERTEX
  8
PLAN_1
  6
CONTINUOUS
 10
2.193035
 20
-3.659976
  0
VERTEX
  8
PLAN_1
  6
CONTINUOUS
 10
2.197898
 20
-3.662894
  0
VERTEX
  8
PLAN_1
  6
CONTINUOUS
 10
2.202760
 20
-3.665811
  0
VERTEX
  8
PLAN_1
  6
CONTINUOUS
 10
2.206650
 20
-3.669701
  0
VERTEX
  8
PLAN_1
  6
CONTINUOUS
 10
2.210055
 20
-3.673591
  0
VERTEX
  8
PLAN_1
  6
CONTINUOUS
 10
2.213457
 20
-3.677969
  0
VERTEX
  8
PLAN_1
  6
CONTINUOUS
 10
2.215890
 20
-3.682346
  0
VERTEX
  8
PLAN_1
  6
CONTINUOUS
 10
2.218323
 20
-3.687209
  0
VERTEX
  8
PLAN_1
  6
CONTINUOUS
 10
2.219780
 20
-3.692555
  0
VERTEX
  8
PLAN_1
  6
CONTINUOUS
 10
2.221240
 20
-3.697906
  0
VERTEX
  8
PLAN_1
  6
CONTINUOUS
 10
2.222213
 20
-3.703740
  0
VERTEX
  8
PLAN_1
  6
CONTINUOUS
 10
2.222213
 20
-3.709575
  0
VERTEX
  8
PLAN_1
  6
CONTINUOUS
 10
2.222213
 20
-3.714925
  0
VERTEX
  8
PLAN_1
  6
CONTINUOUS
 10
2.221724
 20
-3.720276
  0
VERTEX
  8
PLAN_1
  6
CONTINUOUS
 10
2.220752
 20
-3.725622
  0
VERTEX
  8
PLAN_1
  6
CONTINUOUS
 10
2.219295
 20
-3.730488
  0
VERTEX
  8
PLAN_1
  6
CONTINUOUS
 10
2.217350
 20
-3.735835
  0
VERTEX
  8
PLAN_1
  6
CONTINUOUS
 10
2.214917
 20
-3.740697
  0
VERTEX
  8
PLAN_1
  6
CONTINUOUS
 10
2.212484
 20
-3.745075
  0
VERTEX
  8
PLAN_1
  6
CONTINUOUS
 10
2.209083
 20
-3.749453
  0
VERTEX
  8
PLAN_1
  6
CONTINUOUS
 10
2.205193
 20
-3.753827
  0
VERTEX
  8
PLAN_1
  6
CONTINUOUS
 10
2.200815
 20
-3.757232
  0
VERTEX
  8
PLAN_1
  6
CONTINUOUS
 10
2.195953
 20
-3.760638
  0
VERTEX
  8
PLAN_1
  6
CONTINUOUS
 10
2.190602
 20
-3.763555
  0
VERTEX
  8
PLAN_1
  6
CONTINUOUS
 10
2.184768
 20
-3.765500
  0
VERTEX
  8
PLAN_1
  6
CONTINUOUS
 10
2.177961
 20
-3.767445
  0
VERTEX
  8
PLAN_1
  6
CONTINUOUS
 10
2.171154
 20
-3.768417
  0
VERTEX
  8
PLAN_1
  6
CONTINUOUS
 10
2.163370
 20
-3.768902
  0
VERTEX
  8
PLAN_1
  6
CONTINUOUS
 10
2.100642
 20
-3.768902
  0
VERTEX
  8
PLAN_1
  6
CONTINUOUS
 10
2.100642
 20
-3.853031
  0
SEQEND
  8
0
  0
POLYLINE
  8
PLAN_1
  6
CONTINUOUS
 66
     1
 40
0.003000
 41
0.003000
  0
VERTEX
  8
PLAN_1
  6
CONTINUOUS
 10
2.100642
 20
-3.745563
  0
VERTEX
  8
PLAN_1
  6
CONTINUOUS
 10
2.154134
 20
-3.745563
  0
VERTEX
  8
PLAN_1
  6
CONTINUOUS
 10
2.158508
 20
-3.745563
  0
VERTEX
  8
PLAN_1
  6
CONTINUOUS
 10
2.162886
 20
-3.745075
  0
VERTEX
  8
PLAN_1
  6
CONTINUOUS
 10
2.166776
 20
-3.744591
  0
VERTEX
  8
PLAN_1
  6
CONTINUOUS
 10
2.170665
 20
-3.744102
  0
VERTEX
  8
PLAN_1
  6
CONTINUOUS
 10
2.174071
 20
-3.742646
  0
VERTEX
  8
PLAN_1
  6
CONTINUOUS
 10
2.177472
 20
-3.741669
  0
VERTEX
  8
PLAN_1
  6
CONTINUOUS
 10
2.180390
 20
-3.739724
  0
VERTEX
  8
PLAN_1
  6
CONTINUOUS
 10
2.183307
 20
-3.737780
  0
VERTEX
  8
PLAN_1
  6
CONTINUOUS
 10
2.185740
 20
-3.735835
  0
VERTEX
  8
PLAN_1
  6
CONTINUOUS
 10
2.188173
 20
-3.732917
  0
VERTEX
  8
PLAN_1
  6
CONTINUOUS
 10
2.190118
 20
-3.730000
  0
VERTEX
  8
PLAN_1
  6
CONTINUOUS
 10
2.191575
 20
-3.727083
  0
VERTEX
  8
PLAN_1
  6
CONTINUOUS
 10
2.193035
 20
-3.723193
  0
VERTEX
  8
PLAN_1
  6
CONTINUOUS
 10
2.194008
 20
-3.719303
  0
VERTEX
  8
PLAN_1
  6
CONTINUOUS
 10
2.194492
 20
-3.714925
  0
VERTEX
  8
PLAN_1
  6
CONTINUOUS
 10
2.194492
 20
-3.710063
  0
VERTEX
  8
PLAN_1
  6
CONTINUOUS
 10
2.194492
 20
-3.705201
  0
VERTEX
  8
PLAN_1
  6
CONTINUOUS
 10
2.194008
 20
-3.701311
  0
VERTEX
  8
PLAN_1
  6
CONTINUOUS
 10
2.193035
 20
-3.697421
  0
VERTEX
  8
PLAN_1
  6
CONTINUOUS
 10
2.191575
 20
-3.694016
  0
VERTEX
  8
PLAN_1
  6
CONTINUOUS
 10
2.190118
 20
-3.691098
  0
VERTEX
  8
PLAN_1
  6
CONTINUOUS
 10
2.188173
 20
-3.688181
  0
VERTEX
  8
PLAN_1
  6
CONTINUOUS
 10
2.185740
 20
-3.685748
  0
VERTEX
  8
PLAN_1
  6
CONTINUOUS
 10
2.183307
 20
-3.683803
  0
VERTEX
  8
PLAN_1
  6
CONTINUOUS
 10
2.180390
 20
-3.681858
  0
VERTEX
  8
PLAN_1
  6
CONTINUOUS
 10
2.177472
 20
-3.680398
  0
VERTEX
  8
PLAN_1
  6
CONTINUOUS
 10
2.174071
 20
-3.679425
  0
VERTEX
  8
PLAN_1
  6
CONTINUOUS
 10
2.170665
 20
-3.678453
  0
VERTEX
  8
PLAN_1
  6
CONTINUOUS
 10
2.163370
 20
-3.676996
  0
VERTEX
  8
PLAN_1
  6
CONTINUOUS
 10
2.155106
 20
-3.676508
  0
VERTEX
  8
PLAN_1
  6
CONTINUOUS
 10
2.100642
 20
-3.676508
  0
VERTEX
  8
PLAN_1
  6
CONTINUOUS
 10
2.100642
 20
-3.745563
  0
SEQEND
  8
0
  0
POLYLINE
  8
PLAN_1
  6
CONTINUOUS
 66
     1
 40
0.003000
 41
0.003000
  0
VERTEX
  8
PLAN_1
  6
CONTINUOUS
 10
2.376362
 20
-3.712008
  0
VERTEX
  8
PLAN_1
  6
CONTINUOUS
 10
2.375878
 20
-3.706173
  0
VERTEX
  8
PLAN_1
  6
CONTINUOUS
 10
2.374417
 20
-3.701311
  0
VERTEX
  8
PLAN_1
  6
CONTINUOUS
 10
2.372961
 20
-3.696933
  0
VERTEX
  8
PLAN_1
  6
CONTINUOUS
 10
2.371016
 20
-3.692555
  0
VERTEX
  8
PLAN_1
  6
CONTINUOUS
 10
2.368583
 20
-3.688665
  0
VERTEX
  8
PLAN_1
  6
CONTINUOUS
 10
2.365665
 20
-3.685748
  0
VERTEX
  8
PLAN_1
  6
CONTINUOUS
 10
2.362748
 20
-3.682831
  0
VERTEX
  8
PLAN_1
  6
CONTINUOUS
 10
2.359343
 20
-3.679913
  0
VERTEX
  8
PLAN_1
  6
CONTINUOUS
 10
2.355941
 20
-3.677969
  0
VERTEX
  8
PLAN_1
  6
CONTINUOUS
 10
2.352051
 20
-3.676024
  0
VERTEX
  8
PLAN_1
  6
CONTINUOUS
 10
2.348161
 20
-3.674563
  0
VERTEX
  8
PLAN_1
  6
CONTINUOUS
 10
2.343783
 20
-3.673106
  0
VERTEX
  8
PLAN_1
  6
CONTINUOUS
 10
2.339406
 20
-3.672618
  0
VERTEX
  8
PLAN_1
  6
CONTINUOUS
 10
2.335516
 20
-3.671646
  0
VERTEX
  8
PLAN_1
  6
CONTINUOUS
 10
2.331138
 20
-3.671646
  0
VERTEX
  8
PLAN_1
  6
CONTINUOUS
 10
2.326764
 20
-3.671161
  0
VERTEX
  8
PLAN_1
  6
CONTINUOUS
 10
2.319957
 20
-3.671646
  0
VERTEX
  8
PLAN_1
  6
CONTINUOUS
 10
2.312661
 20
-3.672618
  0
VERTEX
  8
PLAN_1
  6
CONTINUOUS
 10
2.308772
 20
-3.673591
  0
VERTEX
  8
PLAN_1
  6
CONTINUOUS
 10
2.304882
 20
-3.674563
  0
VERTEX
  8
PLAN_1
  6
CONTINUOUS
 10
2.300988
 20
-3.676024
  0
VERTEX
  8
PLAN_1
  6
CONTINUOUS
 10
2.297587
 20
-3.677480
  0
VERTEX
  8
PLAN_1
  6
CONTINUOUS
 10
2.294181
 20
-3.679425
  0
VERTEX
  8
PLAN_1
  6
CONTINUOUS
 10
2.291264
 20
-3.681858
  0
VERTEX
  8
PLAN_1
  6
CONTINUOUS
 10
2.288346
 20
-3.684776
  0
VERTEX
  8
PLAN_1
  6
CONTINUOUS
 10
2.285913
 20
-3.688181
  0
VERTEX
  8
PLAN_1
  6
CONTINUOUS
 10
2.283969
 20
-3.692071
  0
VERTEX
  8
PLAN_1
  6
CONTINUOUS
 10
2.282512
 20
-3.695961
  0
VERTEX
  8
PLAN_1
  6
CONTINUOUS
 10
2.281539
 20
-3.700823
  0
VERTEX
  8
PLAN_1
  6
CONTINUOUS
 10
2.281051
 20
-3.706173
  0
VERTEX
  8
PLAN_1
  6
CONTINUOUS
 10
2.281539
 20
-3.709575
  0
VERTEX
  8
PLAN_1
  6
CONTINUOUS
 10
2.282024
 20
-3.712008
  0
VERTEX
  8
PLAN_1
  6
CONTINUOUS
 10
2.282512
 20
-3.714925
  0
VERTEX
  8
PLAN_1
  6
CONTINUOUS
 10
2.283484
 20
-3.716870
  0
VERTEX
  8
PLAN_1
  6
CONTINUOUS
 10
2.284457
 20
-3.719303
  0
VERTEX
  8
PLAN_1
  6
CONTINUOUS
 10
2.285429
 20
-3.721248
  0
VERTEX
  8
PLAN_1
  6
CONTINUOUS
 10
2.286886
 20
-3.722705
  0
VERTEX
  8
PLAN_1
  6
CONTINUOUS
 10
2.288835
 20
-3.724165
  0
VERTEX
  8
PLAN_1
  6
CONTINUOUS
 10
2.292236
 20
-3.726594
  0
VERTEX
  8
PLAN_1
  6
CONTINUOUS
 10
2.296126
 20
-3.729028
  0
VERTEX
  8
PLAN_1
  6
CONTINUOUS
 10
2.300504
 20
-3.730488
  0
VERTEX
  8
PLAN_1
  6
CONTINUOUS
 10
2.304882
 20
-3.731461
  0
VERTEX
  8
PLAN_1
  6
CONTINUOUS
 10
2.361776
 20
-3.744591
  0
VERTEX
  8
PLAN_1
  6
CONTINUOUS
 10
2.366638
 20
-3.746047
  0
VERTEX
  8
PLAN_1
  6
CONTINUOUS
 10
2.371016
 20
-3.747508
  0
VERTEX
  8
PLAN_1
  6
CONTINUOUS
 10
2.375390
 20
-3.748965
  0
VERTEX
  8
PLAN_1
  6
CONTINUOUS
 10
2.379768
 20
-3.750909
  0
VERTEX
  8
PLAN_1
  6
CONTINUOUS
 10
2.383657
 20
-3.753343
  0
VERTEX
  8
PLAN_1
  6
CONTINUOUS
 10
2.387547
 20
-3.755772
  0
VERTEX
  8
PLAN_1
  6
CONTINUOUS
 10
2.390953
 20
-3.758693
  0
VERTEX
  8
PLAN_1
  6
CONTINUOUS
 10
2.393870
 20
-3.761610
  0
VERTEX
  8
PLAN_1
  6
CONTINUOUS
 10
2.396787
 20
-3.765012
  0
VERTEX
  8
PLAN_1
  6
CONTINUOUS
 10
2.399705
 20
-3.768902
  0
VERTEX
  8
PLAN_1
  6
CONTINUOUS
 10
2.401650
 20
-3.772795
  0
VERTEX
  8
PLAN_1
  6
CONTINUOUS
 10
2.403594
 20
-3.777169
  0
VERTEX
  8
PLAN_1
  6
CONTINUOUS
 10
2.405055
 20
-3.781547
  0
VERTEX
  8
PLAN_1
  6
CONTINUOUS
 10
2.406028
 20
-3.786898
  0
VERTEX
  8
PLAN_1
  6
CONTINUOUS
 10
2.407000
 20
-3.792244
  0
VERTEX
  8
PLAN_1
  6
CONTINUOUS
 10
2.407000
 20
-3.798079
  0
VERTEX
  8
PLAN_1
  6
CONTINUOUS
 10
2.407000
 20
-3.802457
  0
VERTEX
  8
PLAN_1
  6
CONTINUOUS
 10
2.406512
 20
-3.806346
  0
VERTEX
  8
PLAN_1
  6
CONTINUOUS
 10
2.406028
 20
-3.810236
  0
VERTEX
  8
PLAN_1
  6
CONTINUOUS
 10
2.405055
 20
-3.814126
  0
VERTEX
  8
PLAN_1
  6
CONTINUOUS
 10
2.404083
 20
-3.817531
  0
VERTEX
  8
PLAN_1
  6
CONTINUOUS
 10
2.402622
 20
-3.820937
  0
VERTEX
  8
PLAN_1
  6
CONTINUOUS
 10
2.401165
 20
-3.824339
  0
VERTEX
  8
PLAN_1
  6
CONTINUOUS
 10
2.399705
 20
-3.827256
  0
VERTEX
  8
PLAN_1
  6
CONTINUOUS
 10
2.395815
 20
-3.832606
  0
VERTEX
  8
PLAN_1
  6
CONTINUOUS
 10
2.391437
 20
-3.837469
  0
VERTEX
  8
PLAN_1
  6
CONTINUOUS
 10
2.386091
 20
-3.841846
  0
VERTEX
  8
PLAN_1
  6
CONTINUOUS
 10
2.380740
 20
-3.845736
  0
VERTEX
  8
PLAN_1
  6
CONTINUOUS
 10
2.374906
 20
-3.848654
  0
VERTEX
  8
PLAN_1
  6
CONTINUOUS
 10
2.368583
 20
-3.851571
  0
VERTEX
  8
PLAN_1
  6
CONTINUOUS
 10
2.362260
 20
-3.853516
  0
VERTEX
  8
PLAN_1
  6
CONTINUOUS
 10
2.355453
 20
-3.855461
  0
VERTEX
  8
PLAN_1
  6
CONTINUOUS
 10
2.348646
 20
-3.856433
  0
VERTEX
  8
PLAN_1
  6
CONTINUOUS
 10
2.342323
 20
-3.857406
  0
VERTEX
  8
PLAN_1
  6
CONTINUOUS
 10
2.335516
 20
-3.857894
  0
VERTEX
  8
PLAN_1
  6
CONTINUOUS
 10
2.329193
 20
-3.858378
  0
VERTEX
  8
PLAN_1
  6
CONTINUOUS
 10
2.322386
 20
-3.857894
  0
VERTEX
  8
PLAN_1
  6
CONTINUOUS
 10
2.316063
 20
-3.857406
  0
VERTEX
  8
PLAN_1
  6
CONTINUOUS
 10
2.310717
 20
-3.856921
  0
VERTEX
  8
PLAN_1
  6
CONTINUOUS
 10
2.305366
 20
-3.856433
  0
VERTEX
  8
PLAN_1
  6
CONTINUOUS
 10
2.296126
 20
-3.854004
  0
VERTEX
  8
PLAN_1
  6
CONTINUOUS
 10
2.288346
 20
-3.851571
  0
VERTEX
  8
PLAN_1
  6
CONTINUOUS
 10
2.282024
 20
-3.848654
  0
VERTEX
  8
PLAN_1
  6
CONTINUOUS
 10
2.276677
 20
-3.845248
  0
VERTEX
  8
PLAN_1
  6
CONTINUOUS
 10
2.272299
 20
-3.842331
  0
VERTEX
  8
PLAN_1
  6
CONTINUOUS
 10
2.268894
 20
-3.838929
  0
VERTEX
  8
PLAN_1
  6
CONTINUOUS
 10
2.263059
 20
-3.833094
  0
VERTEX
  8
PLAN_1
  6
CONTINUOUS
 10
2.258685
 20
-3.827256
  0
VERTEX
  8
PLAN_1
  6
CONTINUOUS
 10
2.254791
 20
-3.821421
  0
VERTEX
  8
PLAN_1
  6
CONTINUOUS
 10
2.252362
 20
-3.815098
  0
VERTEX
  8
PLAN_1
  6
CONTINUOUS
 10
2.250417
 20
-3.808780
  0
VERTEX
  8
PLAN_1
  6
CONTINUOUS
 10
2.249445
 20
-3.801972
  0
VERTEX
  8
PLAN_1
  6
CONTINUOUS
 10
2.248472
 20
-3.795161
  0
VERTEX
  8
PLAN_1
  6
CONTINUOUS
 10
2.248472
 20
-3.788354
  0
VERTEX
  8
PLAN_1
  6
CONTINUOUS
 10
2.273760
 20
-3.788354
  0
VERTEX
  8
PLAN_1
  6
CONTINUOUS
 10
2.274244
 20
-3.795161
  0
VERTEX
  8
PLAN_1
  6
CONTINUOUS
 10
2.275217
 20
-3.800996
  0
VERTEX
  8
PLAN_1
  6
CONTINUOUS
 10
2.276677
 20
-3.806346
  0
VERTEX
  8
PLAN_1
  6
CONTINUOUS
 10
2.278622
 20
-3.811209
  0
VERTEX
  8
PLAN_1
  6
CONTINUOUS
 10
2.281539
 20
-3.815098
  0
VERTEX
  8
PLAN_1
  6
CONTINUOUS
 10
2.284457
 20
-3.818992
  0
VERTEX
  8
PLAN_1
  6
CONTINUOUS
 10
2.287858
 20
-3.822394
  0
VERTEX
  8
PLAN_1
  6
CONTINUOUS
 10
2.291752
 20
-3.825311
  0
VERTEX
  8
PLAN_1
  6
CONTINUOUS
 10
2.295642
 20
-3.827744
  0
VERTEX
  8
PLAN_1
  6
CONTINUOUS
 10
2.300016
 20
-3.829689
  0
VERTEX
  8
PLAN_1
  6
CONTINUOUS
 10
2.304882
 20
-3.831634
  0
VERTEX
  8
PLAN_1
  6
CONTINUOUS
 10
2.309256
 20
-3.833094
  0
VERTEX
  8
PLAN_1
  6
CONTINUOUS
 10
2.314118
 20
-3.834067
  0
VERTEX
  8
PLAN_1
  6
CONTINUOUS
 10
2.318984
 20
-3.834551
  0
VERTEX
  8
PLAN_1
  6
CONTINUOUS
 10
2.323846
 20
-3.835039
  0
VERTEX
  8
PLAN_1
  6
CONTINUOUS
 10
2.328709
 20
-3.835039
  0
VERTEX
  8
PLAN_1
  6
CONTINUOUS
 10
2.336488
 20
-3.835039
  0
VERTEX
  8
PLAN_1
  6
CONTINUOUS
 10
2.345240
 20
-3.834067
  0
VERTEX
  8
PLAN_1
  6
CONTINUOUS
 10
2.349618
 20
-3.833094
  0
VERTEX
  8
PLAN_1
  6
CONTINUOUS
 10
2.353996
 20
-3.832122
  0
VERTEX
  8
PLAN_1
  6
CONTINUOUS
 10
2.357886
 20
-3.830661
  0
VERTEX
  8
PLAN_1
  6
CONTINUOUS
 10
2.362260
 20
-3.829201
  0
VERTEX
  8
PLAN_1
  6
CONTINUOUS
 10
2.366154
 20
-3.827256
  0
VERTEX
  8
PLAN_1
  6
CONTINUOUS
 10
2.369555
 20
-3.824827
  0
VERTEX
  8
PLAN_1
  6
CONTINUOUS
 10
2.372472
 20
-3.821909
  0
VERTEX
  8
PLAN_1
  6
CONTINUOUS
 10
2.375390
 20
-3.818992
  0
VERTEX
  8
PLAN_1
  6
CONTINUOUS
 10
2.377823
 20
-3.815098
  0
VERTEX
  8
PLAN_1
  6
CONTINUOUS
 10
2.379283
 20
-3.811209
  0
VERTEX
  8
PLAN_1
  6
CONTINUOUS
 10
2.380740
 20
-3.806835
  0
VERTEX
  8
PLAN_1
  6
CONTINUOUS
 10
2.380740
 20
-3.801484
  0
VERTEX
  8
PLAN_1
  6
CONTINUOUS
 10
2.380740
 20
-3.797594
  0
VERTEX
  8
PLAN_1
  6
CONTINUOUS
 10
2.380256
 20
-3.794189
  0
VERTEX
  8
PLAN_1
  6
CONTINUOUS
 10
2.379768
 20
-3.791272
  0
VERTEX
  8
PLAN_1
  6
CONTINUOUS
 10
2.378795
 20
-3.788354
  0
VERTEX
  8
PLAN_1
  6
CONTINUOUS
 10
2.377823
 20
-3.785921
  0
VERTEX
  8
PLAN_1
  6
CONTINUOUS
 10
2.375878
 20
-3.783492
  0
VERTEX
  8
PLAN_1
  6
CONTINUOUS
 10
2.374417
 20
-3.781059
  0
VERTEX
  8
PLAN_1
  6
CONTINUOUS
 10
2.371988
 20
-3.779114
  0
VERTEX
  8
PLAN_1
  6
CONTINUOUS
 10
2.369071
 20
-3.777169
  0
VERTEX
  8
PLAN_1
  6
CONTINUOUS
 10
2.366154
 20
-3.775224
  0
VERTEX
  8
PLAN_1
  6
CONTINUOUS
 10
2.362748
 20
-3.773768
  0
VERTEX
  8
PLAN_1
  6
CONTINUOUS
 10
2.358858
 20
-3.772307
  0
VERTEX
  8
PLAN_1
  6
CONTINUOUS
 10
2.349618
 20
-3.769390
  0
VERTEX
  8
PLAN_1
  6
CONTINUOUS
 10
2.338433
 20
-3.766472
  0
VERTEX
  8
PLAN_1
  6
CONTINUOUS
 10
2.297587
 20
-3.756748
  0
VERTEX
  8
PLAN_1
  6
CONTINUOUS
 10
2.292236
 20
-3.755287
  0
VERTEX
  8
PLAN_1
  6
CONTINUOUS
 10
2.285429
 20
-3.752854
  0
VERTEX
  8
PLAN_1
  6
CONTINUOUS
 10
2.282024
 20
-3.751398
  0
VERTEX
  8
PLAN_1
  6
CONTINUOUS
 10
2.278622
 20
-3.749937
  0
VERTEX
  8
PLAN_1
  6
CONTINUOUS
 10
2.274732
 20
-3.747508
  0
VERTEX
  8
PLAN_1
  6
CONTINUOUS
 10
2.271327
 20
-3.745075
  0
VERTEX
  8
PLAN_1
  6
CONTINUOUS
 10
2.268409
 20
-3.742646
  0
VERTEX
  8
PLAN_1
  6
CONTINUOUS
 10
2.265004
 20
-3.739240
  0
VERTEX
  8
PLAN_1
  6
CONTINUOUS
 10
2.262575
 20
-3.735350
  0
VERTEX
  8
PLAN_1
  6
CONTINUOUS
 10
2.260142
 20
-3.731461
  0
VERTEX
  8
PLAN_1
  6
CONTINUOUS
 10
2.258197
 20
-3.727083
  0
VERTEX
  8
PLAN_1
  6
CONTINUOUS
 10
2.256252
 20
-3.721732
  0
VERTEX
  8
PLAN_1
  6
CONTINUOUS
 10
2.255280
 20
-3.715898
  0
VERTEX
  8
PLAN_1
  6
CONTINUOUS
 10
2.255280
 20
-3.710063
  0
VERTEX
  8
PLAN_1
  6
CONTINUOUS
 10
2.255280
 20
-3.704228
  0
VERTEX
  8
PLAN_1
  6
CONTINUOUS
 10
2.256252
 20
-3.698394
  0
VERTEX
  8
PLAN_1
  6
CONTINUOUS
 10
2.257224
 20
-3.692555
  0
VERTEX
  8
PLAN_1
  6
CONTINUOUS
 10
2.259169
 20
-3.687209
  0
VERTEX
  8
PLAN_1
  6
CONTINUOUS
 10
2.261114
 20
-3.681858
  0
VERTEX
  8
PLAN_1
  6
CONTINUOUS
 10
2.264031
 20
-3.676996
  0
VERTEX
  8
PLAN_1
  6
CONTINUOUS
 10
2.267437
 20
-3.672134
  0
VERTEX
  8
PLAN_1
  6
CONTINUOUS
 10
2.271327
 20
-3.667268
  0
VERTEX
  8
PLAN_1
  6
CONTINUOUS
 10
2.275705
 20
-3.663378
  0
VERTEX
  8
PLAN_1
  6
CONTINUOUS
 10
2.281051
 20
-3.659488
  0
VERTEX
  8
PLAN_1
  6
CONTINUOUS
 10
2.286402
 20
-3.656571
  0
VERTEX
  8
PLAN_1
  6
CONTINUOUS
 10
2.292724
 20
-3.653654
  0
VERTEX
  8
PLAN_1
  6
CONTINUOUS
 10
2.299531
 20
-3.651220
  0
VERTEX
  8
PLAN_1
  6
CONTINUOUS
 10
2.306827
 20
-3.649764
  0
VERTEX
  8
PLAN_1
  6
CONTINUOUS
 10
2.315091
 20
-3.648791
  0
VERTEX
  8
PLAN_1
  6
CONTINUOUS
 10
2.323846
 20
-3.648303
  0
VERTEX
  8
PLAN_1
  6
CONTINUOUS
 10
2.330165
 20
-3.648303
  0
VERTEX
  8
PLAN_1
  6
CONTINUOUS
 10
2.336004
 20
-3.648791
  0
VERTEX
  8
PLAN_1
  6
CONTINUOUS
 10
2.341839
 20
-3.649276
  0
VERTEX
  8
PLAN_1
  6
CONTINUOUS
 10
2.347185
 20
-3.650248
  0
VERTEX
  8
PLAN_1
  6
CONTINUOUS
 10
2.352051
 20
-3.651220
  0
VERTEX
  8
PLAN_1
  6
CONTINUOUS
 10
2.356913
 20
-3.652193
  0
VERTEX
  8
PLAN_1
  6
CONTINUOUS
 10
2.360803
 20
-3.653654
  0
VERTEX
  8
PLAN_1
  6
CONTINUOUS
 10
2.365181
 20
-3.655114
  0
VERTEX
  8
PLAN_1
  6
CONTINUOUS
 10
2.372472
 20
-3.658516
  0
VERTEX
  8
PLAN_1
  6
CONTINUOUS
 10
2.378795
 20
-3.662406
  0
VERTEX
  8
PLAN_1
  6
CONTINUOUS
 10
2.384146
 20
-3.667268
  0
VERTEX
  8
PLAN_1
  6
CONTINUOUS
 10
2.388520
 20
-3.671646
  0
VERTEX
  8
PLAN_1
  6
CONTINUOUS
 10
2.391925
 20
-3.676996
  0
VERTEX
  8
PLAN_1
  6
CONTINUOUS
 10
2.394843
 20
-3.682346
  0
VERTEX
  8
PLAN_1
  6
CONTINUOUS
 10
2.396787
 20
-3.687209
  0
VERTEX
  8
PLAN_1
  6
CONTINUOUS
 10
2.398732
 20
-3.692555
  0
VERTEX
  8
PLAN_1
  6
CONTINUOUS
 10
2.399705
 20
-3.697906
  0
VERTEX
  8
PLAN_1
  6
CONTINUOUS
 10
2.400677
 20
-3.702768
  0
VERTEX
  8
PLAN_1
  6
CONTINUOUS
 10
2.401165
 20
-3.707630
  0
VERTEX
  8
PLAN_1
  6
CONTINUOUS
 10
2.401650
 20
-3.712008
  0
VERTEX
  8
PLAN_1
  6
CONTINUOUS
 10
2.376362
 20
-3.712008
  0
SEQEND
  8
0
  0
POLYLINE
  8
PLAN_1
  6
CONTINUOUS
 66
     1
 40
0.008264
 41
0.008264
  0
VERTEX
  8
PLAN_1
  6
CONTINUOUS
 10
0.472071
 20
0.513319
  0
VERTEX
  8
PLAN_1
  6
CONTINUOUS
 10
0.472071
 20
1.886102
  0
VERTEX
  8
PLAN_1
  6
CONTINUOUS
 10
-1.085984
 20
1.886102
  0
VERTEX
  8
PLAN_1
  6
CONTINUOUS
 10
-1.085984
 20
0.513319
  0
VERTEX
  8
PLAN_1
  6
CONTINUOUS
 10
0.472071
 20
0.513319
  0
SEQEND
  8
0
  0
POLYLINE
  8
PLAN_1
  6
CONTINUOUS
 66
     1
 40
0.008264
 41
0.008264
  0
VERTEX
  8
PLAN_1
  6
CONTINUOUS
 10
-0.222343
 20
-0.221457
  0
VERTEX
  8
PLAN_1
  6
CONTINUOUS
 10
-0.222343
 20
-0.085295
  0
VERTEX
  8
PLAN_1
  6
CONTINUOUS
 10
-0.386220
 20
-0.085295
  0
VERTEX
  8
PLAN_1
  6
CONTINUOUS
 10
-0.386220
 20
-0.221457
  0
VERTEX
  8
PLAN_1
  6
CONTINUOUS
 10
-0.222343
 20
-0.221457
  0
SEQEND
  8
0
  0
POLYLINE
  8
PLAN_1
  6
CONTINUOUS
 66
     1
 40
0.008264
 41
0.008264
  0
VERTEX
  8
PLAN_1
  6
CONTINUOUS
 10
0.345154
 20
0.483657
  0
VERTEX
  8
PLAN_1
  6
CONTINUOUS
 10
0.345154
 20
0.507972
  0
VERTEX
  8
PLAN_1
  6
CONTINUOUS
 10
-0.934264
 20
0.507972
  0
VERTEX
  8
PLAN_1
  6
CONTINUOUS
 10
-0.934264
 20
0.483657
  0
VERTEX
  8
PLAN_1
  6
CONTINUOUS
 10
0.345154
 20
0.483657
  0
SEQEND
  8
0
  0
POLYLINE
  8
PLAN_1
  6
CONTINUOUS
 66
     1
 40
0.008264
 41
0.008264
  0
VERTEX
  8
PLAN_1
  6
CONTINUOUS
 10
0.024689
 20
-0.085295
  0
VERTEX
  8
PLAN_1
  6
CONTINUOUS
 10
0.024689
 20
0.483657
  0
VERTEX
  8
PLAN_1
  6
CONTINUOUS
 10
-0.641031
 20
0.483657
  0
VERTEX
  8
PLAN_1
  6
CONTINUOUS
 10
-0.641031
 20
-0.085295
  0
VERTEX
  8
PLAN_1
  6
CONTINUOUS
 10
0.024689
 20
-0.085295
  0
SEQEND
  8
0
  0
POLYLINE
  8
PLAN_1
 62
     5
  6
CONTINUOUS
 66
     1
 40
0.003000
 41
0.003000
  0
VERTEX
  8
PLAN_1
 62
     5
  6
CONTINUOUS
 10
-1.284874
 20
-0.322118
  0
VERTEX
  8
PLAN_1
 62
     5
  6
CONTINUOUS
 10
-1.284874
 20
-0.313362
  0
SEQEND
  8
0
  0
POLYLINE
  8
PLAN_1
 62
     5
  6
CONTINUOUS
 66
     1
 40
0.003000
 41
0.003000
  0
VERTEX
  8
PLAN_1
 62
     5
  6
CONTINUOUS
 10
-1.284874
 20
-0.305098
  0
VERTEX
  8
PLAN_1
 62
     5
  6
CONTINUOUS
 10
-1.284874
 20
-0.296831
  0
SEQEND
  8
0
  0
POLYLINE
  8
PLAN_1
 62
     5
  6
CONTINUOUS
 66
     1
 40
0.003000
 41
0.003000
  0
VERTEX
  8
PLAN_1
 62
     5
  6
CONTINUOUS
 10
-1.284874
 20
-0.288563
  0
VERTEX
  8
PLAN_1
 62
     5
  6
CONTINUOUS
 10
-1.284874
 20
-0.280295
  0
SEQEND
  8
0
  0
POLYLINE
  8
PLAN_1
 62
     5
  6
CONTINUOUS
 66
     1
 40
0.003000
 41
0.003000
  0
VERTEX
  8
PLAN_1
 62
     5
  6
CONTINUOUS
 10
-1.284874
 20
-0.272028
  0
VERTEX
  8
PLAN_1
 62
     5
  6
CONTINUOUS
 10
-1.284874
 20
-0.263764
  0
SEQEND
  8
0
  0
POLYLINE
  8
PLAN_1
 62
     5
  6
CONTINUOUS
 66
     1
 40
0.003000
 41
0.003000
  0
VERTEX
  8
PLAN_1
 62
     5
  6
CONTINUOUS
 10
-1.284874
 20
-0.255008
  0
VERTEX
  8
PLAN_1
 62
     5
  6
CONTINUOUS
 10
-1.284874
 20
-0.246744
  0
SEQEND
  8
0
  0
POLYLINE
  8
PLAN_1
 62
     5
  6
CONTINUOUS
 66
     1
 40
0.003000
 41
0.003000
  0
VERTEX
  8
PLAN_1
 62
     5
  6
CONTINUOUS
 10
-1.284874
 20
-0.238476
  0
VERTEX
  8
PLAN_1
 62
     5
  6
CONTINUOUS
 10
-1.284874
 20
-0.230209
  0
SEQEND
  8
0
  0
POLYLINE
  8
PLAN_1
 62
     5
  6
CONTINUOUS
 66
     1
 40
0.003000
 41
0.003000
  0
VERTEX
  8
PLAN_1
 62
     5
  6
CONTINUOUS
 10
-1.284874
 20
-0.221941
  0
VERTEX
  8
PLAN_1
 62
     5
  6
CONTINUOUS
 10
-1.284874
 20
-0.213673
  0
SEQEND
  8
0
  0
POLYLINE
  8
PLAN_1
 62
     5
  6
CONTINUOUS
 66
     1
 40
0.003000
 41
0.003000
  0
VERTEX
  8
PLAN_1
 62
     5
  6
CONTINUOUS
 10
-1.284874
 20
-0.205409
  0
VERTEX
  8
PLAN_1
 62
     5
  6
CONTINUOUS
 10
-1.284874
 20
-0.197142
  0
SEQEND
  8
0
  0
POLYLINE
  8
PLAN_1
 62
     5
  6
CONTINUOUS
 66
     1
 40
0.003000
 41
0.003000
  0
VERTEX
  8
PLAN_1
 62
     5
  6
CONTINUOUS
 10
-1.284874
 20
-0.188390
  0
VERTEX
  8
PLAN_1
 62
     5
  6
CONTINUOUS
 10
-1.284874
 20
-0.180122
  0
SEQEND
  8
0
  0
POLYLINE
  8
PLAN_1
 62
     5
  6
CONTINUOUS
 66
     1
 40
0.003000
 41
0.003000
  0
VERTEX
  8
PLAN_1
 62
     5
  6
CONTINUOUS
 10
-1.284874
 20
-0.171854
  0
VERTEX
  8
PLAN_1
 62
     5
  6
CONTINUOUS
 10
-1.284874
 20
-0.163587
  0
SEQEND
  8
0
  0
POLYLINE
  8
PLAN_1
 62
     5
  6
CONTINUOUS
 66
     1
 40
0.003000
 41
0.003000
  0
VERTEX
  8
PLAN_1
 62
     5
  6
CONTINUOUS
 10
-1.284874
 20
-0.155323
  0
VERTEX
  8
PLAN_1
 62
     5
  6
CONTINUOUS
 10
-1.284874
 20
-0.147055
  0
SEQEND
  8
0
  0
POLYLINE
  8
PLAN_1
 62
     5
  6
CONTINUOUS
 66
     1
 40
0.003000
 41
0.003000
  0
VERTEX
  8
PLAN_1
 62
     5
  6
CONTINUOUS
 10
-1.284874
 20
-0.138787
  0
VERTEX
  8
PLAN_1
 62
     5
  6
CONTINUOUS
 10
-1.284874
 20
-0.130520
  0
SEQEND
  8
0
  0
POLYLINE
  8
PLAN_1
 62
     5
  6
CONTINUOUS
 66
     1
 40
0.003000
 41
0.003000
  0
VERTEX
  8
PLAN_1
 62
     5
  6
CONTINUOUS
 10
-1.284874
 20
-0.121768
  0
VERTEX
  8
PLAN_1
 62
     5
  6
CONTINUOUS
 10
-1.284874
 20
-0.113500
  0
SEQEND
  8
0
  0
POLYLINE
  8
PLAN_1
 62
     5
  6
CONTINUOUS
 66
     1
 40
0.003000
 41
0.003000
  0
VERTEX
  8
PLAN_1
 62
     5
  6
CONTINUOUS
 10
-1.284874
 20
-0.105232
  0
VERTEX
  8
PLAN_1
 62
     5
  6
CONTINUOUS
 10
-1.284874
 20
-0.096969
  0
SEQEND
  8
0
  0
POLYLINE
  8
PLAN_1
 62
     5
  6
CONTINUOUS
 66
     1
 40
0.003000
 41
0.003000
  0
VERTEX
  8
PLAN_1
 62
     5
  6
CONTINUOUS
 10
-1.284874
 20
-0.088701
  0
VERTEX
  8
PLAN_1
 62
     5
  6
CONTINUOUS
 10
-1.284874
 20
-0.080433
  0
SEQEND
  8
0
  0
POLYLINE
  8
PLAN_1
 62
     5
  6
CONTINUOUS
 66
     1
 40
0.003000
 41
0.003000
  0
VERTEX
  8
PLAN_1
 62
     5
  6
CONTINUOUS
 10
-1.284874
 20
-0.072165
  0
VERTEX
  8
PLAN_1
 62
     5
  6
CONTINUOUS
 10
-1.284874
 20
-0.063898
  0
SEQEND
  8
0
  0
POLYLINE
  8
PLAN_1
 62
     5
  6
CONTINUOUS
 66
     1
 40
0.003000
 41
0.003000
  0
VERTEX
  8
PLAN_1
 62
     5
  6
CONTINUOUS
 10
-1.284874
 20
-0.055146
  0
VERTEX
  8
PLAN_1
 62
     5
  6
CONTINUOUS
 10
-1.284874
 20
-0.046878
  0
SEQEND
  8
0
  0
POLYLINE
  8
PLAN_1
 62
     5
  6
CONTINUOUS
 66
     1
 40
0.003000
 41
0.003000
  0
VERTEX
  8
PLAN_1
 62
     5
  6
CONTINUOUS
 10
-1.284874
 20
-0.038614
  0
VERTEX
  8
PLAN_1
 62
     5
  6
CONTINUOUS
 10
-1.284874
 20
-0.030346
  0
SEQEND
  8
0
  0
POLYLINE
  8
PLAN_1
 62
     5
  6
CONTINUOUS
 66
     1
 40
0.003000
 41
0.003000
  0
VERTEX
  8
PLAN_1
 62
     5
  6
CONTINUOUS
 10
-1.284874
 20
-0.022079
  0
VERTEX
  8
PLAN_1
 62
     5
  6
CONTINUOUS
 10
-1.284874
 20
-0.013811
  0
SEQEND
  8
0
  0
POLYLINE
  8
PLAN_1
 62
     5
  6
CONTINUOUS
 66
     1
 40
0.003000
 41
0.003000
  0
VERTEX
  8
PLAN_1
 62
     5
  6
CONTINUOUS
 10
-1.284874
 20
-0.005543
  0
VERTEX
  8
PLAN_1
 62
     5
  6
CONTINUOUS
 10
-1.284874
 20
0.002720
  0
SEQEND
  8
0
  0
POLYLINE
  8
PLAN_1
 62
     5
  6
CONTINUOUS
 66
     1
 40
0.003000
 41
0.003000
  0
VERTEX
  8
PLAN_1
 62
     5
  6
CONTINUOUS
 10
-1.284874
 20
0.011476
  0
VERTEX
  8
PLAN_1
 62
     5
  6
CONTINUOUS
 10
-1.284874
 20
0.019740
  0
SEQEND
  8
0
  0
POLYLINE
  8
PLAN_1
 62
     5
  6
CONTINUOUS
 66
     1
 40
0.003000
 41
0.003000
  0
VERTEX
  8
PLAN_1
 62
     5
  6
CONTINUOUS
 10
-1.284874
 20
0.028008
  0
VERTEX
  8
PLAN_1
 62
     5
  6
CONTINUOUS
 10
-1.284874
 20
0.036276
  0
SEQEND
  8
0
  0
POLYLINE
  8
PLAN_1
 62
     5
  6
CONTINUOUS
 66
     1
 40
0.003000
 41
0.003000
  0
VERTEX
  8
PLAN_1
 62
     5
  6
CONTINUOUS
 10
-1.284874
 20
0.044543
  0
VERTEX
  8
PLAN_1
 62
     5
  6
CONTINUOUS
 10
-1.284874
 20
0.052807
  0
SEQEND
  8
0
  0
POLYLINE
  8
PLAN_1
 62
     5
  6
CONTINUOUS
 66
     1
 40
0.003000
 41
0.003000
  0
VERTEX
  8
PLAN_1
 62
     5
  6
CONTINUOUS
 10
-1.284874
 20
0.061075
  0
VERTEX
  8
PLAN_1
 62
     5
  6
CONTINUOUS
 10
-1.284874
 20
0.069343
  0
SEQEND
  8
0
  0
POLYLINE
  8
PLAN_1
 62
     5
  6
CONTINUOUS
 66
     1
 40
0.003000
 41
0.003000
  0
VERTEX
  8
PLAN_1
 62
     5
  6
CONTINUOUS
 10
-1.284874
 20
0.078094
  0
VERTEX
  8
PLAN_1
 62
     5
  6
CONTINUOUS
 10
-1.284874
 20
0.086362
  0
SEQEND
  8
0
  0
POLYLINE
  8
PLAN_1
 62
     5
  6
CONTINUOUS
 66
     1
 40
0.003000
 41
0.003000
  0
VERTEX
  8
PLAN_1
 62
     5
  6
CONTINUOUS
 10
-1.284874
 20
0.094630
  0
VERTEX
  8
PLAN_1
 62
     5
  6
CONTINUOUS
 10
-1.284874
 20
0.102898
  0
SEQEND
  8
0
  0
POLYLINE
  8
PLAN_1
 62
     5
  6
CONTINUOUS
 66
     1
 40
0.003000
 41
0.003000
  0
VERTEX
  8
PLAN_1
 62
     5
  6
CONTINUOUS
 10
-1.284874
 20
0.111161
  0
VERTEX
  8
PLAN_1
 62
     5
  6
CONTINUOUS
 10
-1.284874
 20
0.119429
  0
SEQEND
  8
0
  0
POLYLINE
  8
PLAN_1
 62
     5
  6
CONTINUOUS
 66
     1
 40
0.003000
 41
0.003000
  0
VERTEX
  8
PLAN_1
 62
     5
  6
CONTINUOUS
 10
-1.284874
 20
0.127697
  0
VERTEX
  8
PLAN_1
 62
     5
  6
CONTINUOUS
 10
-1.284874
 20
0.135965
  0
SEQEND
  8
0
  0
POLYLINE
  8
PLAN_1
 62
     5
  6
CONTINUOUS
 66
     1
 40
0.003000
 41
0.003000
  0
VERTEX
  8
PLAN_1
 62
     5
  6
CONTINUOUS
 10
-1.284874
 20
0.144717
  0
VERTEX
  8
PLAN_1
 62
     5
  6
CONTINUOUS
 10
-1.284874
 20
0.152984
  0
SEQEND
  8
0
  0
POLYLINE
  8
PLAN_1
 62
     5
  6
CONTINUOUS
 66
     1
 40
0.003000
 41
0.003000
  0
VERTEX
  8
PLAN_1
 62
     5
  6
CONTINUOUS
 10
-1.284874
 20
0.161252
  0
VERTEX
  8
PLAN_1
 62
     5
  6
CONTINUOUS
 10
-1.284874
 20
0.169516
  0
SEQEND
  8
0
  0
POLYLINE
  8
PLAN_1
 62
     5
  6
CONTINUOUS
 66
     1
 40
0.003000
 41
0.003000
  0
VERTEX
  8
PLAN_1
 62
     5
  6
CONTINUOUS
 10
-1.284874
 20
0.177783
  0
VERTEX
  8
PLAN_1
 62
     5
  6
CONTINUOUS
 10
-1.284874
 20
0.186051
  0
SEQEND
  8
0
  0
POLYLINE
  8
PLAN_1
 62
     5
  6
CONTINUOUS
 66
     1
 40
0.003000
 41
0.003000
  0
VERTEX
  8
PLAN_1
 62
     5
  6
CONTINUOUS
 10
-1.284874
 20
0.194319
  0
VERTEX
  8
PLAN_1
 62
     5
  6
CONTINUOUS
 10
-1.284874
 20
0.203071
  0
SEQEND
  8
0
  0
POLYLINE
  8
PLAN_1
 62
     5
  6
CONTINUOUS
 66
     1
 40
0.003000
 41
0.003000
  0
VERTEX
  8
PLAN_1
 62
     5
  6
CONTINUOUS
 10
-1.284874
 20
0.211339
  0
VERTEX
  8
PLAN_1
 62
     5
  6
CONTINUOUS
 10
-1.284874
 20
0.219606
  0
SEQEND
  8
0
  0
POLYLINE
  8
PLAN_1
 62
     5
  6
CONTINUOUS
 66
     1
 40
0.003000
 41
0.003000
  0
VERTEX
  8
PLAN_1
 62
     5
  6
CONTINUOUS
 10
-1.284874
 20
0.227870
  0
VERTEX
  8
PLAN_1
 62
     5
  6
CONTINUOUS
 10
-1.284874
 20
0.236138
  0
SEQEND
  8
0
  0
POLYLINE
  8
PLAN_1
 62
     5
  6
CONTINUOUS
 66
     1
 40
0.003000
 41
0.003000
  0
VERTEX
  8
PLAN_1
 62
     5
  6
CONTINUOUS
 10
-1.284874
 20
0.244406
  0
VERTEX
  8
PLAN_1
 62
     5
  6
CONTINUOUS
 10
-1.284874
 20
0.252673
  0
SEQEND
  8
0
  0
POLYLINE
  8
PLAN_1
 62
     5
  6
CONTINUOUS
 66
     1
 40
0.003000
 41
0.003000
  0
VERTEX
  8
PLAN_1
 62
     5
  6
CONTINUOUS
 10
-1.284874
 20
0.260937
  0
VERTEX
  8
PLAN_1
 62
     5
  6
CONTINUOUS
 10
-1.284874
 20
0.269693
  0
SEQEND
  8
0
  0
POLYLINE
  8
PLAN_1
 62
     5
  6
CONTINUOUS
 66
     1
 40
0.003000
 41
0.003000
  0
VERTEX
  8
PLAN_1
 62
     5
  6
CONTINUOUS
 10
-1.284874
 20
0.277961
  0
VERTEX
  8
PLAN_1
 62
     5
  6
CONTINUOUS
 10
-1.284874
 20
0.286224
  0
SEQEND
  8
0
  0
POLYLINE
  8
PLAN_1
 62
     5
  6
CONTINUOUS
 66
     1
 40
0.003000
 41
0.003000
  0
VERTEX
  8
PLAN_1
 62
     5
  6
CONTINUOUS
 10
-1.284874
 20
0.294492
  0
VERTEX
  8
PLAN_1
 62
     5
  6
CONTINUOUS
 10
-1.284874
 20
0.302760
  0
SEQEND
  8
0
  0
POLYLINE
  8
PLAN_1
 62
     5
  6
CONTINUOUS
 66
     1
 40
0.003000
 41
0.003000
  0
VERTEX
  8
PLAN_1
 62
     5
  6
CONTINUOUS
 10
-1.284874
 20
0.311028
  0
VERTEX
  8
PLAN_1
 62
     5
  6
CONTINUOUS
 10
-1.284874
 20
0.319291
  0
SEQEND
  8
0
  0
POLYLINE
  8
PLAN_1
 62
     5
  6
CONTINUOUS
 66
     1
 40
0.003000
 41
0.003000
  0
VERTEX
  8
PLAN_1
 62
     5
  6
CONTINUOUS
 10
-1.284874
 20
0.327559
  0
VERTEX
  8
PLAN_1
 62
     5
  6
CONTINUOUS
 10
-1.284874
 20
0.336315
  0
SEQEND
  8
0
  0
POLYLINE
  8
PLAN_1
 62
     5
  6
CONTINUOUS
 66
     1
 40
0.003000
 41
0.003000
  0
VERTEX
  8
PLAN_1
 62
     5
  6
CONTINUOUS
 10
-1.284874
 20
0.344579
  0
VERTEX
  8
PLAN_1
 62
     5
  6
CONTINUOUS
 10
-1.284874
 20
0.352846
  0
SEQEND
  8
0
  0
POLYLINE
  8
PLAN_1
 62
     5
  6
CONTINUOUS
 66
     1
 40
0.003000
 41
0.003000
  0
VERTEX
  8
PLAN_1
 62
     5
  6
CONTINUOUS
 10
-1.284874
 20
0.361114
  0
VERTEX
  8
PLAN_1
 62
     5
  6
CONTINUOUS
 10
-1.284874
 20
0.369382
  0
SEQEND
  8
0
  0
POLYLINE
  8
PLAN_1
 62
     5
  6
CONTINUOUS
 66
     1
 40
0.003000
 41
0.003000
  0
VERTEX
  8
PLAN_1
 62
     5
  6
CONTINUOUS
 10
-1.284874
 20
0.377646
  0
VERTEX
  8
PLAN_1
 62
     5
  6
CONTINUOUS
 10
-1.284874
 20
0.385913
  0
SEQEND
  8
0
  0
POLYLINE
  8
PLAN_1
 62
     5
  6
CONTINUOUS
 66
     1
 40
0.003000
 41
0.003000
  0
VERTEX
  8
PLAN_1
 62
     5
  6
CONTINUOUS
 10
-1.284874
 20
0.394181
  0
VERTEX
  8
PLAN_1
 62
     5
  6
CONTINUOUS
 10
-1.284874
 20
0.402933
  0
SEQEND
  8
0
  0
POLYLINE
  8
PLAN_1
 62
     5
  6
CONTINUOUS
 66
     1
 40
0.003000
 41
0.003000
  0
VERTEX
  8
PLAN_1
 62
     5
  6
CONTINUOUS
 10
-1.284874
 20
0.411201
  0
VERTEX
  8
PLAN_1
 62
     5
  6
CONTINUOUS
 10
-1.284874
 20
0.419469
  0
SEQEND
  8
0
  0
POLYLINE
  8
PLAN_1
 62
     5
  6
CONTINUOUS
 66
     1
 40
0.003000
 41
0.003000
  0
VERTEX
  8
PLAN_1
 62
     5
  6
CONTINUOUS
 10
-1.284874
 20
0.427736
  0
VERTEX
  8
PLAN_1
 62
     5
  6
CONTINUOUS
 10
-1.284874
 20
0.436000
  0
SEQEND
  8
0
  0
POLYLINE
  8
PLAN_1
 62
     5
  6
CONTINUOUS
 66
     1
 40
0.003000
 41
0.003000
  0
VERTEX
  8
PLAN_1
 62
     5
  6
CONTINUOUS
 10
-1.284874
 20
0.444268
  0
VERTEX
  8
PLAN_1
 62
     5
  6
CONTINUOUS
 10
-1.284874
 20
0.452535
  0
SEQEND
  8
0
  0
POLYLINE
  8
PLAN_1
 62
     5
  6
CONTINUOUS
 66
     1
 40
0.003000
 41
0.003000
  0
VERTEX
  8
PLAN_1
 62
     5
  6
CONTINUOUS
 10
-1.284874
 20
0.460803
  0
VERTEX
  8
PLAN_1
 62
     5
  6
CONTINUOUS
 10
-1.284874
 20
0.469555
  0
SEQEND
  8
0
  0
POLYLINE
  8
PLAN_1
 62
     5
  6
CONTINUOUS
 66
     1
 40
0.003000
 41
0.003000
  0
VERTEX
  8
PLAN_1
 62
     5
  6
CONTINUOUS
 10
-1.284874
 20
0.477823
  0
VERTEX
  8
PLAN_1
 62
     5
  6
CONTINUOUS
 10
-1.284874
 20
0.486091
  0
SEQEND
  8
0
  0
POLYLINE
  8
PLAN_1
 62
     5
  6
CONTINUOUS
 66
     1
 40
0.003000
 41
0.003000
  0
VERTEX
  8
PLAN_1
 62
     5
  6
CONTINUOUS
 10
-1.284874
 20
0.494354
  0
VERTEX
  8
PLAN_1
 62
     5
  6
CONTINUOUS
 10
-1.284874
 20
0.502622
  0
SEQEND
  8
0
  0
POLYLINE
  8
PLAN_1
 62
     5
  6
CONTINUOUS
 66
     1
 40
0.003000
 41
0.003000
  0
VERTEX
  8
PLAN_1
 62
     5
  6
CONTINUOUS
 10
-1.284874
 20
0.510890
  0
VERTEX
  8
PLAN_1
 62
     5
  6
CONTINUOUS
 10
-1.284874
 20
0.513319
  0
VERTEX
  8
PLAN_1
 62
     5
  6
CONTINUOUS
 10
-1.279039
 20
0.513319
  0
SEQEND
  8
0
  0
POLYLINE
  8
PLAN_1
 62
     5
  6
CONTINUOUS
 66
     1
 40
0.003000
 41
0.003000
  0
VERTEX
  8
PLAN_1
 62
     5
  6
CONTINUOUS
 10
-1.270772
 20
0.513319
  0
VERTEX
  8
PLAN_1
 62
     5
  6
CONTINUOUS
 10
-1.262504
 20
0.513319
  0
SEQEND
  8
0
  0
POLYLINE
  8
PLAN_1
 62
     5
  6
CONTINUOUS
 66
     1
 40
0.003000
 41
0.003000
  0
VERTEX
  8
PLAN_1
 62
     5
  6
CONTINUOUS
 10
-1.253752
 20
0.513319
  0
VERTEX
  8
PLAN_1
 62
     5
  6
CONTINUOUS
 10
-1.245484
 20
0.513319
  0
SEQEND
  8
0
  0
POLYLINE
  8
PLAN_1
 62
     5
  6
CONTINUOUS
 66
     1
 40
0.003000
 41
0.003000
  0
VERTEX
  8
PLAN_1
 62
     5
  6
CONTINUOUS
 10
-1.237217
 20
0.513319
  0
VERTEX
  8
PLAN_1
 62
     5
  6
CONTINUOUS
 10
-1.228953
 20
0.513319
  0
SEQEND
  8
0
  0
POLYLINE
  8
PLAN_1
 62
     5
  6
CONTINUOUS
 66
     1
 40
0.003000
 41
0.003000
  0
VERTEX
  8
PLAN_1
 62
     5
  6
CONTINUOUS
 10
-1.220685
 20
0.513319
  0
VERTEX
  8
PLAN_1
 62
     5
  6
CONTINUOUS
 10
-1.212417
 20
0.513319
  0
SEQEND
  8
0
  0
POLYLINE
  8
PLAN_1
 62
     5
  6
CONTINUOUS
 66
     1
 40
0.003000
 41
0.003000
  0
VERTEX
  8
PLAN_1
 62
     5
  6
CONTINUOUS
 10
-1.204150
 20
0.513319
  0
VERTEX
  8
PLAN_1
 62
     5
  6
CONTINUOUS
 10
-1.195886
 20
0.513319
  0
SEQEND
  8
0
  0
POLYLINE
  8
PLAN_1
 62
     5
  6
CONTINUOUS
 66
     1
 40
0.003000
 41
0.003000
  0
VERTEX
  8
PLAN_1
 62
     5
  6
CONTINUOUS
 10
-1.187130
 20
0.513319
  0
VERTEX
  8
PLAN_1
 62
     5
  6
CONTINUOUS
 10
-1.178862
 20
0.513319
  0
SEQEND
  8
0
  0
POLYLINE
  8
PLAN_1
 62
     5
  6
CONTINUOUS
 66
     1
 40
0.003000
 41
0.003000
  0
VERTEX
  8
PLAN_1
 62
     5
  6
CONTINUOUS
 10
-1.170598
 20
0.513319
  0
VERTEX
  8
PLAN_1
 62
     5
  6
CONTINUOUS
 10
-1.162331
 20
0.513319
  0
SEQEND
  8
0
  0
POLYLINE
  8
PLAN_1
 62
     5
  6
CONTINUOUS
 66
     1
 40
0.003000
 41
0.003000
  0
VERTEX
  8
PLAN_1
 62
     5
  6
CONTINUOUS
 10
-1.154063
 20
0.513319
  0
VERTEX
  8
PLAN_1
 62
     5
  6
CONTINUOUS
 10
-1.145795
 20
0.513319
  0
SEQEND
  8
0
  0
POLYLINE
  8
PLAN_1
 62
     5
  6
CONTINUOUS
 66
     1
 40
0.003000
 41
0.003000
  0
VERTEX
  8
PLAN_1
 62
     5
  6
CONTINUOUS
 10
-1.137531
 20
0.513319
  0
VERTEX
  8
PLAN_1
 62
     5
  6
CONTINUOUS
 10
-1.128776
 20
0.513319
  0
SEQEND
  8
0
  0
POLYLINE
  8
PLAN_1
 62
     5
  6
CONTINUOUS
 66
     1
 40
0.003000
 41
0.003000
  0
VERTEX
  8
PLAN_1
 62
     5
  6
CONTINUOUS
 10
-1.120512
 20
0.513319
  0
VERTEX
  8
PLAN_1
 62
     5
  6
CONTINUOUS
 10
-1.112244
 20
0.513319
  0
SEQEND
  8
0
  0
POLYLINE
  8
PLAN_1
 62
     5
  6
CONTINUOUS
 66
     1
 40
0.003000
 41
0.003000
  0
VERTEX
  8
PLAN_1
 62
     5
  6
CONTINUOUS
 10
-1.103976
 20
0.513319
  0
VERTEX
  8
PLAN_1
 62
     5
  6
CONTINUOUS
 10
-1.095709
 20
0.513319
  0
SEQEND
  8
0
  0
POLYLINE
  8
PLAN_1
 62
     5
  6
CONTINUOUS
 66
     1
 40
0.003000
 41
0.003000
  0
VERTEX
  8
PLAN_1
 62
     5
  6
CONTINUOUS
 10
-1.087441
 20
0.513319
  0
VERTEX
  8
PLAN_1
 62
     5
  6
CONTINUOUS
 10
-1.079177
 20
0.513319
  0
SEQEND
  8
0
  0
POLYLINE
  8
PLAN_1
 62
     5
  6
CONTINUOUS
 66
     1
 40
0.003000
 41
0.003000
  0
VERTEX
  8
PLAN_1
 62
     5
  6
CONTINUOUS
 10
-1.070909
 20
0.513319
  0
VERTEX
  8
PLAN_1
 62
     5
  6
CONTINUOUS
 10
-1.062157
 20
0.513319
  0
SEQEND
  8
0
  0
POLYLINE
  8
PLAN_1
 62
     5
  6
CONTINUOUS
 66
     1
 40
0.003000
 41
0.003000
  0
VERTEX
  8
PLAN_1
 62
     5
  6
CONTINUOUS
 10
-1.053890
 20
0.513319
  0
VERTEX
  8
PLAN_1
 62
     5
  6
CONTINUOUS
 10
-1.045622
 20
0.513319
  0
SEQEND
  8
0
  0
POLYLINE
  8
PLAN_1
 62
     5
  6
CONTINUOUS
 66
     1
 40
0.003000
 41
0.003000
  0
VERTEX
  8
PLAN_1
 62
     5
  6
CONTINUOUS
 10
-1.037354
 20
0.513319
  0
VERTEX
  8
PLAN_1
 62
     5
  6
CONTINUOUS
 10
-1.029087
 20
0.513319
  0
SEQEND
  8
0
  0
POLYLINE
  8
PLAN_1
 62
     5
  6
CONTINUOUS
 66
     1
 40
0.003000
 41
0.003000
  0
VERTEX
  8
PLAN_1
 62
     5
  6
CONTINUOUS
 10
-1.020823
 20
0.513319
  0
VERTEX
  8
PLAN_1
 62
     5
  6
CONTINUOUS
 10
-1.012555
 20
0.513319
  0
SEQEND
  8
0
  0
POLYLINE
  8
PLAN_1
 62
     5
  6
CONTINUOUS
 66
     1
 40
0.003000
 41
0.003000
  0
VERTEX
  8
PLAN_1
 62
     5
  6
CONTINUOUS
 10
-1.004287
 20
0.513319
  0
VERTEX
  8
PLAN_1
 62
     5
  6
CONTINUOUS
 10
-0.995535
 20
0.513319
  0
SEQEND
  8
0
  0
POLYLINE
  8
PLAN_1
 62
     5
  6
CONTINUOUS
 66
     1
 40
0.003000
 41
0.003000
  0
VERTEX
  8
PLAN_1
 62
     5
  6
CONTINUOUS
 10
-0.987268
 20
0.513319
  0
VERTEX
  8
PLAN_1
 62
     5
  6
CONTINUOUS
 10
-0.979000
 20
0.513319
  0
SEQEND
  8
0
  0
POLYLINE
  8
PLAN_1
 62
     5
  6
CONTINUOUS
 66
     1
 40
0.003000
 41
0.003000
  0
VERTEX
  8
PLAN_1
 62
     5
  6
CONTINUOUS
 10
-0.970732
 20
0.513319
  0
VERTEX
  8
PLAN_1
 62
     5
  6
CONTINUOUS
 10
-0.962469
 20
0.513319
  0
SEQEND
  8
0
  0
POLYLINE
  8
PLAN_1
 62
     5
  6
CONTINUOUS
 66
     1
 40
0.003000
 41
0.003000
  0
VERTEX
  8
PLAN_1
 62
     5
  6
CONTINUOUS
 10
-0.954201
 20
0.513319
  0
VERTEX
  8
PLAN_1
 62
     5
  6
CONTINUOUS
 10
-0.945933
 20
0.513319
  0
SEQEND
  8
0
  0
POLYLINE
  8
PLAN_1
 62
     5
  6
CONTINUOUS
 66
     1
 40
0.003000
 41
0.003000
  0
VERTEX
  8
PLAN_1
 62
     5
  6
CONTINUOUS
 10
-0.937665
 20
0.513319
  0
VERTEX
  8
PLAN_1
 62
     5
  6
CONTINUOUS
 10
-0.928913
 20
0.513319
  0
SEQEND
  8
0
  0
POLYLINE
  8
PLAN_1
 62
     5
  6
CONTINUOUS
 66
     1
 40
0.003000
 41
0.003000
  0
VERTEX
  8
PLAN_1
 62
     5
  6
CONTINUOUS
 10
-0.920646
 20
0.513319
  0
VERTEX
  8
PLAN_1
 62
     5
  6
CONTINUOUS
 10
-0.912382
 20
0.513319
  0
SEQEND
  8
0
  0
POLYLINE
  8
PLAN_1
 62
     5
  6
CONTINUOUS
 66
     1
 40
0.003000
 41
0.003000
  0
VERTEX
  8
PLAN_1
 62
     5
  6
CONTINUOUS
 10
-0.904114
 20
0.513319
  0
VERTEX
  8
PLAN_1
 62
     5
  6
CONTINUOUS
 10
-0.895846
 20
0.513319
  0
SEQEND
  8
0
  0
POLYLINE
  8
PLAN_1
 62
     5
  6
CONTINUOUS
 66
     1
 40
0.003000
 41
0.003000
  0
VERTEX
  8
PLAN_1
 62
     5
  6
CONTINUOUS
 10
-0.887579
 20
0.513319
  0
VERTEX
  8
PLAN_1
 62
     5
  6
CONTINUOUS
 10
-0.879311
 20
0.513319
  0
SEQEND
  8
0
  0
POLYLINE
  8
PLAN_1
 62
     5
  6
CONTINUOUS
 66
     1
 40
0.003000
 41
0.003000
  0
VERTEX
  8
PLAN_1
 62
     5
  6
CONTINUOUS
 10
-0.871047
 20
0.513319
  0
VERTEX
  8
PLAN_1
 62
     5
  6
CONTINUOUS
 10
-0.862291
 20
0.513319
  0
SEQEND
  8
0
  0
POLYLINE
  8
PLAN_1
 62
     5
  6
CONTINUOUS
 66
     1
 40
0.003000
 41
0.003000
  0
VERTEX
  8
PLAN_1
 62
     5
  6
CONTINUOUS
 10
-0.854028
 20
0.513319
  0
VERTEX
  8
PLAN_1
 62
     5
  6
CONTINUOUS
 10
-0.845760
 20
0.513319
  0
SEQEND
  8
0
  0
POLYLINE
  8
PLAN_1
 62
     5
  6
CONTINUOUS
 66
     1
 40
0.003000
 41
0.003000
  0
VERTEX
  8
PLAN_1
 62
     5
  6
CONTINUOUS
 10
-0.837492
 20
0.513319
  0
VERTEX
  8
PLAN_1
 62
     5
  6
CONTINUOUS
 10
-0.829224
 20
0.513319
  0
SEQEND
  8
0
  0
POLYLINE
  8
PLAN_1
 62
     5
  6
CONTINUOUS
 66
     1
 40
0.003000
 41
0.003000
  0
VERTEX
  8
PLAN_1
 62
     5
  6
CONTINUOUS
 10
-0.820957
 20
0.513319
  0
VERTEX
  8
PLAN_1
 62
     5
  6
CONTINUOUS
 10
-0.812693
 20
0.513319
  0
SEQEND
  8
0
  0
POLYLINE
  8
PLAN_1
 62
     5
  6
CONTINUOUS
 66
     1
 40
0.003000
 41
0.003000
  0
VERTEX
  8
PLAN_1
 62
     5
  6
CONTINUOUS
 10
-0.804425
 20
0.513319
  0
VERTEX
  8
PLAN_1
 62
     5
  6
CONTINUOUS
 10
-0.795673
 20
0.513319
  0
SEQEND
  8
0
  0
POLYLINE
  8
PLAN_1
 62
     5
  6
CONTINUOUS
 66
     1
 40
0.003000
 41
0.003000
  0
VERTEX
  8
PLAN_1
 62
     5
  6
CONTINUOUS
 10
-0.787406
 20
0.513319
  0
VERTEX
  8
PLAN_1
 62
     5
  6
CONTINUOUS
 10
-0.779138
 20
0.513319
  0
SEQEND
  8
0
  0
POLYLINE
  8
PLAN_1
 62
     5
  6
CONTINUOUS
 66
     1
 40
0.003000
 41
0.003000
  0
VERTEX
  8
PLAN_1
 62
     5
  6
CONTINUOUS
 10
-0.770870
 20
0.513319
  0
VERTEX
  8
PLAN_1
 62
     5
  6
CONTINUOUS
 10
-0.762602
 20
0.513319
  0
SEQEND
  8
0
  0
POLYLINE
  8
PLAN_1
 62
     5
  6
CONTINUOUS
 66
     1
 40
0.003000
 41
0.003000
  0
VERTEX
  8
PLAN_1
 62
     5
  6
CONTINUOUS
 10
-0.754339
 20
0.513319
  0
VERTEX
  8
PLAN_1
 62
     5
  6
CONTINUOUS
 10
-0.746071
 20
0.513319
  0
SEQEND
  8
0
  0
POLYLINE
  8
PLAN_1
 62
     5
  6
CONTINUOUS
 66
     1
 40
0.003000
 41
0.003000
  0
VERTEX
  8
PLAN_1
 62
     5
  6
CONTINUOUS
 10
-0.737319
 20
0.513319
  0
VERTEX
  8
PLAN_1
 62
     5
  6
CONTINUOUS
 10
-0.729051
 20
0.513319
  0
SEQEND
  8
0
  0
POLYLINE
  8
PLAN_1
 62
     5
  6
CONTINUOUS
 66
     1
 40
0.003000
 41
0.003000
  0
VERTEX
  8
PLAN_1
 62
     5
  6
CONTINUOUS
 10
-0.720783
 20
0.513319
  0
VERTEX
  8
PLAN_1
 62
     5
  6
CONTINUOUS
 10
-0.712516
 20
0.513319
  0
SEQEND
  8
0
  0
POLYLINE
  8
PLAN_1
 62
     5
  6
CONTINUOUS
 66
     1
 40
0.003000
 41
0.003000
  0
VERTEX
  8
PLAN_1
 62
     5
  6
CONTINUOUS
 10
-0.704252
 20
0.513319
  0
VERTEX
  8
PLAN_1
 62
     5
  6
CONTINUOUS
 10
-0.695984
 20
0.513319
  0
SEQEND
  8
0
  0
POLYLINE
  8
PLAN_1
 62
     5
  6
CONTINUOUS
 66
     1
 40
0.003000
 41
0.003000
  0
VERTEX
  8
PLAN_1
 62
     5
  6
CONTINUOUS
 10
-0.687717
 20
0.513319
  0
VERTEX
  8
PLAN_1
 62
     5
  6
CONTINUOUS
 10
-0.679449
 20
0.513319
  0
SEQEND
  8
0
  0
POLYLINE
  8
PLAN_1
 62
     5
  6
CONTINUOUS
 66
     1
 40
0.003000
 41
0.003000
  0
VERTEX
  8
PLAN_1
 62
     5
  6
CONTINUOUS
 10
-0.670697
 20
0.513319
  0
VERTEX
  8
PLAN_1
 62
     5
  6
CONTINUOUS
 10
-0.662429
 20
0.513319
  0
SEQEND
  8
0
  0
POLYLINE
  8
PLAN_1
 62
     5
  6
CONTINUOUS
 66
     1
 40
0.003000
 41
0.003000
  0
VERTEX
  8
PLAN_1
 62
     5
  6
CONTINUOUS
 10
-0.654161
 20
0.513319
  0
VERTEX
  8
PLAN_1
 62
     5
  6
CONTINUOUS
 10
-0.645898
 20
0.513319
  0
SEQEND
  8
0
  0
POLYLINE
  8
PLAN_1
 62
     5
  6
CONTINUOUS
 66
     1
 40
0.003000
 41
0.003000
  0
VERTEX
  8
PLAN_1
 62
     5
  6
CONTINUOUS
 10
-0.637630
 20
0.513319
  0
VERTEX
  8
PLAN_1
 62
     5
  6
CONTINUOUS
 10
-0.629362
 20
0.513319
  0
SEQEND
  8
0
  0
POLYLINE
  8
PLAN_1
 62
     5
  6
CONTINUOUS
 66
     1
 40
0.003000
 41
0.003000
  0
VERTEX
  8
PLAN_1
 62
     5
  6
CONTINUOUS
 10
-0.621094
 20
0.513319
  0
VERTEX
  8
PLAN_1
 62
     5
  6
CONTINUOUS
 10
-0.612827
 20
0.513319
  0
SEQEND
  8
0
  0
POLYLINE
  8
PLAN_1
 62
     5
  6
CONTINUOUS
 66
     1
 40
0.003000
 41
0.003000
  0
VERTEX
  8
PLAN_1
 62
     5
  6
CONTINUOUS
 10
-0.604075
 20
0.513319
  0
VERTEX
  8
PLAN_1
 62
     5
  6
CONTINUOUS
 10
-0.595807
 20
0.513319
  0
SEQEND
  8
0
  0
POLYLINE
  8
PLAN_1
 62
     5
  6
CONTINUOUS
 66
     1
 40
0.003000
 41
0.003000
  0
VERTEX
  8
PLAN_1
 62
     5
  6
CONTINUOUS
 10
-0.587543
 20
0.513319
  0
VERTEX
  8
PLAN_1
 62
     5
  6
CONTINUOUS
 10
-0.579276
 20
0.513319
  0
SEQEND
  8
0
  0
POLYLINE
  8
PLAN_1
 62
     5
  6
CONTINUOUS
 66
     1
 40
0.003000
 41
0.003000
  0
VERTEX
  8
PLAN_1
 62
     5
  6
CONTINUOUS
 10
-0.571008
 20
0.513319
  0
VERTEX
  8
PLAN_1
 62
     5
  6
CONTINUOUS
 10
-0.562740
 20
0.513319
  0
SEQEND
  8
0
  0
POLYLINE
  8
PLAN_1
 62
     5
  6
CONTINUOUS
 66
     1
 40
0.003000
 41
0.003000
  0
VERTEX
  8
PLAN_1
 62
     5
  6
CONTINUOUS
 10
-0.554472
 20
0.513319
  0
VERTEX
  8
PLAN_1
 62
     5
  6
CONTINUOUS
 10
-0.546209
 20
0.513319
  0
SEQEND
  8
0
  0
POLYLINE
  8
PLAN_1
 62
     5
  6
CONTINUOUS
 66
     1
 40
0.003000
 41
0.003000
  0
VERTEX
  8
PLAN_1
 62
     5
  6
CONTINUOUS
 10
-0.537453
 20
0.513319
  0
VERTEX
  8
PLAN_1
 62
     5
  6
CONTINUOUS
 10
-0.529189
 20
0.513319
  0
SEQEND
  8
0
  0
POLYLINE
  8
PLAN_1
 62
     5
  6
CONTINUOUS
 66
     1
 40
0.003000
 41
0.003000
  0
VERTEX
  8
PLAN_1
 62
     5
  6
CONTINUOUS
 10
-0.520921
 20
0.513319
  0
VERTEX
  8
PLAN_1
 62
     5
  6
CONTINUOUS
 10
-0.512654
 20
0.513319
  0
SEQEND
  8
0
  0
POLYLINE
  8
PLAN_1
 62
     5
  6
CONTINUOUS
 66
     1
 40
0.003000
 41
0.003000
  0
VERTEX
  8
PLAN_1
 62
     5
  6
CONTINUOUS
 10
-0.504386
 20
0.513319
  0
VERTEX
  8
PLAN_1
 62
     5
  6
CONTINUOUS
 10
-0.496122
 20
0.513319
  0
SEQEND
  8
0
  0
POLYLINE
  8
PLAN_1
 62
     5
  6
CONTINUOUS
 66
     1
 40
0.003000
 41
0.003000
  0
VERTEX
  8
PLAN_1
 62
     5
  6
CONTINUOUS
 10
-0.487854
 20
0.513319
  0
VERTEX
  8
PLAN_1
 62
     5
  6
CONTINUOUS
 10
-0.479587
 20
0.513319
  0
SEQEND
  8
0
  0
POLYLINE
  8
PLAN_1
 62
     5
  6
CONTINUOUS
 66
     1
 40
0.003000
 41
0.003000
  0
VERTEX
  8
PLAN_1
 62
     5
  6
CONTINUOUS
 10
-0.470835
 20
0.513319
  0
VERTEX
  8
PLAN_1
 62
     5
  6
CONTINUOUS
 10
-0.462567
 20
0.513319
  0
SEQEND
  8
0
  0
POLYLINE
  8
PLAN_1
 62
     5
  6
CONTINUOUS
 66
     1
 40
0.003000
 41
0.003000
  0
VERTEX
  8
PLAN_1
 62
     5
  6
CONTINUOUS
 10
-0.454299
 20
0.513319
  0
VERTEX
  8
PLAN_1
 62
     5
  6
CONTINUOUS
 10
-0.446031
 20
0.513319
  0
SEQEND
  8
0
  0
POLYLINE
  8
PLAN_1
 62
     5
  6
CONTINUOUS
 66
     1
 40
0.003000
 41
0.003000
  0
VERTEX
  8
PLAN_1
 62
     5
  6
CONTINUOUS
 10
-0.437768
 20
0.513319
  0
VERTEX
  8
PLAN_1
 62
     5
  6
CONTINUOUS
 10
-0.429500
 20
0.513319
  0
SEQEND
  8
0
  0
POLYLINE
  8
PLAN_1
 62
     5
  6
CONTINUOUS
 66
     1
 40
0.003000
 41
0.003000
  0
VERTEX
  8
PLAN_1
 62
     5
  6
CONTINUOUS
 10
-0.421232
 20
0.513319
  0
VERTEX
  8
PLAN_1
 62
     5
  6
CONTINUOUS
 10
-0.412965
 20
0.513319
  0
SEQEND
  8
0
  0
POLYLINE
  8
PLAN_1
 62
     5
  6
CONTINUOUS
 66
     1
 40
0.003000
 41
0.003000
  0
VERTEX
  8
PLAN_1
 62
     5
  6
CONTINUOUS
 10
-0.404213
 20
0.513319
  0
VERTEX
  8
PLAN_1
 62
     5
  6
CONTINUOUS
 10
-0.395945
 20
0.513319
  0
SEQEND
  8
0
  0
POLYLINE
  8
PLAN_1
 62
     5
  6
CONTINUOUS
 66
     1
 40
0.003000
 41
0.003000
  0
VERTEX
  8
PLAN_1
 62
     5
  6
CONTINUOUS
 10
-0.387677
 20
0.513319
  0
VERTEX
  8
PLAN_1
 62
     5
  6
CONTINUOUS
 10
-0.379413
 20
0.513319
  0
SEQEND
  8
0
  0
POLYLINE
  8
PLAN_1
 62
     5
  6
CONTINUOUS
 66
     1
 40
0.003000
 41
0.003000
  0
VERTEX
  8
PLAN_1
 62
     5
  6
CONTINUOUS
 10
-0.371146
 20
0.513319
  0
VERTEX
  8
PLAN_1
 62
     5
  6
CONTINUOUS
 10
-0.362878
 20
0.513319
  0
SEQEND
  8
0
  0
POLYLINE
  8
PLAN_1
 62
     5
  6
CONTINUOUS
 66
     1
 40
0.003000
 41
0.003000
  0
VERTEX
  8
PLAN_1
 62
     5
  6
CONTINUOUS
 10
-0.354610
 20
0.513319
  0
VERTEX
  8
PLAN_1
 62
     5
  6
CONTINUOUS
 10
-0.345858
 20
0.513319
  0
SEQEND
  8
0
  0
POLYLINE
  8
PLAN_1
 62
     5
  6
CONTINUOUS
 66
     1
 40
0.003000
 41
0.003000
  0
VERTEX
  8
PLAN_1
 62
     5
  6
CONTINUOUS
 10
-0.337591
 20
0.513319
  0
VERTEX
  8
PLAN_1
 62
     5
  6
CONTINUOUS
 10
-0.329323
 20
0.513319
  0
SEQEND
  8
0
  0
POLYLINE
  8
PLAN_1
 62
     5
  6
CONTINUOUS
 66
     1
 40
0.003000
 41
0.003000
  0
VERTEX
  8
PLAN_1
 62
     5
  6
CONTINUOUS
 10
-0.321059
 20
0.513319
  0
VERTEX
  8
PLAN_1
 62
     5
  6
CONTINUOUS
 10
-0.312791
 20
0.513319
  0
SEQEND
  8
0
  0
POLYLINE
  8
PLAN_1
 62
     5
  6
CONTINUOUS
 66
     1
 40
0.003000
 41
0.003000
  0
VERTEX
  8
PLAN_1
 62
     5
  6
CONTINUOUS
 10
-0.304524
 20
0.513319
  0
VERTEX
  8
PLAN_1
 62
     5
  6
CONTINUOUS
 10
-0.296256
 20
0.513319
  0
SEQEND
  8
0
  0
POLYLINE
  8
PLAN_1
 62
     5
  6
CONTINUOUS
 66
     1
 40
0.003000
 41
0.003000
  0
VERTEX
  8
PLAN_1
 62
     5
  6
CONTINUOUS
 10
-0.287992
 20
0.513319
  0
VERTEX
  8
PLAN_1
 62
     5
  6
CONTINUOUS
 10
-0.279236
 20
0.513319
  0
SEQEND
  8
0
  0
POLYLINE
  8
PLAN_1
 62
     5
  6
CONTINUOUS
 66
     1
 40
0.003000
 41
0.003000
  0
VERTEX
  8
PLAN_1
 62
     5
  6
CONTINUOUS
 10
-0.270969
 20
0.513319
  0
VERTEX
  8
PLAN_1
 62
     5
  6
CONTINUOUS
 10
-0.262705
 20
0.513319
  0
SEQEND
  8
0
  0
POLYLINE
  8
PLAN_1
 62
     5
  6
CONTINUOUS
 66
     1
 40
0.003000
 41
0.003000
  0
VERTEX
  8
PLAN_1
 62
     5
  6
CONTINUOUS
 10
-0.254437
 20
0.513319
  0
VERTEX
  8
PLAN_1
 62
     5
  6
CONTINUOUS
 10
-0.246169
 20
0.513319
  0
SEQEND
  8
0
  0
POLYLINE
  8
PLAN_1
 62
     5
  6
CONTINUOUS
 66
     1
 40
0.003000
 41
0.003000
  0
VERTEX
  8
PLAN_1
 62
     5
  6
CONTINUOUS
 10
-0.237902
 20
0.513319
  0
VERTEX
  8
PLAN_1
 62
     5
  6
CONTINUOUS
 10
-0.229638
 20
0.513319
  0
SEQEND
  8
0
  0
POLYLINE
  8
PLAN_1
 62
     5
  6
CONTINUOUS
 66
     1
 40
0.003000
 41
0.003000
  0
VERTEX
  8
PLAN_1
 62
     5
  6
CONTINUOUS
 10
-0.221370
 20
0.513319
  0
VERTEX
  8
PLAN_1
 62
     5
  6
CONTINUOUS
 10
-0.212618
 20
0.513319
  0
SEQEND
  8
0
  0
POLYLINE
  8
PLAN_1
 62
     5
  6
CONTINUOUS
 66
     1
 40
0.003000
 41
0.003000
  0
VERTEX
  8
PLAN_1
 62
     5
  6
CONTINUOUS
 10
-0.204350
 20
0.513319
  0
VERTEX
  8
PLAN_1
 62
     5
  6
CONTINUOUS
 10
-0.196083
 20
0.513319
  0
SEQEND
  8
0
  0
POLYLINE
  8
PLAN_1
 62
     5
  6
CONTINUOUS
 66
     1
 40
0.003000
 41
0.003000
  0
VERTEX
  8
PLAN_1
 62
     5
  6
CONTINUOUS
 10
-0.187815
 20
0.513319
  0
VERTEX
  8
PLAN_1
 62
     5
  6
CONTINUOUS
 10
-0.179547
 20
0.513319
  0
SEQEND
  8
0
  0
POLYLINE
  8
PLAN_1
 62
     5
  6
CONTINUOUS
 66
     1
 40
0.003000
 41
0.003000
  0
VERTEX
  8
PLAN_1
 62
     5
  6
CONTINUOUS
 10
-0.171283
 20
0.513319
  0
VERTEX
  8
PLAN_1
 62
     5
  6
CONTINUOUS
 10
-0.163016
 20
0.513319
  0
SEQEND
  8
0
  0
POLYLINE
  8
PLAN_1
 62
     5
  6
CONTINUOUS
 66
     1
 40
0.003000
 41
0.003000
  0
VERTEX
  8
PLAN_1
 62
     5
  6
CONTINUOUS
 10
-0.154748
 20
0.513319
  0
VERTEX
  8
PLAN_1
 62
     5
  6
CONTINUOUS
 10
-0.145996
 20
0.513319
  0
SEQEND
  8
0
  0
POLYLINE
  8
PLAN_1
 62
     5
  6
CONTINUOUS
 66
     1
 40
0.003000
 41
0.003000
  0
VERTEX
  8
PLAN_1
 62
     5
  6
CONTINUOUS
 10
-0.137728
 20
0.513319
  0
VERTEX
  8
PLAN_1
 62
     5
  6
CONTINUOUS
 10
-0.129461
 20
0.513319
  0
SEQEND
  8
0
  0
POLYLINE
  8
PLAN_1
 62
     5
  6
CONTINUOUS
 66
     1
 40
0.003000
 41
0.003000
  0
VERTEX
  8
PLAN_1
 62
     5
  6
CONTINUOUS
 10
-0.121193
 20
0.513319
  0
VERTEX
  8
PLAN_1
 62
     5
  6
CONTINUOUS
 10
-0.112929
 20
0.513319
  0
SEQEND
  8
0
  0
POLYLINE
  8
PLAN_1
 62
     5
  6
CONTINUOUS
 66
     1
 40
0.003000
 41
0.003000
  0
VERTEX
  8
PLAN_1
 62
     5
  6
CONTINUOUS
 10
-0.104661
 20
0.513319
  0
VERTEX
  8
PLAN_1
 62
     5
  6
CONTINUOUS
 10
-0.096394
 20
0.513319
  0
SEQEND
  8
0
  0
POLYLINE
  8
PLAN_1
 62
     5
  6
CONTINUOUS
 66
     1
 40
0.003000
 41
0.003000
  0
VERTEX
  8
PLAN_1
 62
     5
  6
CONTINUOUS
 10
-0.088126
 20
0.513319
  0
VERTEX
  8
PLAN_1
 62
     5
  6
CONTINUOUS
 10
-0.079374
 20
0.513319
  0
SEQEND
  8
0
  0
POLYLINE
  8
PLAN_1
 62
     5
  6
CONTINUOUS
 66
     1
 40
0.003000
 41
0.003000
  0
VERTEX
  8
PLAN_1
 62
     5
  6
CONTINUOUS
 10
-0.071106
 20
0.513319
  0
VERTEX
  8
PLAN_1
 62
     5
  6
CONTINUOUS
 10
-0.062839
 20
0.513319
  0
SEQEND
  8
0
  0
POLYLINE
  8
PLAN_1
 62
     5
  6
CONTINUOUS
 66
     1
 40
0.003000
 41
0.003000
  0
VERTEX
  8
PLAN_1
 62
     5
  6
CONTINUOUS
 10
-0.054575
 20
0.513319
  0
VERTEX
  8
PLAN_1
 62
     5
  6
CONTINUOUS
 10
-0.046307
 20
0.513319
  0
SEQEND
  8
0
  0
POLYLINE
  8
PLAN_1
 62
     5
  6
CONTINUOUS
 66
     1
 40
0.003000
 41
0.003000
  0
VERTEX
  8
PLAN_1
 62
     5
  6
CONTINUOUS
 10
-0.038039
 20
0.513319
  0
VERTEX
  8
PLAN_1
 62
     5
  6
CONTINUOUS
 10
-0.029772
 20
0.513319
  0
SEQEND
  8
0
  0
POLYLINE
  8
PLAN_1
 62
     5
  6
CONTINUOUS
 66
     1
 40
0.003000
 41
0.003000
  0
VERTEX
  8
PLAN_1
 62
     5
  6
CONTINUOUS
 10
-0.021508
 20
0.513319
  0
VERTEX
  8
PLAN_1
 62
     5
  6
CONTINUOUS
 10
-0.012752
 20
0.513319
  0
SEQEND
  8
0
  0
POLYLINE
  8
PLAN_1
 62
     5
  6
CONTINUOUS
 66
     1
 40
0.003000
 41
0.003000
  0
VERTEX
  8
PLAN_1
 62
     5
  6
CONTINUOUS
 10
-0.004488
 20
0.513319
  0
VERTEX
  8
PLAN_1
 62
     5
  6
CONTINUOUS
 10
0.003780
 20
0.513319
  0
SEQEND
  8
0
  0
POLYLINE
  8
PLAN_1
 62
     5
  6
CONTINUOUS
 66
     1
 40
0.003000
 41
0.003000
  0
VERTEX
  8
PLAN_1
 62
     5
  6
CONTINUOUS
 10
0.012047
 20
0.513319
  0
VERTEX
  8
PLAN_1
 62
     5
  6
CONTINUOUS
 10
0.020315
 20
0.513319
  0
SEQEND
  8
0
  0
POLYLINE
  8
PLAN_1
 62
     5
  6
CONTINUOUS
 66
     1
 40
0.003000
 41
0.003000
  0
VERTEX
  8
PLAN_1
 62
     5
  6
CONTINUOUS
 10
0.028583
 20
0.513319
  0
VERTEX
  8
PLAN_1
 62
     5
  6
CONTINUOUS
 10
0.036846
 20
0.513319
  0
SEQEND
  8
0
  0
POLYLINE
  8
PLAN_1
 62
     5
  6
CONTINUOUS
 66
     1
 40
0.003000
 41
0.003000
  0
VERTEX
  8
PLAN_1
 62
     5
  6
CONTINUOUS
 10
0.045114
 20
0.513319
  0
VERTEX
  8
PLAN_1
 62
     5
  6
CONTINUOUS
 10
0.053866
 20
0.513319
  0
SEQEND
  8
0
  0
POLYLINE
  8
PLAN_1
 62
     5
  6
CONTINUOUS
 66
     1
 40
0.003000
 41
0.003000
  0
VERTEX
  8
PLAN_1
 62
     5
  6
CONTINUOUS
 10
0.062134
 20
0.513319
  0
VERTEX
  8
PLAN_1
 62
     5
  6
CONTINUOUS
 10
0.070402
 20
0.513319
  0
SEQEND
  8
0
  0
POLYLINE
  8
PLAN_1
 62
     5
  6
CONTINUOUS
 66
     1
 40
0.003000
 41
0.003000
  0
VERTEX
  8
PLAN_1
 62
     5
  6
CONTINUOUS
 10
0.078669
 20
0.513319
  0
VERTEX
  8
PLAN_1
 62
     5
  6
CONTINUOUS
 10
0.086937
 20
0.513319
  0
SEQEND
  8
0
  0
POLYLINE
  8
PLAN_1
 62
     5
  6
CONTINUOUS
 66
     1
 40
0.003000
 41
0.003000
  0
VERTEX
  8
PLAN_1
 62
     5
  6
CONTINUOUS
 10
0.095201
 20
0.513319
  0
VERTEX
  8
PLAN_1
 62
     5
  6
CONTINUOUS
 10
0.103469
 20
0.513319
  0
SEQEND
  8
0
  0
POLYLINE
  8
PLAN_1
 62
     5
  6
CONTINUOUS
 66
     1
 40
0.003000
 41
0.003000
  0
VERTEX
  8
PLAN_1
 62
     5
  6
CONTINUOUS
 10
0.112220
 20
0.513319
  0
VERTEX
  8
PLAN_1
 62
     5
  6
CONTINUOUS
 10
0.120488
 20
0.513319
  0
SEQEND
  8
0
  0
POLYLINE
  8
PLAN_1
 62
     5
  6
CONTINUOUS
 66
     1
 40
0.003000
 41
0.003000
  0
VERTEX
  8
PLAN_1
 62
     5
  6
CONTINUOUS
 10
0.128756
 20
0.513319
  0
VERTEX
  8
PLAN_1
 62
     5
  6
CONTINUOUS
 10
0.137024
 20
0.513319
  0
SEQEND
  8
0
  0
POLYLINE
  8
PLAN_1
 62
     5
  6
CONTINUOUS
 66
     1
 40
0.003000
 41
0.003000
  0
VERTEX
  8
PLAN_1
 62
     5
  6
CONTINUOUS
 10
0.145291
 20
0.513319
  0
VERTEX
  8
PLAN_1
 62
     5
  6
CONTINUOUS
 10
0.153555
 20
0.513319
  0
SEQEND
  8
0
  0
POLYLINE
  8
PLAN_1
 62
     5
  6
CONTINUOUS
 66
     1
 40
0.003000
 41
0.003000
  0
VERTEX
  8
PLAN_1
 62
     5
  6
CONTINUOUS
 10
0.161823
 20
0.513319
  0
VERTEX
  8
PLAN_1
 62
     5
  6
CONTINUOUS
 10
0.170091
 20
0.513319
  0
SEQEND
  8
0
  0
POLYLINE
  8
PLAN_1
 62
     5
  6
CONTINUOUS
 66
     1
 40
0.003000
 41
0.003000
  0
VERTEX
  8
PLAN_1
 62
     5
  6
CONTINUOUS
 10
0.178843
 20
0.513319
  0
VERTEX
  8
PLAN_1
 62
     5
  6
CONTINUOUS
 10
0.187110
 20
0.513319
  0
SEQEND
  8
0
  0
POLYLINE
  8
PLAN_1
 62
     5
  6
CONTINUOUS
 66
     1
 40
0.003000
 41
0.003000
  0
VERTEX
  8
PLAN_1
 62
     5
  6
CONTINUOUS
 10
0.195378
 20
0.513319
  0
VERTEX
  8
PLAN_1
 62
     5
  6
CONTINUOUS
 10
0.203642
 20
0.513319
  0
SEQEND
  8
0
  0
POLYLINE
  8
PLAN_1
 62
     5
  6
CONTINUOUS
 66
     1
 40
0.003000
 41
0.003000
  0
VERTEX
  8
PLAN_1
 62
     5
  6
CONTINUOUS
 10
0.211909
 20
0.513319
  0
VERTEX
  8
PLAN_1
 62
     5
  6
CONTINUOUS
 10
0.220177
 20
0.513319
  0
SEQEND
  8
0
  0
POLYLINE
  8
PLAN_1
 62
     5
  6
CONTINUOUS
 66
     1
 40
0.003000
 41
0.003000
  0
VERTEX
  8
PLAN_1
 62
     5
  6
CONTINUOUS
 10
0.228445
 20
0.513319
  0
VERTEX
  8
PLAN_1
 62
     5
  6
CONTINUOUS
 10
0.236713
 20
0.513319
  0
SEQEND
  8
0
  0
POLYLINE
  8
PLAN_1
 62
     5
  6
CONTINUOUS
 66
     1
 40
0.003000
 41
0.003000
  0
VERTEX
  8
PLAN_1
 62
     5
  6
CONTINUOUS
 10
0.245465
 20
0.513319
  0
VERTEX
  8
PLAN_1
 62
     5
  6
CONTINUOUS
 10
0.253732
 20
0.513319
  0
SEQEND
  8
0
  0
POLYLINE
  8
PLAN_1
 62
     5
  6
CONTINUOUS
 66
     1
 40
0.003000
 41
0.003000
  0
VERTEX
  8
PLAN_1
 62
     5
  6
CONTINUOUS
 10
0.261996
 20
0.513319
  0
VERTEX
  8
PLAN_1
 62
     5
  6
CONTINUOUS
 10
0.270264
 20
0.513319
  0
SEQEND
  8
0
  0
POLYLINE
  8
PLAN_1
 62
     5
  6
CONTINUOUS
 66
     1
 40
0.003000
 41
0.003000
  0
VERTEX
  8
PLAN_1
 62
     5
  6
CONTINUOUS
 10
0.278531
 20
0.513319
  0
VERTEX
  8
PLAN_1
 62
     5
  6
CONTINUOUS
 10
0.286799
 20
0.513319
  0
SEQEND
  8
0
  0
POLYLINE
  8
PLAN_1
 62
     5
  6
CONTINUOUS
 66
     1
 40
0.003000
 41
0.003000
  0
VERTEX
  8
PLAN_1
 62
     5
  6
CONTINUOUS
 10
0.295067
 20
0.513319
  0
VERTEX
  8
PLAN_1
 62
     5
  6
CONTINUOUS
 10
0.303331
 20
0.513319
  0
SEQEND
  8
0
  0
POLYLINE
  8
PLAN_1
 62
     5
  6
CONTINUOUS
 66
     1
 40
0.003000
 41
0.003000
  0
VERTEX
  8
PLAN_1
 62
     5
  6
CONTINUOUS
 10
0.312087
 20
0.513319
  0
VERTEX
  8
PLAN_1
 62
     5
  6
CONTINUOUS
 10
0.320350
 20
0.513319
  0
SEQEND
  8
0
  0
POLYLINE
  8
PLAN_1
 62
     5
  6
CONTINUOUS
 66
     1
 40
0.003000
 41
0.003000
  0
VERTEX
  8
PLAN_1
 62
     5
  6
CONTINUOUS
 10
0.328618
 20
0.513319
  0
VERTEX
  8
PLAN_1
 62
     5
  6
CONTINUOUS
 10
0.336886
 20
0.513319
  0
SEQEND
  8
0
  0
POLYLINE
  8
PLAN_1
 62
     5
  6
CONTINUOUS
 66
     1
 40
0.003000
 41
0.003000
  0
VERTEX
  8
PLAN_1
 62
     5
  6
CONTINUOUS
 10
0.345154
 20
0.513319
  0
VERTEX
  8
PLAN_1
 62
     5
  6
CONTINUOUS
 10
0.353421
 20
0.513319
  0
SEQEND
  8
0
  0
POLYLINE
  8
PLAN_1
 62
     5
  6
CONTINUOUS
 66
     1
 40
0.003000
 41
0.003000
  0
VERTEX
  8
PLAN_1
 62
     5
  6
CONTINUOUS
 10
0.361685
 20
0.513319
  0
VERTEX
  8
PLAN_1
 62
     5
  6
CONTINUOUS
 10
0.369953
 20
0.513319
  0
SEQEND
  8
0
  0
POLYLINE
  8
PLAN_1
 62
     5
  6
CONTINUOUS
 66
     1
 40
0.003000
 41
0.003000
  0
VERTEX
  8
PLAN_1
 62
     5
  6
CONTINUOUS
 10
0.378705
 20
0.513319
  0
VERTEX
  8
PLAN_1
 62
     5
  6
CONTINUOUS
 10
0.386972
 20
0.513319
  0
SEQEND
  8
0
  0
POLYLINE
  8
PLAN_1
 62
     5
  6
CONTINUOUS
 66
     1
 40
0.003000
 41
0.003000
  0
VERTEX
  8
PLAN_1
 62
     5
  6
CONTINUOUS
 10
0.395240
 20
0.513319
  0
VERTEX
  8
PLAN_1
 62
     5
  6
CONTINUOUS
 10
0.403508
 20
0.513319
  0
SEQEND
  8
0
  0
POLYLINE
  8
PLAN_1
 62
     5
  6
CONTINUOUS
 66
     1
 40
0.003000
 41
0.003000
  0
VERTEX
  8
PLAN_1
 62
     5
  6
CONTINUOUS
 10
0.411772
 20
0.513319
  0
VERTEX
  8
PLAN_1
 62
     5
  6
CONTINUOUS
 10
0.420039
 20
0.513319
  0
SEQEND
  8
0
  0
POLYLINE
  8
PLAN_1
 62
     5
  6
CONTINUOUS
 66
     1
 40
0.003000
 41
0.003000
  0
VERTEX
  8
PLAN_1
 62
     5
  6
CONTINUOUS
 10
0.428307
 20
0.513319
  0
VERTEX
  8
PLAN_1
 62
     5
  6
CONTINUOUS
 10
0.436575
 20
0.513319
  0
SEQEND
  8
0
  0
POLYLINE
  8
PLAN_1
 62
     5
  6
CONTINUOUS
 66
     1
 40
0.003000
 41
0.003000
  0
VERTEX
  8
PLAN_1
 62
     5
  6
CONTINUOUS
 10
0.445327
 20
0.513319
  0
VERTEX
  8
PLAN_1
 62
     5
  6
CONTINUOUS
 10
0.453594
 20
0.513319
  0
SEQEND
  8
0
  0
POLYLINE
  8
PLAN_1
 62
     5
  6
CONTINUOUS
 66
     1
 40
0.003000
 41
0.003000
  0
VERTEX
  8
PLAN_1
 62
     5
  6
CONTINUOUS
 10
0.461862
 20
0.513319
  0
VERTEX
  8
PLAN_1
 62
     5
  6
CONTINUOUS
 10
0.470126
 20
0.513319
  0
SEQEND
  8
0
  0
POLYLINE
  8
PLAN_1
 62
     5
  6
CONTINUOUS
 66
     1
 40
0.003000
 41
0.003000
  0
VERTEX
  8
PLAN_1
 62
     5
  6
CONTINUOUS
 10
0.470614
 20
0.505539
  0
VERTEX
  8
PLAN_1
 62
     5
  6
CONTINUOUS
 10
0.470614
 20
0.497272
  0
SEQEND
  8
0
  0
POLYLINE
  8
PLAN_1
 62
     5
  6
CONTINUOUS
 66
     1
 40
0.003000
 41
0.003000
  0
VERTEX
  8
PLAN_1
 62
     5
  6
CONTINUOUS
 10
0.470614
 20
0.489008
  0
VERTEX
  8
PLAN_1
 62
     5
  6
CONTINUOUS
 10
0.470614
 20
0.480252
  0
SEQEND
  8
0
  0
POLYLINE
  8
PLAN_1
 62
     5
  6
CONTINUOUS
 66
     1
 40
0.003000
 41
0.003000
  0
VERTEX
  8
PLAN_1
 62
     5
  6
CONTINUOUS
 10
0.470614
 20
0.471988
  0
VERTEX
  8
PLAN_1
 62
     5
  6
CONTINUOUS
 10
0.470614
 20
0.463720
  0
SEQEND
  8
0
  0
POLYLINE
  8
PLAN_1
 62
     5
  6
CONTINUOUS
 66
     1
 40
0.003000
 41
0.003000
  0
VERTEX
  8
PLAN_1
 62
     5
  6
CONTINUOUS
 10
0.470614
 20
0.455453
  0
VERTEX
  8
PLAN_1
 62
     5
  6
CONTINUOUS
 10
0.470614
 20
0.447185
  0
SEQEND
  8
0
  0
POLYLINE
  8
PLAN_1
 62
     5
  6
CONTINUOUS
 66
     1
 40
0.003000
 41
0.003000
  0
VERTEX
  8
PLAN_1
 62
     5
  6
CONTINUOUS
 10
0.470614
 20
0.438917
  0
VERTEX
  8
PLAN_1
 62
     5
  6
CONTINUOUS
 10
0.470614
 20
0.430654
  0
SEQEND
  8
0
  0
POLYLINE
  8
PLAN_1
 62
     5
  6
CONTINUOUS
 66
     1
 40
0.003000
 41
0.003000
  0
VERTEX
  8
PLAN_1
 62
     5
  6
CONTINUOUS
 10
0.470614
 20
0.422386
  0
VERTEX
  8
PLAN_1
 62
     5
  6
CONTINUOUS
 10
0.470614
 20
0.413634
  0
SEQEND
  8
0
  0
POLYLINE
  8
PLAN_1
 62
     5
  6
CONTINUOUS
 66
     1
 40
0.003000
 41
0.003000
  0
VERTEX
  8
PLAN_1
 62
     5
  6
CONTINUOUS
 10
0.470614
 20
0.405366
  0
VERTEX
  8
PLAN_1
 62
     5
  6
CONTINUOUS
 10
0.470614
 20
0.397098
  0
SEQEND
  8
0
  0
POLYLINE
  8
PLAN_1
 62
     5
  6
CONTINUOUS
 66
     1
 40
0.003000
 41
0.003000
  0
VERTEX
  8
PLAN_1
 62
     5
  6
CONTINUOUS
 10
0.470614
 20
0.388831
  0
VERTEX
  8
PLAN_1
 62
     5
  6
CONTINUOUS
 10
0.470614
 20
0.380563
  0
SEQEND
  8
0
  0
POLYLINE
  8
PLAN_1
 62
     5
  6
CONTINUOUS
 66
     1
 40
0.003000
 41
0.003000
  0
VERTEX
  8
PLAN_1
 62
     5
  6
CONTINUOUS
 10
0.470614
 20
0.372299
  0
VERTEX
  8
PLAN_1
 62
     5
  6
CONTINUOUS
 10
0.470614
 20
0.364031
  0
SEQEND
  8
0
  0
POLYLINE
  8
PLAN_1
 62
     5
  6
CONTINUOUS
 66
     1
 40
0.003000
 41
0.003000
  0
VERTEX
  8
PLAN_1
 62
     5
  6
CONTINUOUS
 10
0.470614
 20
0.355764
  0
VERTEX
  8
PLAN_1
 62
     5
  6
CONTINUOUS
 10
0.470614
 20
0.347012
  0
SEQEND
  8
0
  0
POLYLINE
  8
PLAN_1
 62
     5
  6
CONTINUOUS
 66
     1
 40
0.003000
 41
0.003000
  0
VERTEX
  8
PLAN_1
 62
     5
  6
CONTINUOUS
 10
0.474992
 20
0.343122
  0
VERTEX
  8
PLAN_1
 62
     5
  6
CONTINUOUS
 10
0.483256
 20
0.343122
  0
SEQEND
  8
0
  0
POLYLINE
  8
PLAN_1
 62
     5
  6
CONTINUOUS
 66
     1
 40
0.003000
 41
0.003000
  0
VERTEX
  8
PLAN_1
 62
     5
  6
CONTINUOUS
 10
0.491524
 20
0.343122
  0
VERTEX
  8
PLAN_1
 62
     5
  6
CONTINUOUS
 10
0.499791
 20
0.343122
  0
SEQEND
  8
0
  0
POLYLINE
  8
PLAN_1
 62
     5
  6
CONTINUOUS
 66
     1
 40
0.003000
 41
0.003000
  0
VERTEX
  8
PLAN_1
 62
     5
  6
CONTINUOUS
 10
0.508543
 20
0.343122
  0
VERTEX
  8
PLAN_1
 62
     5
  6
CONTINUOUS
 10
0.516811
 20
0.343122
  0
SEQEND
  8
0
  0
POLYLINE
  8
PLAN_1
 62
     5
  6
CONTINUOUS
 66
     1
 40
0.003000
 41
0.003000
  0
VERTEX
  8
PLAN_1
 62
     5
  6
CONTINUOUS
 10
0.517299
 20
0.335827
  0
VERTEX
  8
PLAN_1
 62
     5
  6
CONTINUOUS
 10
0.517299
 20
0.327559
  0
SEQEND
  8
0
  0
POLYLINE
  8
PLAN_1
 62
     5
  6
CONTINUOUS
 66
     1
 40
0.003000
 41
0.003000
  0
VERTEX
  8
PLAN_1
 62
     5
  6
CONTINUOUS
 10
0.517299
 20
0.318807
  0
VERTEX
  8
PLAN_1
 62
     5
  6
CONTINUOUS
 10
0.517299
 20
0.310539
  0
SEQEND
  8
0
  0
POLYLINE
  8
PLAN_1
 62
     5
  6
CONTINUOUS
 66
     1
 40
0.003000
 41
0.003000
  0
VERTEX
  8
PLAN_1
 62
     5
  6
CONTINUOUS
 10
0.517299
 20
0.302272
  0
VERTEX
  8
PLAN_1
 62
     5
  6
CONTINUOUS
 10
0.517299
 20
0.294008
  0
SEQEND
  8
0
  0
POLYLINE
  8
PLAN_1
 62
     5
  6
CONTINUOUS
 66
     1
 40
0.003000
 41
0.003000
  0
VERTEX
  8
PLAN_1
 62
     5
  6
CONTINUOUS
 10
0.517299
 20
0.285740
  0
VERTEX
  8
PLAN_1
 62
     5
  6
CONTINUOUS
 10
0.517299
 20
0.277472
  0
SEQEND
  8
0
  0
POLYLINE
  8
PLAN_1
 62
     5
  6
CONTINUOUS
 66
     1
 40
0.003000
 41
0.003000
  0
VERTEX
  8
PLAN_1
 62
     5
  6
CONTINUOUS
 10
0.517299
 20
0.269205
  0
VERTEX
  8
PLAN_1
 62
     5
  6
CONTINUOUS
 10
0.517299
 20
0.260937
  0
SEQEND
  8
0
  0
POLYLINE
  8
PLAN_1
 62
     5
  6
CONTINUOUS
 66
     1
 40
0.003000
 41
0.003000
  0
VERTEX
  8
PLAN_1
 62
     5
  6
CONTINUOUS
 10
0.517299
 20
0.252185
  0
VERTEX
  8
PLAN_1
 62
     5
  6
CONTINUOUS
 10
0.517299
 20
0.243917
  0
SEQEND
  8
0
  0
POLYLINE
  8
PLAN_1
 62
     5
  6
CONTINUOUS
 66
     1
 40
0.003000
 41
0.003000
  0
VERTEX
  8
PLAN_1
 62
     5
  6
CONTINUOUS
 10
0.517299
 20
0.235654
  0
VERTEX
  8
PLAN_1
 62
     5
  6
CONTINUOUS
 10
0.517299
 20
0.227386
  0
SEQEND
  8
0
  0
POLYLINE
  8
PLAN_1
 62
     5
  6
CONTINUOUS
 66
     1
 40
0.003000
 41
0.003000
  0
VERTEX
  8
PLAN_1
 62
     5
  6
CONTINUOUS
 10
0.517299
 20
0.219118
  0
VERTEX
  8
PLAN_1
 62
     5
  6
CONTINUOUS
 10
0.517299
 20
0.210850
  0
SEQEND
  8
0
  0
POLYLINE
  8
PLAN_1
 62
     5
  6
CONTINUOUS
 66
     1
 40
0.003000
 41
0.003000
  0
VERTEX
  8
PLAN_1
 62
     5
  6
CONTINUOUS
 10
0.517299
 20
0.202587
  0
VERTEX
  8
PLAN_1
 62
     5
  6
CONTINUOUS
 10
0.517299
 20
0.194319
  0
SEQEND
  8
0
  0
POLYLINE
  8
PLAN_1
 62
     5
  6
CONTINUOUS
 66
     1
 40
0.003000
 41
0.003000
  0
VERTEX
  8
PLAN_1
 62
     5
  6
CONTINUOUS
 10
0.517299
 20
0.185563
  0
VERTEX
  8
PLAN_1
 62
     5
  6
CONTINUOUS
 10
0.517299
 20
0.177299
  0
SEQEND
  8
0
  0
POLYLINE
  8
PLAN_1
 62
     5
  6
CONTINUOUS
 66
     1
 40
0.003000
 41
0.003000
  0
VERTEX
  8
PLAN_1
 62
     5
  6
CONTINUOUS
 10
0.517299
 20
0.169031
  0
VERTEX
  8
PLAN_1
 62
     5
  6
CONTINUOUS
 10
0.517299
 20
0.160764
  0
SEQEND
  8
0
  0
POLYLINE
  8
PLAN_1
 62
     5
  6
CONTINUOUS
 66
     1
 40
0.003000
 41
0.003000
  0
VERTEX
  8
PLAN_1
 62
     5
  6
CONTINUOUS
 10
0.517299
 20
0.152496
  0
VERTEX
  8
PLAN_1
 62
     5
  6
CONTINUOUS
 10
0.517299
 20
0.144232
  0
SEQEND
  8
0
  0
POLYLINE
  8
PLAN_1
 62
     5
  6
CONTINUOUS
 66
     1
 40
0.003000
 41
0.003000
  0
VERTEX
  8
PLAN_1
 62
     5
  6
CONTINUOUS
 10
0.517299
 20
0.135965
  0
VERTEX
  8
PLAN_1
 62
     5
  6
CONTINUOUS
 10
0.517299
 20
0.127209
  0
SEQEND
  8
0
  0
POLYLINE
  8
PLAN_1
 62
     5
  6
CONTINUOUS
 66
     1
 40
0.003000
 41
0.003000
  0
VERTEX
  8
PLAN_1
 62
     5
  6
CONTINUOUS
 10
0.517299
 20
0.118945
  0
VERTEX
  8
PLAN_1
 62
     5
  6
CONTINUOUS
 10
0.517299
 20
0.110677
  0
SEQEND
  8
0
  0
POLYLINE
  8
PLAN_1
 62
     5
  6
CONTINUOUS
 66
     1
 40
0.003000
 41
0.003000
  0
VERTEX
  8
PLAN_1
 62
     5
  6
CONTINUOUS
 10
0.517299
 20
0.102409
  0
VERTEX
  8
PLAN_1
 62
     5
  6
CONTINUOUS
 10
0.517299
 20
0.094142
  0
SEQEND
  8
0
  0
POLYLINE
  8
PLAN_1
 62
     5
  6
CONTINUOUS
 66
     1
 40
0.003000
 41
0.003000
  0
VERTEX
  8
PLAN_1
 62
     5
  6
CONTINUOUS
 10
0.517299
 20
0.085878
  0
VERTEX
  8
PLAN_1
 62
     5
  6
CONTINUOUS
 10
0.517299
 20
0.077610
  0
SEQEND
  8
0
  0
POLYLINE
  8
PLAN_1
 62
     5
  6
CONTINUOUS
 66
     1
 40
0.003000
 41
0.003000
  0
VERTEX
  8
PLAN_1
 62
     5
  6
CONTINUOUS
 10
0.517299
 20
0.069343
  0
VERTEX
  8
PLAN_1
 62
     5
  6
CONTINUOUS
 10
0.517299
 20
0.060591
  0
SEQEND
  8
0
  0
POLYLINE
  8
PLAN_1
 62
     5
  6
CONTINUOUS
 66
     1
 40
0.003000
 41
0.003000
  0
VERTEX
  8
PLAN_1
 62
     5
  6
CONTINUOUS
 10
0.517299
 20
0.052323
  0
VERTEX
  8
PLAN_1
 62
     5
  6
CONTINUOUS
 10
0.517299
 20
0.044055
  0
SEQEND
  8
0
  0
POLYLINE
  8
PLAN_1
 62
     5
  6
CONTINUOUS
 66
     1
 40
0.003000
 41
0.003000
  0
VERTEX
  8
PLAN_1
 62
     5
  6
CONTINUOUS
 10
0.517299
 20
0.035787
  0
VERTEX
  8
PLAN_1
 62
     5
  6
CONTINUOUS
 10
0.517299
 20
0.027524
  0
SEQEND
  8
0
  0
POLYLINE
  8
PLAN_1
 62
     5
  6
CONTINUOUS
 66
     1
 40
0.003000
 41
0.003000
  0
VERTEX
  8
PLAN_1
 62
     5
  6
CONTINUOUS
 10
0.517299
 20
0.019256
  0
VERTEX
  8
PLAN_1
 62
     5
  6
CONTINUOUS
 10
0.517299
 20
0.010988
  0
SEQEND
  8
0
  0
POLYLINE
  8
PLAN_1
 62
     5
  6
CONTINUOUS
 66
     1
 40
0.003000
 41
0.003000
  0
VERTEX
  8
PLAN_1
 62
     5
  6
CONTINUOUS
 10
0.516323
 20
0.003209
  0
VERTEX
  8
PLAN_1
 62
     5
  6
CONTINUOUS
 10
0.508059
 20
0.003209
  0
SEQEND
  8
0
  0
POLYLINE
  8
PLAN_1
 62
     5
  6
CONTINUOUS
 66
     1
 40
0.003000
 41
0.003000
  0
VERTEX
  8
PLAN_1
 62
     5
  6
CONTINUOUS
 10
0.499791
 20
0.003209
  0
VERTEX
  8
PLAN_1
 62
     5
  6
CONTINUOUS
 10
0.491524
 20
0.003209
  0
SEQEND
  8
0
  0
POLYLINE
  8
PLAN_1
 62
     5
  6
CONTINUOUS
 66
     1
 40
0.003000
 41
0.003000
  0
VERTEX
  8
PLAN_1
 62
     5
  6
CONTINUOUS
 10
0.483256
 20
0.003209
  0
VERTEX
  8
PLAN_1
 62
     5
  6
CONTINUOUS
 10
0.474992
 20
0.003209
  0
SEQEND
  8
0
  0
POLYLINE
  8
PLAN_1
 62
     5
  6
CONTINUOUS
 66
     1
 40
0.003000
 41
0.003000
  0
VERTEX
  8
PLAN_1
 62
     5
  6
CONTINUOUS
 10
0.470614
 20
-0.000681
  0
VERTEX
  8
PLAN_1
 62
     5
  6
CONTINUOUS
 10
0.470614
 20
-0.008949
  0
SEQEND
  8
0
  0
POLYLINE
  8
PLAN_1
 62
     5
  6
CONTINUOUS
 66
     1
 40
0.003000
 41
0.003000
  0
VERTEX
  8
PLAN_1
 62
     5
  6
CONTINUOUS
 10
0.470614
 20
-0.017217
  0
VERTEX
  8
PLAN_1
 62
     5
  6
CONTINUOUS
 10
0.470614
 20
-0.025484
  0
SEQEND
  8
0
  0
POLYLINE
  8
PLAN_1
 62
     5
  6
CONTINUOUS
 66
     1
 40
0.003000
 41
0.003000
  0
VERTEX
  8
PLAN_1
 62
     5
  6
CONTINUOUS
 10
0.470614
 20
-0.034236
  0
VERTEX
  8
PLAN_1
 62
     5
  6
CONTINUOUS
 10
0.470614
 20
-0.042504
  0
SEQEND
  8
0
  0
POLYLINE
  8
PLAN_1
 62
     5
  6
CONTINUOUS
 66
     1
 40
0.003000
 41
0.003000
  0
VERTEX
  8
PLAN_1
 62
     5
  6
CONTINUOUS
 10
0.470614
 20
-0.050768
  0
VERTEX
  8
PLAN_1
 62
     5
  6
CONTINUOUS
 10
0.470614
 20
-0.059035
  0
SEQEND
  8
0
  0
POLYLINE
  8
PLAN_1
 62
     5
  6
CONTINUOUS
 66
     1
 40
0.003000
 41
0.003000
  0
VERTEX
  8
PLAN_1
 62
     5
  6
CONTINUOUS
 10
0.470614
 20
-0.067303
  0
VERTEX
  8
PLAN_1
 62
     5
  6
CONTINUOUS
 10
0.470614
 20
-0.075571
  0
SEQEND
  8
0
  0
POLYLINE
  8
PLAN_1
 62
     5
  6
CONTINUOUS
 66
     1
 40
0.003000
 41
0.003000
  0
VERTEX
  8
PLAN_1
 62
     5
  6
CONTINUOUS
 10
0.470614
 20
-0.083839
  0
VERTEX
  8
PLAN_1
 62
     5
  6
CONTINUOUS
 10
0.470614
 20
-0.092102
  0
SEQEND
  8
0
  0
POLYLINE
  8
PLAN_1
 62
     5
  6
CONTINUOUS
 66
     1
 40
0.003000
 41
0.003000
  0
VERTEX
  8
PLAN_1
 62
     5
  6
CONTINUOUS
 10
0.470614
 20
-0.100858
  0
VERTEX
  8
PLAN_1
 62
     5
  6
CONTINUOUS
 10
0.470614
 20
-0.109122
  0
SEQEND
  8
0
  0
POLYLINE
  8
PLAN_1
 62
     5
  6
CONTINUOUS
 66
     1
 40
0.003000
 41
0.003000
  0
VERTEX
  8
PLAN_1
 62
     5
  6
CONTINUOUS
 10
0.470614
 20
-0.117390
  0
VERTEX
  8
PLAN_1
 62
     5
  6
CONTINUOUS
 10
0.470614
 20
-0.125657
  0
SEQEND
  8
0
  0
POLYLINE
  8
PLAN_1
 62
     5
  6
CONTINUOUS
 66
     1
 40
0.003000
 41
0.003000
  0
VERTEX
  8
PLAN_1
 62
     5
  6
CONTINUOUS
 10
0.470614
 20
-0.133925
  0
VERTEX
  8
PLAN_1
 62
     5
  6
CONTINUOUS
 10
0.470614
 20
-0.142193
  0
SEQEND
  8
0
  0
POLYLINE
  8
PLAN_1
 62
     5
  6
CONTINUOUS
 66
     1
 40
0.003000
 41
0.003000
  0
VERTEX
  8
PLAN_1
 62
     5
  6
CONTINUOUS
 10
0.470614
 20
-0.150457
  0
VERTEX
  8
PLAN_1
 62
     5
  6
CONTINUOUS
 10
0.470614
 20
-0.158724
  0
SEQEND
  8
0
  0
POLYLINE
  8
PLAN_1
 62
     5
  6
CONTINUOUS
 66
     1
 40
0.003000
 41
0.003000
  0
VERTEX
  8
PLAN_1
 62
     5
  6
CONTINUOUS
 10
0.470614
 20
-0.167476
  0
VERTEX
  8
PLAN_1
 62
     5
  6
CONTINUOUS
 10
0.470614
 20
-0.175744
  0
SEQEND
  8
0
  0
POLYLINE
  8
PLAN_1
 62
     5
  6
CONTINUOUS
 66
     1
 40
0.003000
 41
0.003000
  0
VERTEX
  8
PLAN_1
 62
     5
  6
CONTINUOUS
 10
0.470614
 20
-0.184012
  0
VERTEX
  8
PLAN_1
 62
     5
  6
CONTINUOUS
 10
0.470614
 20
-0.192280
  0
SEQEND
  8
0
  0
POLYLINE
  8
PLAN_1
 62
     5
  6
CONTINUOUS
 66
     1
 40
0.003000
 41
0.003000
  0
VERTEX
  8
PLAN_1
 62
     5
  6
CONTINUOUS
 10
0.470614
 20
-0.200547
  0
VERTEX
  8
PLAN_1
 62
     5
  6
CONTINUOUS
 10
0.470614
 20
-0.208811
  0
SEQEND
  8
0
  0
POLYLINE
  8
PLAN_1
 62
     5
  6
CONTINUOUS
 66
     1
 40
0.003000
 41
0.003000
  0
VERTEX
  8
PLAN_1
 62
     5
  6
CONTINUOUS
 10
0.470614
 20
-0.217079
  0
VERTEX
  8
PLAN_1
 62
     5
  6
CONTINUOUS
 10
0.470614
 20
-0.225346
  0
SEQEND
  8
0
  0
POLYLINE
  8
PLAN_1
 62
     5
  6
CONTINUOUS
 66
     1
 40
0.003000
 41
0.003000
  0
VERTEX
  8
PLAN_1
 62
     5
  6
CONTINUOUS
 10
0.470614
 20
-0.234098
  0
VERTEX
  8
PLAN_1
 62
     5
  6
CONTINUOUS
 10
0.470614
 20
-0.242366
  0
SEQEND
  8
0
  0
POLYLINE
  8
PLAN_1
 62
     5
  6
CONTINUOUS
 66
     1
 40
0.003000
 41
0.003000
  0
VERTEX
  8
PLAN_1
 62
     5
  6
CONTINUOUS
 10
0.470614
 20
-0.250634
  0
VERTEX
  8
PLAN_1
 62
     5
  6
CONTINUOUS
 10
0.470614
 20
-0.258898
  0
SEQEND
  8
0
  0
POLYLINE
  8
PLAN_1
 62
     5
  6
CONTINUOUS
 66
     1
 40
0.003000
 41
0.003000
  0
VERTEX
  8
PLAN_1
 62
     5
  6
CONTINUOUS
 10
0.470614
 20
-0.267165
  0
VERTEX
  8
PLAN_1
 62
     5
  6
CONTINUOUS
 10
0.470614
 20
-0.275433
  0
SEQEND
  8
0
  0
POLYLINE
  8
PLAN_1
 62
     5
  6
CONTINUOUS
 66
     1
 40
0.003000
 41
0.003000
  0
VERTEX
  8
PLAN_1
 62
     5
  6
CONTINUOUS
 10
0.470614
 20
-0.283701
  0
VERTEX
  8
PLAN_1
 62
     5
  6
CONTINUOUS
 10
0.470614
 20
-0.291969
  0
SEQEND
  8
0
  0
POLYLINE
  8
PLAN_1
 62
     5
  6
CONTINUOUS
 66
     1
 40
0.003000
 41
0.003000
  0
VERTEX
  8
PLAN_1
 62
     5
  6
CONTINUOUS
 10
0.470614
 20
-0.300720
  0
VERTEX
  8
PLAN_1
 62
     5
  6
CONTINUOUS
 10
0.470614
 20
-0.308988
  0
SEQEND
  8
0
  0
POLYLINE
  8
PLAN_1
 62
     5
  6
CONTINUOUS
 66
     1
 40
0.003000
 41
0.003000
  0
VERTEX
  8
PLAN_1
 62
     5
  6
CONTINUOUS
 10
0.470614
 20
-0.317252
  0
VERTEX
  8
PLAN_1
 62
     5
  6
CONTINUOUS
 10
0.470614
 20
-0.322118
  0
SEQEND
  8
0
  0
POLYLINE
  8
PLAN_1
 62
     5
  6
CONTINUOUS
 66
     1
 40
0.003000
 41
0.003000
  0
VERTEX
  8
PLAN_1
 62
     5
  6
CONTINUOUS
 10
0.470614
 20
-0.317252
  0
VERTEX
  8
PLAN_1
 62
     5
  6
CONTINUOUS
 10
0.470614
 20
-0.322118
  0
SEQEND
  8
0
  0
POLYLINE
  8
PLAN_1
  6
CONTINUOUS
 66
     1
 40
0.008264
 41
0.008264
  0
VERTEX
  8
PLAN_1
  6
CONTINUOUS
 10
-0.675559
 20
0.515268
  0
VERTEX
  8
PLAN_1
  6
CONTINUOUS
 10
-0.675559
 20
0.734579
  0
VERTEX
  8
PLAN_1
  6
CONTINUOUS
 10
-1.091335
 20
0.734579
  0
SEQEND
  8
0
  0
POLYLINE
  8
PLAN_1
  6
CONTINUOUS
 66
     1
 40
0.008264
 41
0.008264
  0
VERTEX
  8
PLAN_1
  6
CONTINUOUS
 10
0.473531
 20
0.734579
  0
VERTEX
  8
PLAN_1
  6
CONTINUOUS
 10
0.079642
 20
0.734579
  0
VERTEX
  8
PLAN_1
  6
CONTINUOUS
 10
0.079642
 20
0.515268
  0
SEQEND
  8
0
  0
POLYLINE
  8
PLAN_1
  6
CONTINUOUS
 66
     1
 40
0.008264
 41
0.008264
  0
VERTEX
  8
PLAN_1
  6
CONTINUOUS
 10
-0.800535
 20
0.517697
  0
VERTEX
  8
PLAN_1
  6
CONTINUOUS
 10
-0.800535
 20
0.734579
  0
SEQEND
  8
0
  0
POLYLINE
  8
PLAN_1
  6
CONTINUOUS
 66
     1
 40
0.008264
 41
0.008264
  0
VERTEX
  8
PLAN_1
  6
CONTINUOUS
 10
0.185650
 20
0.517697
  0
VERTEX
  8
PLAN_1
  6
CONTINUOUS
 10
0.185650
 20
0.734579
  0
SEQEND
  8
0
  0
POLYLINE
  8
PLAN_1
  6
CONTINUOUS
 66
     1
 40
0.008264
 41
0.008264
  0
VERTEX
  8
PLAN_1
  6
CONTINUOUS
 10
-1.518291
 20
0.947575
  0
VERTEX
  8
PLAN_1
  6
CONTINUOUS
 10
-1.518291
 20
1.838933
  0
SEQEND
  8
0
  0
POLYLINE
  8
PLAN_1
  6
CONTINUOUS
 66
     1
 40
0.006807
 41
0.006807
  0
VERTEX
  8
PLAN_1
  6
CONTINUOUS
 10
-1.213390
 20
0.902835
  0
VERTEX
  8
PLAN_1
  6
CONTINUOUS
 10
-1.213390
 20
1.888047
  0
SEQEND
  8
0
  0
POLYLINE
  8
PLAN_1
  6
CONTINUOUS
 66
     1
 40
0.008264
 41
0.008264
  0
VERTEX
  8
PLAN_1
  6
CONTINUOUS
 10
-2.036185
 20
0.859071
  0
VERTEX
  8
PLAN_1
  6
CONTINUOUS
 10
-2.036185
 20
1.918685
  0
VERTEX
  8
PLAN_1
  6
CONTINUOUS
 10
-2.271059
 20
1.918685
  0
VERTEX
  8
PLAN_1
  6
CONTINUOUS
 10
-2.271059
 20
0.859071
  0
VERTEX
  8
PLAN_1
  6
CONTINUOUS
 10
-2.036185
 20
0.859071
  0
SEQEND
  8
0
  0
POLYLINE
  8
PLAN_1
  6
CONTINUOUS
 66
     1
 40
0.008264
 41
0.008264
  0
VERTEX
  8
PLAN_1
  6
CONTINUOUS
 10
-2.271059
 20
1.090055
  0
VERTEX
  8
PLAN_1
  6
CONTINUOUS
 10
-2.271059
 20
1.678461
  0
VERTEX
  8
PLAN_1
  6
CONTINUOUS
 10
-2.410622
 20
1.678461
  0
VERTEX
  8
PLAN_1
  6
CONTINUOUS
 10
-2.410622
 20
1.090055
  0
VERTEX
  8
PLAN_1
  6
CONTINUOUS
 10
-2.271059
 20
1.090055
  0
SEQEND
  8
0
  0
POLYLINE
  8
PLAN_1
  6
CONTINUOUS
 66
     1
 40
0.008264
 41
0.008264
  0
VERTEX
  8
PLAN_1
  6
CONTINUOUS
 10
-2.409650
 20
1.528197
  0
VERTEX
  8
PLAN_1
  6
CONTINUOUS
 10
-2.274949
 20
1.528197
  0
SEQEND
  8
0
  0
POLYLINE
  8
PLAN_1
  6
CONTINUOUS
 66
     1
 40
0.008264
 41
0.008264
  0
VERTEX
  8
PLAN_1
  6
CONTINUOUS
 10
-2.409650
 20
1.239831
  0
VERTEX
  8
PLAN_1
  6
CONTINUOUS
 10
-2.274949
 20
1.239831
  0
SEQEND
  8
0
  0
POLYLINE
  8
PLAN_1
  6
CONTINUOUS
 66
     1
 40
0.008264
 41
0.008264
  0
VERTEX
  8
PLAN_1
  6
CONTINUOUS
 10
-2.393602
 20
1.677972
  0
VERTEX
  8
PLAN_1
  6
CONTINUOUS
 10
-2.395063
 20
1.674567
  0
VERTEX
  8
PLAN_1
  6
CONTINUOUS
 10
-2.399437
 20
1.664843
  0
VERTEX
  8
PLAN_1
  6
CONTINUOUS
 10
-2.401386
 20
1.658035
  0
VERTEX
  8
PLAN_1
  6
CONTINUOUS
 10
-2.403815
 20
1.649768
  0
VERTEX
  8
PLAN_1
  6
CONTINUOUS
 10
-2.406248
 20
1.640528
  0
VERTEX
  8
PLAN_1
  6
CONTINUOUS
 10
-2.408193
 20
1.630803
  0
VERTEX
  8
PLAN_1
  6
CONTINUOUS
 10
-2.409650
 20
1.619618
  0
VERTEX
  8
PLAN_1
  6
CONTINUOUS
 10
-2.410138
 20
1.607949
  0
VERTEX
  8
PLAN_1
  6
CONTINUOUS
 10
-2.410622
 20
1.601626
  0
VERTEX
  8
PLAN_1
  6
CONTINUOUS
 10
-2.410138
 20
1.595303
  0
VERTEX
  8
PLAN_1
  6
CONTINUOUS
 10
-2.409650
 20
1.588984
  0
VERTEX
  8
PLAN_1
  6
CONTINUOUS
 10
-2.409165
 20
1.582661
  0
VERTEX
  8
PLAN_1
  6
CONTINUOUS
 10
-2.408193
 20
1.575854
  0
VERTEX
  8
PLAN_1
  6
CONTINUOUS
 10
-2.406732
 20
1.569043
  0
VERTEX
  8
PLAN_1
  6
CONTINUOUS
 10
-2.404787
 20
1.562236
  0
VERTEX
  8
PLAN_1
  6
CONTINUOUS
 10
-2.402843
 20
1.555429
  0
VERTEX
  8
PLAN_1
  6
CONTINUOUS
 10
-2.400413
 20
1.548622
  0
VERTEX
  8
PLAN_1
  6
CONTINUOUS
 10
-2.397492
 20
1.541815
  0
VERTEX
  8
PLAN_1
  6
CONTINUOUS
 10
-2.394091
 20
1.534520
  0
VERTEX
  8
PLAN_1
  6
CONTINUOUS
 10
-2.390685
 20
1.527713
  0
VERTEX
  8
PLAN_1
  6
CONTINUOUS
 10
-2.392146
 20
1.522362
  0
VERTEX
  8
PLAN_1
  6
CONTINUOUS
 10
-2.396520
 20
1.506799
  0
VERTEX
  8
PLAN_1
  6
CONTINUOUS
 10
-2.398953
 20
1.495614
  0
VERTEX
  8
PLAN_1
  6
CONTINUOUS
 10
-2.401870
 20
1.482000
  0
VERTEX
  8
PLAN_1
  6
CONTINUOUS
 10
-2.404303
 20
1.465953
  0
VERTEX
  8
PLAN_1
  6
CONTINUOUS
 10
-2.406732
 20
1.448445
  0
VERTEX
  8
PLAN_1
  6
CONTINUOUS
 10
-2.408677
 20
1.428508
  0
VERTEX
  8
PLAN_1
  6
CONTINUOUS
 10
-2.410138
 20
1.406626
  0
VERTEX
  8
PLAN_1
  6
CONTINUOUS
 10
-2.410138
 20
1.394957
  0
VERTEX
  8
PLAN_1
  6
CONTINUOUS
 10
-2.410622
 20
1.382799
  0
VERTEX
  8
PLAN_1
  6
CONTINUOUS
 10
-2.410138
 20
1.370154
  0
VERTEX
  8
PLAN_1
  6
CONTINUOUS
 10
-2.410138
 20
1.357512
  0
VERTEX
  8
PLAN_1
  6
CONTINUOUS
 10
-2.409165
 20
1.343894
  0
VERTEX
  8
PLAN_1
  6
CONTINUOUS
 10
-2.408193
 20
1.330280
  0
VERTEX
  8
PLAN_1
  6
CONTINUOUS
 10
-2.406732
 20
1.316177
  0
VERTEX
  8
PLAN_1
  6
CONTINUOUS
 10
-2.405276
 20
1.301587
  0
VERTEX
  8
PLAN_1
  6
CONTINUOUS
 10
-2.402843
 20
1.286512
  0
VERTEX
  8
PLAN_1
  6
CONTINUOUS
 10
-2.400413
 20
1.271437
  0
VERTEX
  8
PLAN_1
  6
CONTINUOUS
 10
-2.397492
 20
1.255878
  0
VERTEX
  8
PLAN_1
  6
CONTINUOUS
 10
-2.394091
 20
1.239831
  0
VERTEX
  8
PLAN_1
  6
CONTINUOUS
 10
-2.396035
 20
1.236425
  0
VERTEX
  8
PLAN_1
  6
CONTINUOUS
 10
-2.399925
 20
1.227185
  0
VERTEX
  8
PLAN_1
  6
CONTINUOUS
 10
-2.401870
 20
1.220378
  0
VERTEX
  8
PLAN_1
  6
CONTINUOUS
 10
-2.404303
 20
1.212598
  0
VERTEX
  8
PLAN_1
  6
CONTINUOUS
 10
-2.406732
 20
1.203358
  0
VERTEX
  8
PLAN_1
  6
CONTINUOUS
 10
-2.408677
 20
1.193634
  0
VERTEX
  8
PLAN_1
  6
CONTINUOUS
 10
-2.410138
 20
1.182449
  0
VERTEX
  8
PLAN_1
  6
CONTINUOUS
 10
-2.410622
 20
1.171264
  0
VERTEX
  8
PLAN_1
  6
CONTINUOUS
 10
-2.411110
 20
1.164941
  0
VERTEX
  8
PLAN_1
  6
CONTINUOUS
 10
-2.410622
 20
1.158622
  0
VERTEX
  8
PLAN_1
  6
CONTINUOUS
 10
-2.410138
 20
1.152299
  0
VERTEX
  8
PLAN_1
  6
CONTINUOUS
 10
-2.409650
 20
1.145976
  0
VERTEX
  8
PLAN_1
  6
CONTINUOUS
 10
-2.408677
 20
1.139654
  0
VERTEX
  8
PLAN_1
  6
CONTINUOUS
 10
-2.407220
 20
1.132846
  0
VERTEX
  8
PLAN_1
  6
CONTINUOUS
 10
-2.405760
 20
1.126039
  0
VERTEX
  8
PLAN_1
  6
CONTINUOUS
 10
-2.403331
 20
1.119232
  0
VERTEX
  8
PLAN_1
  6
CONTINUOUS
 10
-2.400898
 20
1.112425
  0
VERTEX
  8
PLAN_1
  6
CONTINUOUS
 10
-2.397980
 20
1.105614
  0
VERTEX
  8
PLAN_1
  6
CONTINUOUS
 10
-2.395063
 20
1.098807
  0
VERTEX
  8
PLAN_1
  6
CONTINUOUS
 10
-2.391173
 20
1.091512
  0
SEQEND
  8
0
  0
POLYLINE
  8
PLAN_1
  6
CONTINUOUS
 66
     1
 40
0.008264
 41
0.008264
  0
VERTEX
  8
PLAN_1
  6
CONTINUOUS
 10
-1.609224
 20
2.212886
  0
VERTEX
  8
PLAN_1
  6
CONTINUOUS
 10
-1.609224
 20
3.272988
  0
VERTEX
  8
PLAN_1
  6
CONTINUOUS
 10
-1.374350
 20
3.272988
  0
VERTEX
  8
PLAN_1
  6
CONTINUOUS
 10
-1.374350
 20
2.212886
  0
VERTEX
  8
PLAN_1
  6
CONTINUOUS
 10
-1.609224
 20
2.212886
  0
SEQEND
  8
0
  0
POLYLINE
  8
PLAN_1
  6
CONTINUOUS
 66
     1
 40
0.008264
 41
0.008264
  0
VERTEX
  8
PLAN_1
  6
CONTINUOUS
 10
-2.036185
 20
2.491528
  0
VERTEX
  8
PLAN_1
  6
CONTINUOUS
 10
-2.036185
 20
2.988024
  0
VERTEX
  8
PLAN_1
  6
CONTINUOUS
 10
-1.943303
 20
2.988024
  0
VERTEX
  8
PLAN_1
  6
CONTINUOUS
 10
-1.943303
 20
2.491528
  0
VERTEX
  8
PLAN_1
  6
CONTINUOUS
 10
-2.036185
 20
2.491528
  0
SEQEND
  8
0
  0
POLYLINE
  8
PLAN_1
  6
CONTINUOUS
 66
     1
 40
0.008264
 41
0.008264
  0
VERTEX
  8
PLAN_1
  6
CONTINUOUS
 10
-2.036185
 20
1.124094
  0
VERTEX
  8
PLAN_1
  6
CONTINUOUS
 10
-2.036185
 20
1.653657
  0
VERTEX
  8
PLAN_1
  6
CONTINUOUS
 10
-2.161646
 20
1.653657
  0
VERTEX
  8
PLAN_1
  6
CONTINUOUS
 10
-2.161646
 20
1.124094
  0
VERTEX
  8
PLAN_1
  6
CONTINUOUS
 10
-2.036185
 20
1.124094
  0
SEQEND
  8
0
  0
POLYLINE
  8
PLAN_1
  6
CONTINUOUS
 66
     1
 40
0.008264
 41
0.008264
  0
VERTEX
  8
PLAN_1
  6
CONTINUOUS
 10
-2.160673
 20
1.517984
  0
VERTEX
  8
PLAN_1
  6
CONTINUOUS
 10
-2.039587
 20
1.517984
  0
SEQEND
  8
0
  0
POLYLINE
  8
PLAN_1
  6
CONTINUOUS
 66
     1
 40
0.008264
 41
0.008264
  0
VERTEX
  8
PLAN_1
  6
CONTINUOUS
 10
-2.160673
 20
1.258795
  0
VERTEX
  8
PLAN_1
  6
CONTINUOUS
 10
-2.039587
 20
1.258795
  0
SEQEND
  8
0
  0
POLYLINE
  8
PLAN_1
  6
CONTINUOUS
 66
     1
 40
0.008264
 41
0.008264
  0
VERTEX
  8
PLAN_1
  6
CONTINUOUS
 10
-2.146571
 20
1.653173
  0
VERTEX
  8
PLAN_1
  6
CONTINUOUS
 10
-2.148031
 20
1.649768
  0
VERTEX
  8
PLAN_1
  6
CONTINUOUS
 10
-2.151433
 20
1.641500
  0
VERTEX
  8
PLAN_1
  6
CONTINUOUS
 10
-2.153866
 20
1.635181
  0
VERTEX
  8
PLAN_1
  6
CONTINUOUS
 10
-2.155811
 20
1.627886
  0
VERTEX
  8
PLAN_1
  6
CONTINUOUS
 10
-2.157756
 20
1.619618
  0
VERTEX
  8
PLAN_1
  6
CONTINUOUS
 10
-2.159701
 20
1.610378
  0
VERTEX
  8
PLAN_1
  6
CONTINUOUS
 10
-2.161157
 20
1.600654
  0
VERTEX
  8
PLAN_1
  6
CONTINUOUS
 10
-2.161646
 20
1.589957
  0
VERTEX
  8
PLAN_1
  6
CONTINUOUS
 10
-2.161646
 20
1.578772
  0
VERTEX
  8
PLAN_1
  6
CONTINUOUS
 10
-2.160673
 20
1.567098
  0
VERTEX
  8
PLAN_1
  6
CONTINUOUS
 10
-2.159701
 20
1.561264
  0
VERTEX
  8
PLAN_1
  6
CONTINUOUS
 10
-2.158240
 20
1.554941
  0
VERTEX
  8
PLAN_1
  6
CONTINUOUS
 10
-2.156783
 20
1.549106
  0
VERTEX
  8
PLAN_1
  6
CONTINUOUS
 10
-2.154839
 20
1.542787
  0
VERTEX
  8
PLAN_1
  6
CONTINUOUS
 10
-2.152894
 20
1.536465
  0
VERTEX
  8
PLAN_1
  6
CONTINUOUS
 10
-2.149976
 20
1.530142
  0
VERTEX
  8
PLAN_1
  6
CONTINUOUS
 10
-2.147055
 20
1.524307
  0
VERTEX
  8
PLAN_1
  6
CONTINUOUS
 10
-2.143654
 20
1.517984
  0
VERTEX
  8
PLAN_1
  6
CONTINUOUS
 10
-2.145110
 20
1.513122
  0
VERTEX
  8
PLAN_1
  6
CONTINUOUS
 10
-2.149004
 20
1.499020
  0
VERTEX
  8
PLAN_1
  6
CONTINUOUS
 10
-2.151433
 20
1.488807
  0
VERTEX
  8
PLAN_1
  6
CONTINUOUS
 10
-2.153866
 20
1.476650
  0
VERTEX
  8
PLAN_1
  6
CONTINUOUS
 10
-2.156295
 20
1.462547
  0
VERTEX
  8
PLAN_1
  6
CONTINUOUS
 10
-2.158240
 20
1.446500
  0
VERTEX
  8
PLAN_1
  6
CONTINUOUS
 10
-2.160185
 20
1.428508
  0
VERTEX
  8
PLAN_1
  6
CONTINUOUS
 10
-2.161157
 20
1.408571
  0
VERTEX
  8
PLAN_1
  6
CONTINUOUS
 10
-2.161646
 20
1.387661
  0
VERTEX
  8
PLAN_1
  6
CONTINUOUS
 10
-2.161157
 20
1.364807
  0
VERTEX
  8
PLAN_1
  6
CONTINUOUS
 10
-2.160673
 20
1.352650
  0
VERTEX
  8
PLAN_1
  6
CONTINUOUS
 10
-2.159701
 20
1.340004
  0
VERTEX
  8
PLAN_1
  6
CONTINUOUS
 10
-2.158240
 20
1.327362
  0
VERTEX
  8
PLAN_1
  6
CONTINUOUS
 10
-2.156783
 20
1.314232
  0
VERTEX
  8
PLAN_1
  6
CONTINUOUS
 10
-2.154839
 20
1.301102
  0
VERTEX
  8
PLAN_1
  6
CONTINUOUS
 10
-2.152894
 20
1.287000
  0
VERTEX
  8
PLAN_1
  6
CONTINUOUS
 10
-2.149976
 20
1.272898
  0
VERTEX
  8
PLAN_1
  6
CONTINUOUS
 10
-2.147055
 20
1.258795
  0
VERTEX
  8
PLAN_1
  6
CONTINUOUS
 10
-2.148516
 20
1.255878
  0
VERTEX
  8
PLAN_1
  6
CONTINUOUS
 10
-2.151921
 20
1.247126
  0
VERTEX
  8
PLAN_1
  6
CONTINUOUS
 10
-2.154350
 20
1.241287
  0
VERTEX
  8
PLAN_1
  6
CONTINUOUS
 10
-2.156295
 20
1.233996
  0
VERTEX
  8
PLAN_1
  6
CONTINUOUS
 10
-2.158240
 20
1.226213
  0
VERTEX
  8
PLAN_1
  6
CONTINUOUS
 10
-2.160185
 20
1.216976
  0
VERTEX
  8
PLAN_1
  6
CONTINUOUS
 10
-2.161157
 20
1.207248
  0
VERTEX
  8
PLAN_1
  6
CONTINUOUS
 10
-2.162134
 20
1.197035
  0
VERTEX
  8
PLAN_1
  6
CONTINUOUS
 10
-2.162134
 20
1.185854
  0
VERTEX
  8
PLAN_1
  6
CONTINUOUS
 10
-2.161157
 20
1.174181
  0
VERTEX
  8
PLAN_1
  6
CONTINUOUS
 10
-2.160185
 20
1.168346
  0
VERTEX
  8
PLAN_1
  6
CONTINUOUS
 10
-2.158728
 20
1.162512
  0
VERTEX
  8
PLAN_1
  6
CONTINUOUS
 10
-2.157268
 20
1.156189
  0
VERTEX
  8
PLAN_1
  6
CONTINUOUS
 10
-2.155323
 20
1.150354
  0
VERTEX
  8
PLAN_1
  6
CONTINUOUS
 10
-2.153378
 20
1.144031
  0
VERTEX
  8
PLAN_1
  6
CONTINUOUS
 10
-2.150461
 20
1.137709
  0
VERTEX
  8
PLAN_1
  6
CONTINUOUS
 10
-2.147543
 20
1.131874
  0
VERTEX
  8
PLAN_1
  6
CONTINUOUS
 10
-2.144138
 20
1.125555
  0
SEQEND
  8
0
  0
POLYLINE
  8
PLAN_1
  6
CONTINUOUS
 66
     1
 40
0.008264
 41
0.008264
  0
VERTEX
  8
PLAN_1
  6
CONTINUOUS
 10
-1.918504
 20
1.840878
  0
VERTEX
  8
PLAN_1
  6
CONTINUOUS
 10
-2.037157
 20
1.840878
  0
VERTEX
  8
PLAN_1
  6
CONTINUOUS
 10
-2.037157
 20
0.941736
  0
VERTEX
  8
PLAN_1
  6
CONTINUOUS
 10
-1.516346
 20
0.941736
  0
VERTEX
  8
PLAN_1
  6
CONTINUOUS
 10
-1.213390
 20
0.902835
  0
VERTEX
  8
PLAN_1
  6
CONTINUOUS
 10
-1.088413
 20
0.902835
  0
VERTEX
  8
PLAN_1
  6
CONTINUOUS
 10
-1.088413
 20
1.888047
  0
VERTEX
  8
PLAN_1
  6
CONTINUOUS
 10
-1.213390
 20
1.888047
  0
VERTEX
  8
PLAN_1
  6
CONTINUOUS
 10
-1.516346
 20
1.840878
  0
VERTEX
  8
PLAN_1
  6
CONTINUOUS
 10
-1.635000
 20
1.840878
  0
SEQEND
  8
0
  0
POLYLINE
  8
PLAN_1
  6
CONTINUOUS
 66
     1
 40
0.008264
 41
0.008264
  0
VERTEX
  8
PLAN_1
  6
CONTINUOUS
 10
-1.635000
 20
2.447760
  0
VERTEX
  8
PLAN_1
  6
CONTINUOUS
 10
-1.611169
 20
2.447760
  0
VERTEX
  8
PLAN_1
  6
CONTINUOUS
 10
-1.611169
 20
3.015744
  0
VERTEX
  8
PLAN_1
  6
CONTINUOUS
 10
-1.942331
 20
3.015744
  0
VERTEX
  8
PLAN_1
  6
CONTINUOUS
 10
-1.942331
 20
2.447760
  0
VERTEX
  8
PLAN_1
  6
CONTINUOUS
 10
-1.918504
 20
2.447760
  0
SEQEND
  8
0
  0
POLYLINE
  8
PLAN_1
  6
CONTINUOUS
 66
     1
 40
0.008264
 41
0.008264
  0
VERTEX
  8
PLAN_1
  6
CONTINUOUS
 10
-1.918504
 20
2.587327
  0
VERTEX
  8
PLAN_1
  6
CONTINUOUS
 10
-1.918504
 20
2.447760
  0
SEQEND
  8
0
  0
POLYLINE
  8
PLAN_1
  6
CONTINUOUS
 66
     1
 40
0.008264
 41
0.008264
  0
VERTEX
  8
PLAN_1
  6
CONTINUOUS
 10
-1.918504
 20
1.840878
  0
VERTEX
  8
PLAN_1
  6
CONTINUOUS
 10
-1.918504
 20
1.660953
  0
SEQEND
  8
0
  0
POLYLINE
  8
PLAN_1
  6
CONTINUOUS
 66
     1
 40
0.008264
 41
0.008264
  0
VERTEX
  8
PLAN_1
  6
CONTINUOUS
 10
-1.918504
 20
1.840878
  0
VERTEX
  8
PLAN_1
  6
CONTINUOUS
 10
-1.918504
 20
2.447760
  0
SEQEND
  8
0
  0
POLYLINE
  8
PLAN_1
  6
CONTINUOUS
 66
     1
 40
0.008264
 41
0.008264
  0
VERTEX
  8
PLAN_1
  6
CONTINUOUS
 10
-1.635000
 20
1.840878
  0
VERTEX
  8
PLAN_1
  6
CONTINUOUS
 10
-1.635000
 20
2.447760
  0
SEQEND
  8
0
  0
POLYLINE
  8
PLAN_1
  6
CONTINUOUS
 66
     1
 40
0.008264
 41
0.008264
  0
VERTEX
  8
PLAN_1
  6
CONTINUOUS
 10
-1.635000
 20
2.447760
  0
VERTEX
  8
PLAN_1
  6
CONTINUOUS
 10
-1.635000
 20
2.587327
  0
SEQEND
  8
0
  0
POLYLINE
  8
PLAN_1
  6
CONTINUOUS
 66
     1
 40
0.008264
 41
0.008264
  0
VERTEX
  8
PLAN_1
  6
CONTINUOUS
 10
-1.635000
 20
1.660953
  0
VERTEX
  8
PLAN_1
  6
CONTINUOUS
 10
-1.635000
 20
1.840878
  0
SEQEND
  8
0
  0
POLYLINE
  8
PLAN_1
  6
CONTINUOUS
 66
     1
 40
0.008264
 41
0.008264
  0
VERTEX
  8
PLAN_1
  6
CONTINUOUS
 10
-2.161646
 20
1.236913
  0
VERTEX
  8
PLAN_1
  6
CONTINUOUS
 10
-2.161646
 20
1.537437
  0
VERTEX
  8
PLAN_1
  6
CONTINUOUS
 10
-2.220000
 20
1.537437
  0
VERTEX
  8
PLAN_1
  6
CONTINUOUS
 10
-2.220000
 20
1.236913
  0
VERTEX
  8
PLAN_1
  6
CONTINUOUS
 10
-2.161646
 20
1.236913
  0
SEQEND
  8
0
  0
POLYLINE
  8
PLAN_1
  6
CONTINUOUS
 66
     1
 40
0.008264
 41
0.008264
  0
VERTEX
  8
PLAN_1
  6
CONTINUOUS
 10
-2.220000
 20
1.536465
  0
VERTEX
  8
PLAN_1
  6
CONTINUOUS
 10
-2.230697
 20
1.525764
  0
VERTEX
  8
PLAN_1
  6
CONTINUOUS
 10
-2.230697
 20
1.247126
  0
VERTEX
  8
PLAN_1
  6
CONTINUOUS
 10
-2.220000
 20
1.236913
  0
SEQEND
  8
0
  0
POLYLINE
  8
PLAN_1
  6
CONTINUOUS
 66
     1
 40
0.008264
 41
0.008264
  0
VERTEX
  8
PLAN_1
  6
CONTINUOUS
 10
-1.374350
 20
2.444358
  0
VERTEX
  8
PLAN_1
  6
CONTINUOUS
 10
-1.374350
 20
3.032276
  0
VERTEX
  8
PLAN_1
  6
CONTINUOUS
 10
-1.235272
 20
3.032276
  0
VERTEX
  8
PLAN_1
  6
CONTINUOUS
 10
-1.235272
 20
2.444358
  0
VERTEX
  8
PLAN_1
  6
CONTINUOUS
 10
-1.374350
 20
2.444358
  0
SEQEND
  8
0
  0
POLYLINE
  8
PLAN_1
  6
CONTINUOUS
 66
     1
 40
0.008264
 41
0.008264
  0
VERTEX
  8
PLAN_1
  6
CONTINUOUS
 10
-1.235760
 20
2.882016
  0
VERTEX
  8
PLAN_1
  6
CONTINUOUS
 10
-1.370461
 20
2.882016
  0
SEQEND
  8
0
  0
POLYLINE
  8
PLAN_1
  6
CONTINUOUS
 66
     1
 40
0.008264
 41
0.008264
  0
VERTEX
  8
PLAN_1
  6
CONTINUOUS
 10
-1.235760
 20
2.594134
  0
VERTEX
  8
PLAN_1
  6
CONTINUOUS
 10
-1.370461
 20
2.594134
  0
SEQEND
  8
0
  0
POLYLINE
  8
PLAN_1
  6
CONTINUOUS
 66
     1
 40
0.008264
 41
0.008264
  0
VERTEX
  8
PLAN_1
  6
CONTINUOUS
 10
-1.251807
 20
3.032276
  0
VERTEX
  8
PLAN_1
  6
CONTINUOUS
 10
-1.250346
 20
3.028870
  0
VERTEX
  8
PLAN_1
  6
CONTINUOUS
 10
-1.246457
 20
3.019146
  0
VERTEX
  8
PLAN_1
  6
CONTINUOUS
 10
-1.244028
 20
3.012339
  0
VERTEX
  8
PLAN_1
  6
CONTINUOUS
 10
-1.241594
 20
3.004071
  0
VERTEX
  8
PLAN_1
  6
CONTINUOUS
 10
-1.239161
 20
2.994831
  0
VERTEX
  8
PLAN_1
  6
CONTINUOUS
 10
-1.237217
 20
2.984618
  0
VERTEX
  8
PLAN_1
  6
CONTINUOUS
 10
-1.235760
 20
2.973921
  0
VERTEX
  8
PLAN_1
  6
CONTINUOUS
 10
-1.235272
 20
2.961764
  0
VERTEX
  8
PLAN_1
  6
CONTINUOUS
 10
-1.235272
 20
2.955929
  0
VERTEX
  8
PLAN_1
  6
CONTINUOUS
 10
-1.235272
 20
2.949606
  0
VERTEX
  8
PLAN_1
  6
CONTINUOUS
 10
-1.235760
 20
2.943287
  0
VERTEX
  8
PLAN_1
  6
CONTINUOUS
 10
-1.236244
 20
2.936476
  0
VERTEX
  8
PLAN_1
  6
CONTINUOUS
 10
-1.237217
 20
2.930157
  0
VERTEX
  8
PLAN_1
  6
CONTINUOUS
 10
-1.238677
 20
2.923346
  0
VERTEX
  8
PLAN_1
  6
CONTINUOUS
 10
-1.240622
 20
2.916539
  0
VERTEX
  8
PLAN_1
  6
CONTINUOUS
 10
-1.242567
 20
2.909732
  0
VERTEX
  8
PLAN_1
  6
CONTINUOUS
 10
-1.245000
 20
2.902925
  0
VERTEX
  8
PLAN_1
  6
CONTINUOUS
 10
-1.247917
 20
2.895630
  0
VERTEX
  8
PLAN_1
  6
CONTINUOUS
 10
-1.251319
 20
2.888823
  0
VERTEX
  8
PLAN_1
  6
CONTINUOUS
 10
-1.254724
 20
2.882016
  0
VERTEX
  8
PLAN_1
  6
CONTINUOUS
 10
-1.253264
 20
2.876665
  0
VERTEX
  8
PLAN_1
  6
CONTINUOUS
 10
-1.248890
 20
2.861102
  0
VERTEX
  8
PLAN_1
  6
CONTINUOUS
 10
-1.246457
 20
2.849917
  0
VERTEX
  8
PLAN_1
  6
CONTINUOUS
 10
-1.243539
 20
2.836303
  0
VERTEX
  8
PLAN_1
  6
CONTINUOUS
 10
-1.241110
 20
2.820256
  0
VERTEX
  8
PLAN_1
  6
CONTINUOUS
 10
-1.238677
 20
2.802264
  0
VERTEX
  8
PLAN_1
  6
CONTINUOUS
 10
-1.236732
 20
2.782327
  0
VERTEX
  8
PLAN_1
  6
CONTINUOUS
 10
-1.235272
 20
2.760929
  0
VERTEX
  8
PLAN_1
  6
CONTINUOUS
 10
-1.235272
 20
2.749260
  0
VERTEX
  8
PLAN_1
  6
CONTINUOUS
 10
-1.235272
 20
2.737102
  0
VERTEX
  8
PLAN_1
  6
CONTINUOUS
 10
-1.235272
 20
2.724457
  0
VERTEX
  8
PLAN_1
  6
CONTINUOUS
 10
-1.235760
 20
2.711327
  0
VERTEX
  8
PLAN_1
  6
CONTINUOUS
 10
-1.236244
 20
2.698197
  0
VERTEX
  8
PLAN_1
  6
CONTINUOUS
 10
-1.237217
 20
2.684583
  0
VERTEX
  8
PLAN_1
  6
CONTINUOUS
 10
-1.238677
 20
2.670480
  0
VERTEX
  8
PLAN_1
  6
CONTINUOUS
 10
-1.240138
 20
2.655890
  0
VERTEX
  8
PLAN_1
  6
CONTINUOUS
 10
-1.242567
 20
2.640815
  0
VERTEX
  8
PLAN_1
  6
CONTINUOUS
 10
-1.245000
 20
2.625740
  0
VERTEX
  8
PLAN_1
  6
CONTINUOUS
 10
-1.247917
 20
2.609693
  0
VERTEX
  8
PLAN_1
  6
CONTINUOUS
 10
-1.251319
 20
2.594134
  0
VERTEX
  8
PLAN_1
  6
CONTINUOUS
 10
-1.249862
 20
2.590728
  0
VERTEX
  8
PLAN_1
  6
CONTINUOUS
 10
-1.245972
 20
2.581004
  0
VERTEX
  8
PLAN_1
  6
CONTINUOUS
 10
-1.243539
 20
2.574681
  0
VERTEX
  8
PLAN_1
  6
CONTINUOUS
 10
-1.241110
 20
2.566413
  0
VERTEX
  8
PLAN_1
  6
CONTINUOUS
 10
-1.238677
 20
2.557661
  0
VERTEX
  8
PLAN_1
  6
CONTINUOUS
 10
-1.236732
 20
2.547449
  0
VERTEX
  8
PLAN_1
  6
CONTINUOUS
 10
-1.235272
 20
2.536752
  0
VERTEX
  8
PLAN_1
  6
CONTINUOUS
 10
-1.234787
 20
2.525083
  0
VERTEX
  8
PLAN_1
  6
CONTINUOUS
 10
-1.234787
 20
2.519244
  0
VERTEX
  8
PLAN_1
  6
CONTINUOUS
 10
-1.234787
 20
2.512925
  0
VERTEX
  8
PLAN_1
  6
CONTINUOUS
 10
-1.235272
 20
2.506602
  0
VERTEX
  8
PLAN_1
  6
CONTINUOUS
 10
-1.235760
 20
2.500280
  0
VERTEX
  8
PLAN_1
  6
CONTINUOUS
 10
-1.236732
 20
2.493472
  0
VERTEX
  8
PLAN_1
  6
CONTINUOUS
 10
-1.238189
 20
2.487150
  0
VERTEX
  8
PLAN_1
  6
CONTINUOUS
 10
-1.240138
 20
2.480343
  0
VERTEX
  8
PLAN_1
  6
CONTINUOUS
 10
-1.242083
 20
2.473535
  0
VERTEX
  8
PLAN_1
  6
CONTINUOUS
 10
-1.244512
 20
2.466728
  0
VERTEX
  8
PLAN_1
  6
CONTINUOUS
 10
-1.247429
 20
2.459917
  0
VERTEX
  8
PLAN_1
  6
CONTINUOUS
 10
-1.250835
 20
2.452626
  0
VERTEX
  8
PLAN_1
  6
CONTINUOUS
 10
-1.254240
 20
2.445815
  0
SEQEND
  8
0
  0
POLYLINE
  8
PLAN_1
  6
CONTINUOUS
 66
     1
 40
0.008264
 41
0.008264
  0
VERTEX
  8
PLAN_1
  6
CONTINUOUS
 10
-2.133929
 20
2.540642
  0
VERTEX
  8
PLAN_1
  6
CONTINUOUS
 10
-2.133929
 20
2.952039
  0
VERTEX
  8
PLAN_1
  6
CONTINUOUS
 10
-2.036185
 20
2.952039
  0
VERTEX
  8
PLAN_1
  6
CONTINUOUS
 10
-2.036185
 20
2.540642
  0
VERTEX
  8
PLAN_1
  6
CONTINUOUS
 10
-2.133929
 20
2.540642
  0
SEQEND
  8
0
  0
POLYLINE
  8
PLAN_1
  6
CONTINUOUS
 66
     1
 40
0.008264
 41
0.008264
  0
VERTEX
  8
PLAN_1
  6
CONTINUOUS
 10
-2.036669
 20
2.845055
  0
VERTEX
  8
PLAN_1
  6
CONTINUOUS
 10
-2.133441
 20
2.845055
  0
SEQEND
  8
0
  0
POLYLINE
  8
PLAN_1
  6
CONTINUOUS
 66
     1
 40
0.008264
 41
0.008264
  0
VERTEX
  8
PLAN_1
  6
CONTINUOUS
 10
-2.036669
 20
2.648598
  0
VERTEX
  8
PLAN_1
  6
CONTINUOUS
 10
-2.133441
 20
2.648598
  0
SEQEND
  8
0
  0
POLYLINE
  8
PLAN_1
  6
CONTINUOUS
 66
     1
 40
0.008264
 41
0.008264
  0
VERTEX
  8
PLAN_1
  6
CONTINUOUS
 10
-2.121772
 20
2.541614
  0
VERTEX
  8
PLAN_1
  6
CONTINUOUS
 10
-2.122744
 20
2.544047
  0
VERTEX
  8
PLAN_1
  6
CONTINUOUS
 10
-2.125661
 20
2.550854
  0
VERTEX
  8
PLAN_1
  6
CONTINUOUS
 10
-2.127118
 20
2.555717
  0
VERTEX
  8
PLAN_1
  6
CONTINUOUS
 10
-2.128579
 20
2.561551
  0
VERTEX
  8
PLAN_1
  6
CONTINUOUS
 10
-2.130035
 20
2.567874
  0
VERTEX
  8
PLAN_1
  6
CONTINUOUS
 10
-2.131496
 20
2.575169
  0
VERTEX
  8
PLAN_1
  6
CONTINUOUS
 10
-2.132469
 20
2.582949
  0
VERTEX
  8
PLAN_1
  6
CONTINUOUS
 10
-2.132957
 20
2.591217
  0
VERTEX
  8
PLAN_1
  6
CONTINUOUS
 10
-2.133441
 20
2.599969
  0
VERTEX
  8
PLAN_1
  6
CONTINUOUS
 10
-2.132957
 20
2.609209
  0
VERTEX
  8
PLAN_1
  6
CONTINUOUS
 10
-2.131496
 20
2.618933
  0
VERTEX
  8
PLAN_1
  6
CONTINUOUS
 10
-2.129063
 20
2.628661
  0
VERTEX
  8
PLAN_1
  6
CONTINUOUS
 10
-2.127606
 20
2.633524
  0
VERTEX
  8
PLAN_1
  6
CONTINUOUS
 10
-2.126146
 20
2.638386
  0
VERTEX
  8
PLAN_1
  6
CONTINUOUS
 10
-2.124201
 20
2.643248
  0
VERTEX
  8
PLAN_1
  6
CONTINUOUS
 10
-2.121772
 20
2.648110
  0
SEQEND
  8
0
  0
POLYLINE
  8
PLAN_1
  6
CONTINUOUS
 66
     1
 40
0.008264
 41
0.008264
  0
VERTEX
  8
PLAN_1
  6
CONTINUOUS
 10
-2.122744
 20
2.845543
  0
VERTEX
  8
PLAN_1
  6
CONTINUOUS
 10
-2.123717
 20
2.847972
  0
VERTEX
  8
PLAN_1
  6
CONTINUOUS
 10
-2.126634
 20
2.854783
  0
VERTEX
  8
PLAN_1
  6
CONTINUOUS
 10
-2.128091
 20
2.859646
  0
VERTEX
  8
PLAN_1
  6
CONTINUOUS
 10
-2.129551
 20
2.864992
  0
VERTEX
  8
PLAN_1
  6
CONTINUOUS
 10
-2.131008
 20
2.871803
  0
VERTEX
  8
PLAN_1
  6
CONTINUOUS
 10
-2.132469
 20
2.878610
  0
VERTEX
  8
PLAN_1
  6
CONTINUOUS
 10
-2.133441
 20
2.886390
  0
VERTEX
  8
PLAN_1
  6
CONTINUOUS
 10
-2.134413
 20
2.895142
  0
VERTEX
  8
PLAN_1
  6
CONTINUOUS
 10
-2.134413
 20
2.903898
  0
VERTEX
  8
PLAN_1
  6
CONTINUOUS
 10
-2.133929
 20
2.912650
  0
VERTEX
  8
PLAN_1
  6
CONTINUOUS
 10
-2.132469
 20
2.922374
  0
VERTEX
  8
PLAN_1
  6
CONTINUOUS
 10
-2.130035
 20
2.932102
  0
VERTEX
  8
PLAN_1
  6
CONTINUOUS
 10
-2.129063
 20
2.936965
  0
VERTEX
  8
PLAN_1
  6
CONTINUOUS
 10
-2.127118
 20
2.941827
  0
VERTEX
  8
PLAN_1
  6
CONTINUOUS
 10
-2.125173
 20
2.946689
  0
VERTEX
  8
PLAN_1
  6
CONTINUOUS
 10
-2.122744
 20
2.951551
  0
SEQEND
  8
0
  0
POLYLINE
  8
PLAN_1
  6
CONTINUOUS
 66
     1
 40
0.008264
 41
0.008264
  0
VERTEX
  8
PLAN_1
  6
CONTINUOUS
 10
-2.122256
 20
2.648110
  0
VERTEX
  8
PLAN_1
  6
CONTINUOUS
 10
-2.123717
 20
2.652488
  0
VERTEX
  8
PLAN_1
  6
CONTINUOUS
 10
-2.126146
 20
2.664157
  0
VERTEX
  8
PLAN_1
  6
CONTINUOUS
 10
-2.127606
 20
2.672913
  0
VERTEX
  8
PLAN_1
  6
CONTINUOUS
 10
-2.129063
 20
2.683122
  0
VERTEX
  8
PLAN_1
  6
CONTINUOUS
 10
-2.130524
 20
2.694795
  0
VERTEX
  8
PLAN_1
  6
CONTINUOUS
 10
-2.131980
 20
2.707925
  0
VERTEX
  8
PLAN_1
  6
CONTINUOUS
 10
-2.132957
 20
2.722028
  0
VERTEX
  8
PLAN_1
  6
CONTINUOUS
 10
-2.133441
 20
2.737587
  0
VERTEX
  8
PLAN_1
  6
CONTINUOUS
 10
-2.133441
 20
2.753634
  0
VERTEX
  8
PLAN_1
  6
CONTINUOUS
 10
-2.132957
 20
2.771142
  0
VERTEX
  8
PLAN_1
  6
CONTINUOUS
 10
-2.131496
 20
2.789134
  0
VERTEX
  8
PLAN_1
  6
CONTINUOUS
 10
-2.129551
 20
2.807614
  0
VERTEX
  8
PLAN_1
  6
CONTINUOUS
 10
-2.128091
 20
2.817339
  0
VERTEX
  8
PLAN_1
  6
CONTINUOUS
 10
-2.126146
 20
2.827063
  0
VERTEX
  8
PLAN_1
  6
CONTINUOUS
 10
-2.124201
 20
2.836791
  0
VERTEX
  8
PLAN_1
  6
CONTINUOUS
 10
-2.121772
 20
2.846516
  0
SEQEND
  8
0
  0
POLYLINE
  8
PLAN_1
 62
     2
  6
CONTINUOUS
 66
     1
 40
0.004374
 41
0.004374
  0
VERTEX
  8
PLAN_1
 62
     2
  6
CONTINUOUS
 10
-2.127606
 20
3.796228
  0
VERTEX
  8
PLAN_1
 62
     2
  6
CONTINUOUS
 10
0.490067
 20
3.796228
  0
SEQEND
  8
0
  0
SOLID
  8
PLAN_1
 62
     2
 10
0.519728
 20
3.796228
 11
0.460402
 21
3.811791
 12
0.519728
 22
3.796228
 13
0.460402
 23
3.780669
  0
POLYLINE
  8
PLAN_1
 62
     2
  6
CONTINUOUS
 66
     1
 40
0.003000
 41
0.003000
  0
VERTEX
  8
PLAN_1
 62
     2
  6
CONTINUOUS
 10
0.519728
 20
3.796228
  0
VERTEX
  8
PLAN_1
 62
     2
  6
CONTINUOUS
 10
0.460402
 20
3.811791
  0
VERTEX
  8
PLAN_1
 62
     2
  6
CONTINUOUS
 10
0.460402
 20
3.780669
  0
VERTEX
  8
PLAN_1
 62
     2
  6
CONTINUOUS
 10
0.519728
 20
3.796228
  0
SEQEND
  8
0
  0
SOLID
  8
PLAN_1
 62
     2
 10
-2.156783
 20
3.796228
 11
-2.097941
 21
3.811791
 12
-2.156783
 22
3.796228
 13
-2.097941
 23
3.780669
  0
POLYLINE
  8
PLAN_1
 62
     2
  6
CONTINUOUS
 66
     1
 40
0.003000
 41
0.003000
  0
VERTEX
  8
PLAN_1
 62
     2
  6
CONTINUOUS
 10
-2.156783
 20
3.796228
  0
VERTEX
  8
PLAN_1
 62
     2
  6
CONTINUOUS
 10
-2.097941
 20
3.811791
  0
VERTEX
  8
PLAN_1
 62
     2
  6
CONTINUOUS
 10
-2.097941
 20
3.780669
  0
VERTEX
  8
PLAN_1
 62
     2
  6
CONTINUOUS
 10
-2.156783
 20
3.796228
  0
SEQEND
  8
0
  0
POLYLINE
  8
PLAN_1
 62
     2
  6
CONTINUOUS
 66
     1
 40
0.003000
 41
0.003000
  0
VERTEX
  8
PLAN_1
 62
     2
  6
CONTINUOUS
 10
-0.833114
 20
3.873547
  0
VERTEX
  8
PLAN_1
 62
     2
  6
CONTINUOUS
 10
-0.833602
 20
3.875980
  0
VERTEX
  8
PLAN_1
 62
     2
  6
CONTINUOUS
 10
-0.834575
 20
3.877925
  0
VERTEX
  8
PLAN_1
 62
     2
  6
CONTINUOUS
 10
-0.835547
 20
3.879870
  0
VERTEX
  8
PLAN_1
 62
     2
  6
CONTINUOUS
 10
-0.837004
 20
3.881815
  0
VERTEX
  8
PLAN_1
 62
     2
  6
CONTINUOUS
 10
-0.838465
 20
3.882787
  0
VERTEX
  8
PLAN_1
 62
     2
  6
CONTINUOUS
 10
-0.840409
 20
3.883760
  0
VERTEX
  8
PLAN_1
 62
     2
  6
CONTINUOUS
 10
-0.842843
 20
3.884732
  0
VERTEX
  8
PLAN_1
 62
     2
  6
CONTINUOUS
 10
-0.845760
 20
3.884732
  0
VERTEX
  8
PLAN_1
 62
     2
  6
CONTINUOUS
 10
-0.848189
 20
3.884732
  0
VERTEX
  8
PLAN_1
 62
     2
  6
CONTINUOUS
 10
-0.850622
 20
3.883760
  0
VERTEX
  8
PLAN_1
 62
     2
  6
CONTINUOUS
 10
-0.852567
 20
3.882787
  0
VERTEX
  8
PLAN_1
 62
     2
  6
CONTINUOUS
 10
-0.854512
 20
3.881815
  0
VERTEX
  8
PLAN_1
 62
     2
  6
CONTINUOUS
 10
-0.855972
 20
3.879870
  0
VERTEX
  8
PLAN_1
 62
     2
  6
CONTINUOUS
 10
-0.857429
 20
3.878413
  0
VERTEX
  8
PLAN_1
 62
     2
  6
CONTINUOUS
 10
-0.858890
 20
3.876465
  0
VERTEX
  8
PLAN_1
 62
     2
  6
CONTINUOUS
 10
-0.859862
 20
3.874035
  0
VERTEX
  8
PLAN_1
 62
     2
  6
CONTINUOUS
 10
-0.861319
 20
3.869657
  0
VERTEX
  8
PLAN_1
 62
     2
  6
CONTINUOUS
 10
-0.862291
 20
3.865283
  0
VERTEX
  8
PLAN_1
 62
     2
  6
CONTINUOUS
 10
-0.862780
 20
3.860906
  0
VERTEX
  8
PLAN_1
 62
     2
  6
CONTINUOUS
 10
-0.863264
 20
3.857500
  0
VERTEX
  8
PLAN_1
 62
     2
  6
CONTINUOUS
 10
-0.862780
 20
3.857500
  0
VERTEX
  8
PLAN_1
 62
     2
  6
CONTINUOUS
 10
-0.861807
 20
3.858961
  0
VERTEX
  8
PLAN_1
 62
     2
  6
CONTINUOUS
 10
-0.860835
 20
3.860417
  0
VERTEX
  8
PLAN_1
 62
     2
  6
CONTINUOUS
 10
-0.858890
 20
3.861878
  0
VERTEX
  8
PLAN_1
 62
     2
  6
CONTINUOUS
 10
-0.856945
 20
3.863339
  0
VERTEX
  8
PLAN_1
 62
     2
  6
CONTINUOUS
 10
-0.855000
 20
3.864795
  0
VERTEX
  8
PLAN_1
 62
     2
  6
CONTINUOUS
 10
-0.852079
 20
3.865768
  0
VERTEX
  8
PLAN_1
 62
     2
  6
CONTINUOUS
 10
-0.849161
 20
3.866256
  0
VERTEX
  8
PLAN_1
 62
     2
  6
CONTINUOUS
 10
-0.845760
 20
3.866256
  0
VERTEX
  8
PLAN_1
 62
     2
  6
CONTINUOUS
 10
-0.841870
 20
3.866256
  0
VERTEX
  8
PLAN_1
 62
     2
  6
CONTINUOUS
 10
-0.838465
 20
3.865283
  0
VERTEX
  8
PLAN_1
 62
     2
  6
CONTINUOUS
 10
-0.834575
 20
3.863823
  0
VERTEX
  8
PLAN_1
 62
     2
  6
CONTINUOUS
 10
-0.830685
 20
3.861390
  0
VERTEX
  8
PLAN_1
 62
     2
  6
CONTINUOUS
 10
-0.829224
 20
3.859933
  0
VERTEX
  8
PLAN_1
 62
     2
  6
CONTINUOUS
 10
-0.827768
 20
3.858472
  0
VERTEX
  8
PLAN_1
 62
     2
  6
CONTINUOUS
 10
-0.826307
 20
3.856528
  0
VERTEX
  8
PLAN_1
 62
     2
  6
CONTINUOUS
 10
-0.824850
 20
3.854098
  0
VERTEX
  8
PLAN_1
 62
     2
  6
CONTINUOUS
 10
-0.823878
 20
3.851665
  0
VERTEX
  8
PLAN_1
 62
     2
  6
CONTINUOUS
 10
-0.823390
 20
3.849236
  0
VERTEX
  8
PLAN_1
 62
     2
  6
CONTINUOUS
 10
-0.822906
 20
3.846315
  0
VERTEX
  8
PLAN_1
 62
     2
  6
CONTINUOUS
 10
-0.822906
 20
3.843398
  0
VERTEX
  8
PLAN_1
 62
     2
  6
CONTINUOUS
 10
-0.822906
 20
3.840480
  0
VERTEX
  8
PLAN_1
 62
     2
  6
CONTINUOUS
 10
-0.822906
 20
3.838051
  0
VERTEX
  8
PLAN_1
 62
     2
  6
CONTINUOUS
 10
-0.823390
 20
3.835618
  0
VERTEX
  8
PLAN_1
 62
     2
  6
CONTINUOUS
 10
-0.824362
 20
3.833185
  0
VERTEX
  8
PLAN_1
 62
     2
  6
CONTINUOUS
 10
-0.825335
 20
3.831240
  0
VERTEX
  8
PLAN_1
 62
     2
  6
CONTINUOUS
 10
-0.826307
 20
3.828811
  0
VERTEX
  8
PLAN_1
 62
     2
  6
CONTINUOUS
 10
-0.827768
 20
3.826866
  0
VERTEX
  8
PLAN_1
 62
     2
  6
CONTINUOUS
 10
-0.829713
 20
3.824921
  0
VERTEX
  8
PLAN_1
 62
     2
  6
CONTINUOUS
 10
-0.831169
 20
3.823461
  0
VERTEX
  8
PLAN_1
 62
     2
  6
CONTINUOUS
 10
-0.832630
 20
3.822004
  0
VERTEX
  8
PLAN_1
 62
     2
  6
CONTINUOUS
 10
-0.834575
 20
3.821031
  0
VERTEX
  8
PLAN_1
 62
     2
  6
CONTINUOUS
 10
-0.836520
 20
3.820059
  0
VERTEX
  8
PLAN_1
 62
     2
  6
CONTINUOUS
 10
-0.838953
 20
3.819087
  0
VERTEX
  8
PLAN_1
 62
     2
  6
CONTINUOUS
 10
-0.841382
 20
3.818598
  0
VERTEX
  8
PLAN_1
 62
     2
  6
CONTINUOUS
 10
-0.844787
 20
3.818110
  0
VERTEX
  8
PLAN_1
 62
     2
  6
CONTINUOUS
 10
-0.848189
 20
3.818110
  0
VERTEX
  8
PLAN_1
 62
     2
  6
CONTINUOUS
 10
-0.850622
 20
3.818110
  0
VERTEX
  8
PLAN_1
 62
     2
  6
CONTINUOUS
 10
-0.852567
 20
3.818598
  0
VERTEX
  8
PLAN_1
 62
     2
  6
CONTINUOUS
 10
-0.855000
 20
3.819087
  0
VERTEX
  8
PLAN_1
 62
     2
  6
CONTINUOUS
 10
-0.857917
 20
3.820059
  0
VERTEX
  8
PLAN_1
 62
     2
  6
CONTINUOUS
 10
-0.860346
 20
3.821516
  0
VERTEX
  8
PLAN_1
 62
     2
  6
CONTINUOUS
 10
-0.862780
 20
3.823461
  0
VERTEX
  8
PLAN_1
 62
     2
  6
CONTINUOUS
 10
-0.864724
 20
3.825894
  0
VERTEX
  8
PLAN_1
 62
     2
  6
CONTINUOUS
 10
-0.867154
 20
3.828323
  0
VERTEX
  8
PLAN_1
 62
     2
  6
CONTINUOUS
 10
-0.868614
 20
3.831240
  0
VERTEX
  8
PLAN_1
 62
     2
  6
CONTINUOUS
 10
-0.869587
 20
3.834161
  0
VERTEX
  8
PLAN_1
 62
     2
  6
CONTINUOUS
 10
-0.870559
 20
3.837079
  0
VERTEX
  8
PLAN_1
 62
     2
  6
CONTINUOUS
 10
-0.871531
 20
3.839996
  0
VERTEX
  8
PLAN_1
 62
     2
  6
CONTINUOUS
 10
-0.872020
 20
3.843398
  0
VERTEX
  8
PLAN_1
 62
     2
  6
CONTINUOUS
 10
-0.872504
 20
3.846803
  0
VERTEX
  8
PLAN_1
 62
     2
  6
CONTINUOUS
 10
-0.872504
 20
3.850209
  0
VERTEX
  8
PLAN_1
 62
     2
  6
CONTINUOUS
 10
-0.872504
 20
3.854098
  0
VERTEX
  8
PLAN_1
 62
     2
  6
CONTINUOUS
 10
-0.872504
 20
3.859933
  0
VERTEX
  8
PLAN_1
 62
     2
  6
CONTINUOUS
 10
-0.871531
 20
3.866740
  0
VERTEX
  8
PLAN_1
 62
     2
  6
CONTINUOUS
 10
-0.870075
 20
3.873063
  0
VERTEX
  8
PLAN_1
 62
     2
  6
CONTINUOUS
 10
-0.867154
 20
3.879386
  0
VERTEX
  8
PLAN_1
 62
     2
  6
CONTINUOUS
 10
-0.865697
 20
3.882303
  0
VERTEX
  8
PLAN_1
 62
     2
  6
CONTINUOUS
 10
-0.863752
 20
3.884732
  0
VERTEX
  8
PLAN_1
 62
     2
  6
CONTINUOUS
 10
-0.861319
 20
3.887165
  0
VERTEX
  8
PLAN_1
 62
     2
  6
CONTINUOUS
 10
-0.858890
 20
3.889110
  0
VERTEX
  8
PLAN_1
 62
     2
  6
CONTINUOUS
 10
-0.855972
 20
3.890567
  0
VERTEX
  8
PLAN_1
 62
     2
  6
CONTINUOUS
 10
-0.853055
 20
3.892028
  0
VERTEX
  8
PLAN_1
 62
     2
  6
CONTINUOUS
 10
-0.849650
 20
3.892512
  0
VERTEX
  8
PLAN_1
 62
     2
  6
CONTINUOUS
 10
-0.845760
 20
3.893000
  0
VERTEX
  8
PLAN_1
 62
     2
  6
CONTINUOUS
 10
-0.842354
 20
3.893000
  0
VERTEX
  8
PLAN_1
 62
     2
  6
CONTINUOUS
 10
-0.838953
 20
3.892028
  0
VERTEX
  8
PLAN_1
 62
     2
  6
CONTINUOUS
 10
-0.835547
 20
3.890567
  0
VERTEX
  8
PLAN_1
 62
     2
  6
CONTINUOUS
 10
-0.832142
 20
3.888622
  0
VERTEX
  8
PLAN_1
 62
     2
  6
CONTINUOUS
 10
-0.829224
 20
3.886193
  0
VERTEX
  8
PLAN_1
 62
     2
  6
CONTINUOUS
 10
-0.826795
 20
3.882787
  0
VERTEX
  8
PLAN_1
 62
     2
  6
CONTINUOUS
 10
-0.825823
 20
3.880843
  0
VERTEX
  8
PLAN_1
 62
     2
  6
CONTINUOUS
 10
-0.825335
 20
3.878413
  0
VERTEX
  8
PLAN_1
 62
     2
  6
CONTINUOUS
 10
-0.824362
 20
3.875980
  0
VERTEX
  8
PLAN_1
 62
     2
  6
CONTINUOUS
 10
-0.824362
 20
3.873547
  0
VERTEX
  8
PLAN_1
 62
     2
  6
CONTINUOUS
 10
-0.833114
 20
3.873547
  0
SEQEND
  8
0
  0
POLYLINE
  8
PLAN_1
 62
     2
  6
CONTINUOUS
 66
     1
 40
0.003000
 41
0.003000
  0
VERTEX
  8
PLAN_1
 62
     2
  6
CONTINUOUS
 10
-0.846732
 20
3.825894
  0
VERTEX
  8
PLAN_1
 62
     2
  6
CONTINUOUS
 10
-0.843327
 20
3.826378
  0
VERTEX
  8
PLAN_1
 62
     2
  6
CONTINUOUS
 10
-0.840409
 20
3.827350
  0
VERTEX
  8
PLAN_1
 62
     2
  6
CONTINUOUS
 10
-0.837980
 20
3.828811
  0
VERTEX
  8
PLAN_1
 62
     2
  6
CONTINUOUS
 10
-0.836031
 20
3.830756
  0
VERTEX
  8
PLAN_1
 62
     2
  6
CONTINUOUS
 10
-0.834575
 20
3.833185
  0
VERTEX
  8
PLAN_1
 62
     2
  6
CONTINUOUS
 10
-0.833114
 20
3.836106
  0
VERTEX
  8
PLAN_1
 62
     2
  6
CONTINUOUS
 10
-0.832630
 20
3.839508
  0
VERTEX
  8
PLAN_1
 62
     2
  6
CONTINUOUS
 10
-0.832142
 20
3.842913
  0
VERTEX
  8
PLAN_1
 62
     2
  6
CONTINUOUS
 10
-0.832142
 20
3.845343
  0
VERTEX
  8
PLAN_1
 62
     2
  6
CONTINUOUS
 10
-0.832630
 20
3.847776
  0
VERTEX
  8
PLAN_1
 62
     2
  6
CONTINUOUS
 10
-0.833602
 20
3.850693
  0
VERTEX
  8
PLAN_1
 62
     2
  6
CONTINUOUS
 10
-0.835059
 20
3.853126
  0
VERTEX
  8
PLAN_1
 62
     2
  6
CONTINUOUS
 10
-0.837492
 20
3.855071
  0
VERTEX
  8
PLAN_1
 62
     2
  6
CONTINUOUS
 10
-0.839925
 20
3.856528
  0
VERTEX
  8
PLAN_1
 62
     2
  6
CONTINUOUS
 10
-0.842843
 20
3.857988
  0
VERTEX
  8
PLAN_1
 62
     2
  6
CONTINUOUS
 10
-0.846732
 20
3.858472
  0
VERTEX
  8
PLAN_1
 62
     2
  6
CONTINUOUS
 10
-0.850622
 20
3.857988
  0
VERTEX
  8
PLAN_1
 62
     2
  6
CONTINUOUS
 10
-0.853539
 20
3.857016
  0
VERTEX
  8
PLAN_1
 62
     2
  6
CONTINUOUS
 10
-0.855972
 20
3.855555
  0
VERTEX
  8
PLAN_1
 62
     2
  6
CONTINUOUS
 10
-0.858402
 20
3.853610
  0
VERTEX
  8
PLAN_1
 62
     2
  6
CONTINUOUS
 10
-0.859862
 20
3.851181
  0
VERTEX
  8
PLAN_1
 62
     2
  6
CONTINUOUS
 10
-0.860835
 20
3.848260
  0
VERTEX
  8
PLAN_1
 62
     2
  6
CONTINUOUS
 10
-0.861807
 20
3.845343
  0
VERTEX
  8
PLAN_1
 62
     2
  6
CONTINUOUS
 10
-0.861807
 20
3.842425
  0
VERTEX
  8
PLAN_1
 62
     2
  6
CONTINUOUS
 10
-0.861807
 20
3.839508
  0
VERTEX
  8
PLAN_1
 62
     2
  6
CONTINUOUS
 10
-0.860835
 20
3.836591
  0
VERTEX
  8
PLAN_1
 62
     2
  6
CONTINUOUS
 10
-0.859862
 20
3.833673
  0
VERTEX
  8
PLAN_1
 62
     2
  6
CONTINUOUS
 10
-0.858402
 20
3.831240
  0
VERTEX
  8
PLAN_1
 62
     2
  6
CONTINUOUS
 10
-0.855972
 20
3.829295
  0
VERTEX
  8
PLAN_1
 62
     2
  6
CONTINUOUS
 10
-0.853539
 20
3.827350
  0
VERTEX
  8
PLAN_1
 62
     2
  6
CONTINUOUS
 10
-0.850134
 20
3.826378
  0
VERTEX
  8
PLAN_1
 62
     2
  6
CONTINUOUS
 10
-0.846732
 20
3.825894
  0
SEQEND
  8
0
  0
POLYLINE
  8
PLAN_1
 62
     2
  6
CONTINUOUS
 66
     1
 40
0.003000
 41
0.003000
  0
VERTEX
  8
PLAN_1
 62
     2
  6
CONTINUOUS
 10
-0.776705
 20
3.858961
  0
VERTEX
  8
PLAN_1
 62
     2
  6
CONTINUOUS
 10
-0.773303
 20
3.857016
  0
VERTEX
  8
PLAN_1
 62
     2
  6
CONTINUOUS
 10
-0.770870
 20
3.855071
  0
VERTEX
  8
PLAN_1
 62
     2
  6
CONTINUOUS
 10
-0.768925
 20
3.852638
  0
VERTEX
  8
PLAN_1
 62
     2
  6
CONTINUOUS
 10
-0.766980
 20
3.850209
  0
VERTEX
  8
PLAN_1
 62
     2
  6
CONTINUOUS
 10
-0.766008
 20
3.847776
  0
VERTEX
  8
PLAN_1
 62
     2
  6
CONTINUOUS
 10
-0.765524
 20
3.845343
  0
VERTEX
  8
PLAN_1
 62
     2
  6
CONTINUOUS
 10
-0.765035
 20
3.842913
  0
VERTEX
  8
PLAN_1
 62
     2
  6
CONTINUOUS
 10
-0.765035
 20
3.840969
  0
VERTEX
  8
PLAN_1
 62
     2
  6
CONTINUOUS
 10
-0.765035
 20
3.836591
  0
VERTEX
  8
PLAN_1
 62
     2
  6
CONTINUOUS
 10
-0.766496
 20
3.832213
  0
VERTEX
  8
PLAN_1
 62
     2
  6
CONTINUOUS
 10
-0.767953
 20
3.828323
  0
VERTEX
  8
PLAN_1
 62
     2
  6
CONTINUOUS
 10
-0.770870
 20
3.824921
  0
VERTEX
  8
PLAN_1
 62
     2
  6
CONTINUOUS
 10
-0.772331
 20
3.823461
  0
VERTEX
  8
PLAN_1
 62
     2
  6
CONTINUOUS
 10
-0.774276
 20
3.822004
  0
VERTEX
  8
PLAN_1
 62
     2
  6
CONTINUOUS
 10
-0.776220
 20
3.821031
  0
VERTEX
  8
PLAN_1
 62
     2
  6
CONTINUOUS
 10
-0.778654
 20
3.820059
  0
VERTEX
  8
PLAN_1
 62
     2
  6
CONTINUOUS
 10
-0.781083
 20
3.819087
  0
VERTEX
  8
PLAN_1
 62
     2
  6
CONTINUOUS
 10
-0.783516
 20
3.818598
  0
VERTEX
  8
PLAN_1
 62
     2
  6
CONTINUOUS
 10
-0.786433
 20
3.818110
  0
VERTEX
  8
PLAN_1
 62
     2
  6
CONTINUOUS
 10
-0.789835
 20
3.818110
  0
VERTEX
  8
PLAN_1
 62
     2
  6
CONTINUOUS
 10
-0.791295
 20
3.818110
  0
VERTEX
  8
PLAN_1
 62
     2
  6
CONTINUOUS
 10
-0.793240
 20
3.818110
  0
VERTEX
  8
PLAN_1
 62
     2
  6
CONTINUOUS
 10
-0.795673
 20
3.818598
  0
VERTEX
  8
PLAN_1
 62
     2
  6
CONTINUOUS
 10
-0.797618
 20
3.819087
  0
VERTEX
  8
PLAN_1
 62
     2
  6
CONTINUOUS
 10
-0.800047
 20
3.819571
  0
VERTEX
  8
PLAN_1
 62
     2
  6
CONTINUOUS
 10
-0.802480
 20
3.820543
  0
VERTEX
  8
PLAN_1
 62
     2
  6
CONTINUOUS
 10
-0.804909
 20
3.822004
  0
VERTEX
  8
PLAN_1
 62
     2
  6
CONTINUOUS
 10
-0.807343
 20
3.823461
  0
VERTEX
  8
PLAN_1
 62
     2
  6
CONTINUOUS
 10
-0.809776
 20
3.825894
  0
VERTEX
  8
PLAN_1
 62
     2
  6
CONTINUOUS
 10
-0.811720
 20
3.828323
  0
VERTEX
  8
PLAN_1
 62
     2
  6
CONTINUOUS
 10
-0.812693
 20
3.830756
  0
VERTEX
  8
PLAN_1
 62
     2
  6
CONTINUOUS
 10
-0.813665
 20
3.833185
  0
VERTEX
  8
PLAN_1
 62
     2
  6
CONTINUOUS
 10
-0.814150
 20
3.835618
  0
VERTEX
  8
PLAN_1
 62
     2
  6
CONTINUOUS
 10
-0.814638
 20
3.837563
  0
VERTEX
  8
PLAN_1
 62
     2
  6
CONTINUOUS
 10
-0.814638
 20
3.839508
  0
VERTEX
  8
PLAN_1
 62
     2
  6
CONTINUOUS
 10
-0.814638
 20
3.840969
  0
VERTEX
  8
PLAN_1
 62
     2
  6
CONTINUOUS
 10
-0.814638
 20
3.843886
  0
VERTEX
  8
PLAN_1
 62
     2
  6
CONTINUOUS
 10
-0.813665
 20
3.846803
  0
VERTEX
  8
PLAN_1
 62
     2
  6
CONTINUOUS
 10
-0.812693
 20
3.849720
  0
VERTEX
  8
PLAN_1
 62
     2
  6
CONTINUOUS
 10
-0.811232
 20
3.852154
  0
VERTEX
  8
PLAN_1
 62
     2
  6
CONTINUOUS
 10
-0.809776
 20
3.854098
  0
VERTEX
  8
PLAN_1
 62
     2
  6
CONTINUOUS
 10
-0.807343
 20
3.856043
  0
VERTEX
  8
PLAN_1
 62
     2
  6
CONTINUOUS
 10
-0.804909
 20
3.857500
  0
VERTEX
  8
PLAN_1
 62
     2
  6
CONTINUOUS
 10
-0.802480
 20
3.858472
  0
VERTEX
  8
PLAN_1
 62
     2
  6
CONTINUOUS
 10
-0.804425
 20
3.859445
  0
VERTEX
  8
PLAN_1
 62
     2
  6
CONTINUOUS
 10
-0.806370
 20
3.860906
  0
VERTEX
  8
PLAN_1
 62
     2
  6
CONTINUOUS
 10
-0.808315
 20
3.862362
  0
VERTEX
  8
PLAN_1
 62
     2
  6
CONTINUOUS
 10
-0.809776
 20
3.864311
  0
VERTEX
  8
PLAN_1
 62
     2
  6
CONTINUOUS
 10
-0.810748
 20
3.866256
  0
VERTEX
  8
PLAN_1
 62
     2
  6
CONTINUOUS
 10
-0.811720
 20
3.868201
  0
VERTEX
  8
PLAN_1
 62
     2
  6
CONTINUOUS
 10
-0.812205
 20
3.870630
  0
VERTEX
  8
PLAN_1
 62
     2
  6
CONTINUOUS
 10
-0.812205
 20
3.873063
  0
VERTEX
  8
PLAN_1
 62
     2
  6
CONTINUOUS
 10
-0.812205
 20
3.875980
  0
VERTEX
  8
PLAN_1
 62
     2
  6
CONTINUOUS
 10
-0.811232
 20
3.879386
  0
VERTEX
  8
PLAN_1
 62
     2
  6
CONTINUOUS
 10
-0.809776
 20
3.882787
  0
VERTEX
  8
PLAN_1
 62
     2
  6
CONTINUOUS
 10
-0.807831
 20
3.885705
  0
VERTEX
  8
PLAN_1
 62
     2
  6
CONTINUOUS
 10
-0.806370
 20
3.887165
  0
VERTEX
  8
PLAN_1
 62
     2
  6
CONTINUOUS
 10
-0.804909
 20
3.888622
  0
VERTEX
  8
PLAN_1
 62
     2
  6
CONTINUOUS
 10
-0.802965
 20
3.890083
  0
VERTEX
  8
PLAN_1
 62
     2
  6
CONTINUOUS
 10
-0.801020
 20
3.891055
  0
VERTEX
  8
PLAN_1
 62
     2
  6
CONTINUOUS
 10
-0.798591
 20
3.892028
  0
VERTEX
  8
PLAN_1
 62
     2
  6
CONTINUOUS
 10
-0.796157
 20
3.892512
  0
VERTEX
  8
PLAN_1
 62
     2
  6
CONTINUOUS
 10
-0.793240
 20
3.893000
  0
VERTEX
  8
PLAN_1
 62
     2
  6
CONTINUOUS
 10
-0.789835
 20
3.893000
  0
VERTEX
  8
PLAN_1
 62
     2
  6
CONTINUOUS
 10
-0.784488
 20
3.892512
  0
VERTEX
  8
PLAN_1
 62
     2
  6
CONTINUOUS
 10
-0.779626
 20
3.891055
  0
VERTEX
  8
PLAN_1
 62
     2
  6
CONTINUOUS
 10
-0.775732
 20
3.889110
  0
VERTEX
  8
PLAN_1
 62
     2
  6
CONTINUOUS
 10
-0.772815
 20
3.886677
  0
VERTEX
  8
PLAN_1
 62
     2
  6
CONTINUOUS
 10
-0.770386
 20
3.883760
  0
VERTEX
  8
PLAN_1
 62
     2
  6
CONTINUOUS
 10
-0.768925
 20
3.880843
  0
VERTEX
  8
PLAN_1
 62
     2
  6
CONTINUOUS
 10
-0.767953
 20
3.877437
  0
VERTEX
  8
PLAN_1
 62
     2
  6
CONTINUOUS
 10
-0.767469
 20
3.874035
  0
VERTEX
  8
PLAN_1
 62
     2
  6
CONTINUOUS
 10
-0.767953
 20
3.870630
  0
VERTEX
  8
PLAN_1
 62
     2
  6
CONTINUOUS
 10
-0.768441
 20
3.867713
  0
VERTEX
  8
PLAN_1
 62
     2
  6
CONTINUOUS
 10
-0.769413
 20
3.865283
  0
VERTEX
  8
PLAN_1
 62
     2
  6
CONTINUOUS
 10
-0.770870
 20
3.863339
  0
VERTEX
  8
PLAN_1
 62
     2
  6
CONTINUOUS
 10
-0.772331
 20
3.861390
  0
VERTEX
  8
PLAN_1
 62
     2
  6
CONTINUOUS
 10
-0.774276
 20
3.860417
  0
VERTEX
  8
PLAN_1
 62
     2
  6
CONTINUOUS
 10
-0.775732
 20
3.859445
  0
VERTEX
  8
PLAN_1
 62
     2
  6
CONTINUOUS
 10
-0.776705
 20
3.858961
  0
SEQEND
  8
0
  0
POLYLINE
  8
PLAN_1
 62
     2
  6
CONTINUOUS
 66
     1
 40
0.003000
 41
0.003000
  0
VERTEX
  8
PLAN_1
 62
     2
  6
CONTINUOUS
 10
-0.804909
 20
3.840480
  0
VERTEX
  8
PLAN_1
 62
     2
  6
CONTINUOUS
 10
-0.804909
 20
3.838535
  0
VERTEX
  8
PLAN_1
 62
     2
  6
CONTINUOUS
 10
-0.804425
 20
3.836106
  0
VERTEX
  8
PLAN_1
 62
     2
  6
CONTINUOUS
 10
-0.803453
 20
3.833673
  0
VERTEX
  8
PLAN_1
 62
     2
  6
CONTINUOUS
 10
-0.801992
 20
3.831240
  0
VERTEX
  8
PLAN_1
 62
     2
  6
CONTINUOUS
 10
-0.800047
 20
3.829295
  0
VERTEX
  8
PLAN_1
 62
     2
  6
CONTINUOUS
 10
-0.797130
 20
3.827350
  0
VERTEX
  8
PLAN_1
 62
     2
  6
CONTINUOUS
 10
-0.793728
 20
3.826378
  0
VERTEX
  8
PLAN_1
 62
     2
  6
CONTINUOUS
 10
-0.789350
 20
3.825894
  0
VERTEX
  8
PLAN_1
 62
     2
  6
CONTINUOUS
 10
-0.786917
 20
3.826378
  0
VERTEX
  8
PLAN_1
 62
     2
  6
CONTINUOUS
 10
-0.784488
 20
3.826866
  0
VERTEX
  8
PLAN_1
 62
     2
  6
CONTINUOUS
 10
-0.781571
 20
3.827350
  0
VERTEX
  8
PLAN_1
 62
     2
  6
CONTINUOUS
 10
-0.779626
 20
3.828811
  0
VERTEX
  8
PLAN_1
 62
     2
  6
CONTINUOUS
 10
-0.777677
 20
3.830756
  0
VERTEX
  8
PLAN_1
 62
     2
  6
CONTINUOUS
 10
-0.776220
 20
3.833185
  0
VERTEX
  8
PLAN_1
 62
     2
  6
CONTINUOUS
 10
-0.775248
 20
3.836106
  0
VERTEX
  8
PLAN_1
 62
     2
  6
CONTINUOUS
 10
-0.774760
 20
3.839996
  0
VERTEX
  8
PLAN_1
 62
     2
  6
CONTINUOUS
 10
-0.774760
 20
3.843398
  0
VERTEX
  8
PLAN_1
 62
     2
  6
CONTINUOUS
 10
-0.775732
 20
3.846315
  0
VERTEX
  8
PLAN_1
 62
     2
  6
CONTINUOUS
 10
-0.777193
 20
3.848748
  0
VERTEX
  8
PLAN_1
 62
     2
  6
CONTINUOUS
 10
-0.779138
 20
3.850693
  0
VERTEX
  8
PLAN_1
 62
     2
  6
CONTINUOUS
 10
-0.781571
 20
3.852154
  0
VERTEX
  8
PLAN_1
 62
     2
  6
CONTINUOUS
 10
-0.784000
 20
3.853126
  0
VERTEX
  8
PLAN_1
 62
     2
  6
CONTINUOUS
 10
-0.786917
 20
3.854098
  0
VERTEX
  8
PLAN_1
 62
     2
  6
CONTINUOUS
 10
-0.789835
 20
3.854098
  0
VERTEX
  8
PLAN_1
 62
     2
  6
CONTINUOUS
 10
-0.793240
 20
3.854098
  0
VERTEX
  8
PLAN_1
 62
     2
  6
CONTINUOUS
 10
-0.796646
 20
3.853126
  0
VERTEX
  8
PLAN_1
 62
     2
  6
CONTINUOUS
 10
-0.799075
 20
3.851665
  0
VERTEX
  8
PLAN_1
 62
     2
  6
CONTINUOUS
 10
-0.801508
 20
3.850209
  0
VERTEX
  8
PLAN_1
 62
     2
  6
CONTINUOUS
 10
-0.802965
 20
3.847776
  0
VERTEX
  8
PLAN_1
 62
     2
  6
CONTINUOUS
 10
-0.803937
 20
3.845831
  0
VERTEX
  8
PLAN_1
 62
     2
  6
CONTINUOUS
 10
-0.804909
 20
3.843398
  0
VERTEX
  8
PLAN_1
 62
     2
  6
CONTINUOUS
 10
-0.804909
 20
3.840480
  0
SEQEND
  8
0
  0
POLYLINE
  8
PLAN_1
 62
     2
  6
CONTINUOUS
 66
     1
 40
0.003000
 41
0.003000
  0
VERTEX
  8
PLAN_1
 62
     2
  6
CONTINUOUS
 10
-0.777193
 20
3.874035
  0
VERTEX
  8
PLAN_1
 62
     2
  6
CONTINUOUS
 10
-0.777193
 20
3.875492
  0
VERTEX
  8
PLAN_1
 62
     2
  6
CONTINUOUS
 10
-0.777677
 20
3.877437
  0
VERTEX
  8
PLAN_1
 62
     2
  6
CONTINUOUS
 10
-0.778654
 20
3.879386
  0
VERTEX
  8
PLAN_1
 62
     2
  6
CONTINUOUS
 10
-0.779626
 20
3.880843
  0
VERTEX
  8
PLAN_1
 62
     2
  6
CONTINUOUS
 10
-0.781571
 20
3.882303
  0
VERTEX
  8
PLAN_1
 62
     2
  6
CONTINUOUS
 10
-0.784000
 20
3.883760
  0
VERTEX
  8
PLAN_1
 62
     2
  6
CONTINUOUS
 10
-0.786917
 20
3.884732
  0
VERTEX
  8
PLAN_1
 62
     2
  6
CONTINUOUS
 10
-0.790807
 20
3.884732
  0
VERTEX
  8
PLAN_1
 62
     2
  6
CONTINUOUS
 10
-0.793728
 20
3.884248
  0
VERTEX
  8
PLAN_1
 62
     2
  6
CONTINUOUS
 10
-0.796646
 20
3.883760
  0
VERTEX
  8
PLAN_1
 62
     2
  6
CONTINUOUS
 10
-0.798591
 20
3.882303
  0
VERTEX
  8
PLAN_1
 62
     2
  6
CONTINUOUS
 10
-0.800535
 20
3.880843
  0
VERTEX
  8
PLAN_1
 62
     2
  6
CONTINUOUS
 10
-0.801508
 20
3.878898
  0
VERTEX
  8
PLAN_1
 62
     2
  6
CONTINUOUS
 10
-0.802480
 20
3.876953
  0
VERTEX
  8
PLAN_1
 62
     2
  6
CONTINUOUS
 10
-0.802480
 20
3.875008
  0
VERTEX
  8
PLAN_1
 62
     2
  6
CONTINUOUS
 10
-0.802965
 20
3.873547
  0
VERTEX
  8
PLAN_1
 62
     2
  6
CONTINUOUS
 10
-0.802480
 20
3.870630
  0
VERTEX
  8
PLAN_1
 62
     2
  6
CONTINUOUS
 10
-0.801508
 20
3.868685
  0
VERTEX
  8
PLAN_1
 62
     2
  6
CONTINUOUS
 10
-0.800535
 20
3.866740
  0
VERTEX
  8
PLAN_1
 62
     2
  6
CONTINUOUS
 10
-0.799075
 20
3.865283
  0
VERTEX
  8
PLAN_1
 62
     2
  6
CONTINUOUS
 10
-0.797130
 20
3.863823
  0
VERTEX
  8
PLAN_1
 62
     2
  6
CONTINUOUS
 10
-0.794701
 20
3.862850
  0
VERTEX
  8
PLAN_1
 62
     2
  6
CONTINUOUS
 10
-0.792268
 20
3.862362
  0
VERTEX
  8
PLAN_1
 62
     2
  6
CONTINUOUS
 10
-0.789835
 20
3.861878
  0
VERTEX
  8
PLAN_1
 62
     2
  6
CONTINUOUS
 10
-0.786917
 20
3.862362
  0
VERTEX
  8
PLAN_1
 62
     2
  6
CONTINUOUS
 10
-0.784488
 20
3.862850
  0
VERTEX
  8
PLAN_1
 62
     2
  6
CONTINUOUS
 10
-0.782543
 20
3.863823
  0
VERTEX
  8
PLAN_1
 62
     2
  6
CONTINUOUS
 10
-0.780598
 20
3.865283
  0
VERTEX
  8
PLAN_1
 62
     2
  6
CONTINUOUS
 10
-0.779138
 20
3.867228
  0
VERTEX
  8
PLAN_1
 62
     2
  6
CONTINUOUS
 10
-0.777677
 20
3.869173
  0
VERTEX
  8
PLAN_1
 62
     2
  6
CONTINUOUS
 10
-0.777193
 20
3.871602
  0
VERTEX
  8
PLAN_1
 62
     2
  6
CONTINUOUS
 10
-0.777193
 20
3.874035
  0
SEQEND
  8
0
  0
POLYLINE
  8
PLAN_1
 62
     2
  6
CONTINUOUS
 66
     1
 40
0.004374
 41
0.004374
  0
VERTEX
  8
PLAN_1
 62
     2
  6
CONTINUOUS
 10
-1.459937
 20
3.638673
  0
VERTEX
  8
PLAN_1
 62
     2
  6
CONTINUOUS
 10
0.490067
 20
3.638673
  0
SEQEND
  8
0
  0
SOLID
  8
PLAN_1
 62
     2
 10
0.519728
 20
3.638673
 11
0.460402
 21
3.654720
 12
0.519728
 22
3.638673
 13
0.460402
 23
3.623110
  0
POLYLINE
  8
PLAN_1
 62
     2
  6
CONTINUOUS
 66
     1
 40
0.003000
 41
0.003000
  0
VERTEX
  8
PLAN_1
 62
     2
  6
CONTINUOUS
 10
0.519728
 20
3.638673
  0
VERTEX
  8
PLAN_1
 62
     2
  6
CONTINUOUS
 10
0.460402
 20
3.654720
  0
VERTEX
  8
PLAN_1
 62
     2
  6
CONTINUOUS
 10
0.460402
 20
3.623110
  0
VERTEX
  8
PLAN_1
 62
     2
  6
CONTINUOUS
 10
0.519728
 20
3.638673
  0
SEQEND
  8
0
  0
SOLID
  8
PLAN_1
 62
     2
 10
-1.489598
 20
3.638673
 11
-1.430760
 21
3.654720
 12
-1.489598
 22
3.638673
 13
-1.430760
 23
3.623110
  0
POLYLINE
  8
PLAN_1
 62
     2
  6
CONTINUOUS
 66
     1
 40
0.003000
 41
0.003000
  0
VERTEX
  8
PLAN_1
 62
     2
  6
CONTINUOUS
 10
-1.489598
 20
3.638673
  0
VERTEX
  8
PLAN_1
 62
     2
  6
CONTINUOUS
 10
-1.430760
 20
3.654720
  0
VERTEX
  8
PLAN_1
 62
     2
  6
CONTINUOUS
 10
-1.430760
 20
3.623110
  0
VERTEX
  8
PLAN_1
 62
     2
  6
CONTINUOUS
 10
-1.489598
 20
3.638673
  0
SEQEND
  8
0
  0
POLYLINE
  8
PLAN_1
 62
     2
  6
CONTINUOUS
 66
     1
 40
0.003000
 41
0.003000
  0
VERTEX
  8
PLAN_1
 62
     2
  6
CONTINUOUS
 10
-0.527728
 20
3.704807
  0
VERTEX
  8
PLAN_1
 62
     2
  6
CONTINUOUS
 10
-0.526272
 20
3.705780
  0
VERTEX
  8
PLAN_1
 62
     2
  6
CONTINUOUS
 10
-0.524811
 20
3.706752
  0
VERTEX
  8
PLAN_1
 62
     2
  6
CONTINUOUS
 10
-0.523350
 20
3.707240
  0
VERTEX
  8
PLAN_1
 62
     2
  6
CONTINUOUS
 10
-0.521894
 20
3.708213
  0
VERTEX
  8
PLAN_1
 62
     2
  6
CONTINUOUS
 10
-0.519949
 20
3.708697
  0
VERTEX
  8
PLAN_1
 62
     2
  6
CONTINUOUS
 10
-0.518004
 20
3.709185
  0
VERTEX
  8
PLAN_1
 62
     2
  6
CONTINUOUS
 10
-0.516059
 20
3.709669
  0
VERTEX
  8
PLAN_1
 62
     2
  6
CONTINUOUS
 10
-0.513626
 20
3.709669
  0
VERTEX
  8
PLAN_1
 62
     2
  6
CONTINUOUS
 10
-0.509248
 20
3.709185
  0
VERTEX
  8
PLAN_1
 62
     2
  6
CONTINUOUS
 10
-0.504874
 20
3.708213
  0
VERTEX
  8
PLAN_1
 62
     2
  6
CONTINUOUS
 10
-0.500496
 20
3.706268
  0
VERTEX
  8
PLAN_1
 62
     2
  6
CONTINUOUS
 10
-0.497094
 20
3.703350
  0
VERTEX
  8
PLAN_1
 62
     2
  6
CONTINUOUS
 10
-0.493689
 20
3.699945
  0
VERTEX
  8
PLAN_1
 62
     2
  6
CONTINUOUS
 10
-0.491744
 20
3.696055
  0
VERTEX
  8
PLAN_1
 62
     2
  6
CONTINUOUS
 10
-0.490772
 20
3.694110
  0
VERTEX
  8
PLAN_1
 62
     2
  6
CONTINUOUS
 10
-0.489799
 20
3.691677
  0
VERTEX
  8
PLAN_1
 62
     2
  6
CONTINUOUS
 10
-0.489799
 20
3.688760
  0
VERTEX
  8
PLAN_1
 62
     2
  6
CONTINUOUS
 10
-0.489311
 20
3.686331
  0
VERTEX
  8
PLAN_1
 62
     2
  6
CONTINUOUS
 10
-0.489799
 20
3.682925
  0
VERTEX
  8
PLAN_1
 62
     2
  6
CONTINUOUS
 10
-0.490283
 20
3.678547
  0
VERTEX
  8
PLAN_1
 62
     2
  6
CONTINUOUS
 10
-0.491744
 20
3.674657
  0
VERTEX
  8
PLAN_1
 62
     2
  6
CONTINUOUS
 10
-0.494173
 20
3.670283
  0
VERTEX
  8
PLAN_1
 62
     2
  6
CONTINUOUS
 10
-0.495634
 20
3.668335
  0
VERTEX
  8
PLAN_1
 62
     2
  6
CONTINUOUS
 10
-0.497579
 20
3.666390
  0
VERTEX
  8
PLAN_1
 62
     2
  6
CONTINUOUS
 10
-0.499524
 20
3.664933
  0
VERTEX
  8
PLAN_1
 62
     2
  6
CONTINUOUS
 10
-0.501957
 20
3.663472
  0
VERTEX
  8
PLAN_1
 62
     2
  6
CONTINUOUS
 10
-0.504874
 20
3.662016
  0
VERTEX
  8
PLAN_1
 62
     2
  6
CONTINUOUS
 10
-0.508276
 20
3.661043
  0
VERTEX
  8
PLAN_1
 62
     2
  6
CONTINUOUS
 10
-0.511681
 20
3.660555
  0
VERTEX
  8
PLAN_1
 62
     2
  6
CONTINUOUS
 10
-0.516059
 20
3.660555
  0
VERTEX
  8
PLAN_1
 62
     2
  6
CONTINUOUS
 10
-0.519461
 20
3.660555
  0
VERTEX
  8
PLAN_1
 62
     2
  6
CONTINUOUS
 10
-0.523350
 20
3.661528
  0
VERTEX
  8
PLAN_1
 62
     2
  6
CONTINUOUS
 10
-0.527244
 20
3.662500
  0
VERTEX
  8
PLAN_1
 62
     2
  6
CONTINUOUS
 10
-0.530646
 20
3.664445
  0
VERTEX
  8
PLAN_1
 62
     2
  6
CONTINUOUS
 10
-0.532106
 20
3.665417
  0
VERTEX
  8
PLAN_1
 62
     2
  6
CONTINUOUS
 10
-0.534051
 20
3.666878
  0
VERTEX
  8
PLAN_1
 62
     2
  6
CONTINUOUS
 10
-0.535024
 20
3.668823
  0
VERTEX
  8
PLAN_1
 62
     2
  6
CONTINUOUS
 10
-0.536480
 20
3.670768
  0
VERTEX
  8
PLAN_1
 62
     2
  6
CONTINUOUS
 10
-0.537453
 20
3.672713
  0
VERTEX
  8
PLAN_1
 62
     2
  6
CONTINUOUS
 10
-0.538425
 20
3.675146
  0
VERTEX
  8
PLAN_1
 62
     2
  6
CONTINUOUS
 10
-0.538913
 20
3.677575
  0
VERTEX
  8
PLAN_1
 62
     2
  6
CONTINUOUS
 10
-0.539398
 20
3.680492
  0
VERTEX
  8
PLAN_1
 62
     2
  6
CONTINUOUS
 10
-0.530161
 20
3.680492
  0
VERTEX
  8
PLAN_1
 62
     2
  6
CONTINUOUS
 10
-0.529673
 20
3.677575
  0
VERTEX
  8
PLAN_1
 62
     2
  6
CONTINUOUS
 10
-0.528217
 20
3.675146
  0
VERTEX
  8
PLAN_1
 62
     2
  6
CONTINUOUS
 10
-0.526756
 20
3.673201
  0
VERTEX
  8
PLAN_1
 62
     2
  6
CONTINUOUS
 10
-0.525299
 20
3.671256
  0
VERTEX
  8
PLAN_1
 62
     2
  6
CONTINUOUS
 10
-0.522866
 20
3.669795
  0
VERTEX
  8
PLAN_1
 62
     2
  6
CONTINUOUS
 10
-0.520433
 20
3.669307
  0
VERTEX
  8
PLAN_1
 62
     2
  6
CONTINUOUS
 10
-0.517516
 20
3.668335
  0
VERTEX
  8
PLAN_1
 62
     2
  6
CONTINUOUS
 10
-0.514598
 20
3.668335
  0
VERTEX
  8
PLAN_1
 62
     2
  6
CONTINUOUS
 10
-0.511197
 20
3.668823
  0
VERTEX
  8
PLAN_1
 62
     2
  6
CONTINUOUS
 10
-0.508276
 20
3.669795
  0
VERTEX
  8
PLAN_1
 62
     2
  6
CONTINUOUS
 10
-0.505358
 20
3.671256
  0
VERTEX
  8
PLAN_1
 62
     2
  6
CONTINUOUS
 10
-0.503413
 20
3.673201
  0
VERTEX
  8
PLAN_1
 62
     2
  6
CONTINUOUS
 10
-0.501469
 20
3.675630
  0
VERTEX
  8
PLAN_1
 62
     2
  6
CONTINUOUS
 10
-0.500496
 20
3.678547
  0
VERTEX
  8
PLAN_1
 62
     2
  6
CONTINUOUS
 10
-0.499524
 20
3.681953
  0
VERTEX
  8
PLAN_1
 62
     2
  6
CONTINUOUS
 10
-0.499039
 20
3.684870
  0
VERTEX
  8
PLAN_1
 62
     2
  6
CONTINUOUS
 10
-0.499524
 20
3.688760
  0
VERTEX
  8
PLAN_1
 62
     2
  6
CONTINUOUS
 10
-0.500496
 20
3.692165
  0
VERTEX
  8
PLAN_1
 62
     2
  6
CONTINUOUS
 10
-0.501957
 20
3.695083
  0
VERTEX
  8
PLAN_1
 62
     2
  6
CONTINUOUS
 10
-0.503902
 20
3.697028
  0
VERTEX
  8
PLAN_1
 62
     2
  6
CONTINUOUS
 10
-0.506331
 20
3.698972
  0
VERTEX
  8
PLAN_1
 62
     2
  6
CONTINUOUS
 10
-0.509248
 20
3.700433
  0
VERTEX
  8
PLAN_1
 62
     2
  6
CONTINUOUS
 10
-0.512169
 20
3.700917
  0
VERTEX
  8
PLAN_1
 62
     2
  6
CONTINUOUS
 10
-0.515571
 20
3.701406
  0
VERTEX
  8
PLAN_1
 62
     2
  6
CONTINUOUS
 10
-0.517516
 20
3.701406
  0
VERTEX
  8
PLAN_1
 62
     2
  6
CONTINUOUS
 10
-0.519461
 20
3.700917
  0
VERTEX
  8
PLAN_1
 62
     2
  6
CONTINUOUS
 10
-0.520921
 20
3.700433
  0
VERTEX
  8
PLAN_1
 62
     2
  6
CONTINUOUS
 10
-0.522866
 20
3.699457
  0
VERTEX
  8
PLAN_1
 62
     2
  6
CONTINUOUS
 10
-0.524811
 20
3.698484
  0
VERTEX
  8
PLAN_1
 62
     2
  6
CONTINUOUS
 10
-0.526272
 20
3.697512
  0
VERTEX
  8
PLAN_1
 62
     2
  6
CONTINUOUS
 10
-0.527728
 20
3.696055
  0
VERTEX
  8
PLAN_1
 62
     2
  6
CONTINUOUS
 10
-0.529189
 20
3.694594
  0
VERTEX
  8
PLAN_1
 62
     2
  6
CONTINUOUS
 10
-0.536969
 20
3.694594
  0
VERTEX
  8
PLAN_1
 62
     2
  6
CONTINUOUS
 10
-0.531134
 20
3.733984
  0
VERTEX
  8
PLAN_1
 62
     2
  6
CONTINUOUS
 10
-0.493689
 20
3.733984
  0
VERTEX
  8
PLAN_1
 62
     2
  6
CONTINUOUS
 10
-0.493689
 20
3.725232
  0
VERTEX
  8
PLAN_1
 62
     2
  6
CONTINUOUS
 10
-0.524323
 20
3.725232
  0
VERTEX
  8
PLAN_1
 62
     2
  6
CONTINUOUS
 10
-0.527728
 20
3.704807
  0
SEQEND
  8
0
  0
POLYLINE
  8
PLAN_1
 62
     2
  6
CONTINUOUS
 66
     1
 40
0.003000
 41
0.003000
  0
VERTEX
  8
PLAN_1
 62
     2
  6
CONTINUOUS
 10
-0.441657
 20
3.715992
  0
VERTEX
  8
PLAN_1
 62
     2
  6
CONTINUOUS
 10
-0.442142
 20
3.718425
  0
VERTEX
  8
PLAN_1
 62
     2
  6
CONTINUOUS
 10
-0.443114
 20
3.720370
  0
VERTEX
  8
PLAN_1
 62
     2
  6
CONTINUOUS
 10
-0.444087
 20
3.722315
  0
VERTEX
  8
PLAN_1
 62
     2
  6
CONTINUOUS
 10
-0.445547
 20
3.724260
  0
VERTEX
  8
PLAN_1
 62
     2
  6
CONTINUOUS
 10
-0.447004
 20
3.725717
  0
VERTEX
  8
PLAN_1
 62
     2
  6
CONTINUOUS
 10
-0.448949
 20
3.726689
  0
VERTEX
  8
PLAN_1
 62
     2
  6
CONTINUOUS
 10
-0.451382
 20
3.727177
  0
VERTEX
  8
PLAN_1
 62
     2
  6
CONTINUOUS
 10
-0.454299
 20
3.727177
  0
VERTEX
  8
PLAN_1
 62
     2
  6
CONTINUOUS
 10
-0.456732
 20
3.727177
  0
VERTEX
  8
PLAN_1
 62
     2
  6
CONTINUOUS
 10
-0.459161
 20
3.726689
  0
VERTEX
  8
PLAN_1
 62
     2
  6
CONTINUOUS
 10
-0.461106
 20
3.725717
  0
VERTEX
  8
PLAN_1
 62
     2
  6
CONTINUOUS
 10
-0.463051
 20
3.724260
  0
VERTEX
  8
PLAN_1
 62
     2
  6
CONTINUOUS
 10
-0.464512
 20
3.722799
  0
VERTEX
  8
PLAN_1
 62
     2
  6
CONTINUOUS
 10
-0.465972
 20
3.720854
  0
VERTEX
  8
PLAN_1
 62
     2
  6
CONTINUOUS
 10
-0.467429
 20
3.718909
  0
VERTEX
  8
PLAN_1
 62
     2
  6
CONTINUOUS
 10
-0.468402
 20
3.716480
  0
VERTEX
  8
PLAN_1
 62
     2
  6
CONTINUOUS
 10
-0.469862
 20
3.712102
  0
VERTEX
  8
PLAN_1
 62
     2
  6
CONTINUOUS
 10
-0.470835
 20
3.707724
  0
VERTEX
  8
PLAN_1
 62
     2
  6
CONTINUOUS
 10
-0.471319
 20
3.703835
  0
VERTEX
  8
PLAN_1
 62
     2
  6
CONTINUOUS
 10
-0.471807
 20
3.700433
  0
VERTEX
  8
PLAN_1
 62
     2
  6
CONTINUOUS
 10
-0.471319
 20
3.699945
  0
VERTEX
  8
PLAN_1
 62
     2
  6
CONTINUOUS
 10
-0.470346
 20
3.701406
  0
VERTEX
  8
PLAN_1
 62
     2
  6
CONTINUOUS
 10
-0.468890
 20
3.703350
  0
VERTEX
  8
PLAN_1
 62
     2
  6
CONTINUOUS
 10
-0.467429
 20
3.704807
  0
VERTEX
  8
PLAN_1
 62
     2
  6
CONTINUOUS
 10
-0.465484
 20
3.706268
  0
VERTEX
  8
PLAN_1
 62
     2
  6
CONTINUOUS
 10
-0.463051
 20
3.707240
  0
VERTEX
  8
PLAN_1
 62
     2
  6
CONTINUOUS
 10
-0.460622
 20
3.708213
  0
VERTEX
  8
PLAN_1
 62
     2
  6
CONTINUOUS
 10
-0.457705
 20
3.708697
  0
VERTEX
  8
PLAN_1
 62
     2
  6
CONTINUOUS
 10
-0.453815
 20
3.709185
  0
VERTEX
  8
PLAN_1
 62
     2
  6
CONTINUOUS
 10
-0.450409
 20
3.708697
  0
VERTEX
  8
PLAN_1
 62
     2
  6
CONTINUOUS
 10
-0.446520
 20
3.707724
  0
VERTEX
  8
PLAN_1
 62
     2
  6
CONTINUOUS
 10
-0.442630
 20
3.706268
  0
VERTEX
  8
PLAN_1
 62
     2
  6
CONTINUOUS
 10
-0.439224
 20
3.703835
  0
VERTEX
  8
PLAN_1
 62
     2
  6
CONTINUOUS
 10
-0.437768
 20
3.702378
  0
VERTEX
  8
PLAN_1
 62
     2
  6
CONTINUOUS
 10
-0.435823
 20
3.700917
  0
VERTEX
  8
PLAN_1
 62
     2
  6
CONTINUOUS
 10
-0.434846
 20
3.698972
  0
VERTEX
  8
PLAN_1
 62
     2
  6
CONTINUOUS
 10
-0.433390
 20
3.697028
  0
VERTEX
  8
PLAN_1
 62
     2
  6
CONTINUOUS
 10
-0.432417
 20
3.694594
  0
VERTEX
  8
PLAN_1
 62
     2
  6
CONTINUOUS
 10
-0.431929
 20
3.691677
  0
VERTEX
  8
PLAN_1
 62
     2
  6
CONTINUOUS
 10
-0.431445
 20
3.688760
  0
VERTEX
  8
PLAN_1
 62
     2
  6
CONTINUOUS
 10
-0.430957
 20
3.685843
  0
VERTEX
  8
PLAN_1
 62
     2
  6
CONTINUOUS
 10
-0.431445
 20
3.682925
  0
VERTEX
  8
PLAN_1
 62
     2
  6
CONTINUOUS
 10
-0.431445
 20
3.680492
  0
VERTEX
  8
PLAN_1
 62
     2
  6
CONTINUOUS
 10
-0.431929
 20
3.678063
  0
VERTEX
  8
PLAN_1
 62
     2
  6
CONTINUOUS
 10
-0.432902
 20
3.676118
  0
VERTEX
  8
PLAN_1
 62
     2
  6
CONTINUOUS
 10
-0.433874
 20
3.673685
  0
VERTEX
  8
PLAN_1
 62
     2
  6
CONTINUOUS
 10
-0.434846
 20
3.671740
  0
VERTEX
  8
PLAN_1
 62
     2
  6
CONTINUOUS
 10
-0.436307
 20
3.669307
  0
VERTEX
  8
PLAN_1
 62
     2
  6
CONTINUOUS
 10
-0.438252
 20
3.667362
  0
VERTEX
  8
PLAN_1
 62
     2
  6
CONTINUOUS
 10
-0.439713
 20
3.665906
  0
VERTEX
  8
PLAN_1
 62
     2
  6
CONTINUOUS
 10
-0.441169
 20
3.664445
  0
VERTEX
  8
PLAN_1
 62
     2
  6
CONTINUOUS
 10
-0.443114
 20
3.663472
  0
VERTEX
  8
PLAN_1
 62
     2
  6
CONTINUOUS
 10
-0.445059
 20
3.662500
  0
VERTEX
  8
PLAN_1
 62
     2
  6
CONTINUOUS
 10
-0.447492
 20
3.661528
  0
VERTEX
  8
PLAN_1
 62
     2
  6
CONTINUOUS
 10
-0.449921
 20
3.661043
  0
VERTEX
  8
PLAN_1
 62
     2
  6
CONTINUOUS
 10
-0.452843
 20
3.660555
  0
VERTEX
  8
PLAN_1
 62
     2
  6
CONTINUOUS
 10
-0.456732
 20
3.660555
  0
VERTEX
  8
PLAN_1
 62
     2
  6
CONTINUOUS
 10
-0.458677
 20
3.660555
  0
VERTEX
  8
PLAN_1
 62
     2
  6
CONTINUOUS
 10
-0.461106
 20
3.661043
  0
VERTEX
  8
PLAN_1
 62
     2
  6
CONTINUOUS
 10
-0.463539
 20
3.661528
  0
VERTEX
  8
PLAN_1
 62
     2
  6
CONTINUOUS
 10
-0.465972
 20
3.662500
  0
VERTEX
  8
PLAN_1
 62
     2
  6
CONTINUOUS
 10
-0.468890
 20
3.663961
  0
VERTEX
  8
PLAN_1
 62
     2
  6
CONTINUOUS
 10
-0.471319
 20
3.665906
  0
VERTEX
  8
PLAN_1
 62
     2
  6
CONTINUOUS
 10
-0.473264
 20
3.668335
  0
VERTEX
  8
PLAN_1
 62
     2
  6
CONTINUOUS
 10
-0.475209
 20
3.671256
  0
VERTEX
  8
PLAN_1
 62
     2
  6
CONTINUOUS
 10
-0.477154
 20
3.673685
  0
VERTEX
  8
PLAN_1
 62
     2
  6
CONTINUOUS
 10
-0.478126
 20
3.676602
  0
VERTEX
  8
PLAN_1
 62
     2
  6
CONTINUOUS
 10
-0.479098
 20
3.679520
  0
VERTEX
  8
PLAN_1
 62
     2
  6
CONTINUOUS
 10
-0.480071
 20
3.682925
  0
VERTEX
  8
PLAN_1
 62
     2
  6
CONTINUOUS
 10
-0.480559
 20
3.685843
  0
VERTEX
  8
PLAN_1
 62
     2
  6
CONTINUOUS
 10
-0.480559
 20
3.689248
  0
VERTEX
  8
PLAN_1
 62
     2
  6
CONTINUOUS
 10
-0.481047
 20
3.692650
  0
VERTEX
  8
PLAN_1
 62
     2
  6
CONTINUOUS
 10
-0.481047
 20
3.696539
  0
VERTEX
  8
PLAN_1
 62
     2
  6
CONTINUOUS
 10
-0.480559
 20
3.702862
  0
VERTEX
  8
PLAN_1
 62
     2
  6
CONTINUOUS
 10
-0.480071
 20
3.709185
  0
VERTEX
  8
PLAN_1
 62
     2
  6
CONTINUOUS
 10
-0.478126
 20
3.715992
  0
VERTEX
  8
PLAN_1
 62
     2
  6
CONTINUOUS
 10
-0.475697
 20
3.721827
  0
VERTEX
  8
PLAN_1
 62
     2
  6
CONTINUOUS
 10
-0.474236
 20
3.724744
  0
VERTEX
  8
PLAN_1
 62
     2
  6
CONTINUOUS
 10
-0.472291
 20
3.727177
  0
VERTEX
  8
PLAN_1
 62
     2
  6
CONTINUOUS
 10
-0.469862
 20
3.729610
  0
VERTEX
  8
PLAN_1
 62
     2
  6
CONTINUOUS
 10
-0.467429
 20
3.731555
  0
VERTEX
  8
PLAN_1
 62
     2
  6
CONTINUOUS
 10
-0.464512
 20
3.733500
  0
VERTEX
  8
PLAN_1
 62
     2
  6
CONTINUOUS
 10
-0.461594
 20
3.734472
  0
VERTEX
  8
PLAN_1
 62
     2
  6
CONTINUOUS
 10
-0.457705
 20
3.735445
  0
VERTEX
  8
PLAN_1
 62
     2
  6
CONTINUOUS
 10
-0.453815
 20
3.735445
  0
VERTEX
  8
PLAN_1
 62
     2
  6
CONTINUOUS
 10
-0.450898
 20
3.735445
  0
VERTEX
  8
PLAN_1
 62
     2
  6
CONTINUOUS
 10
-0.447492
 20
3.734472
  0
VERTEX
  8
PLAN_1
 62
     2
  6
CONTINUOUS
 10
-0.443602
 20
3.733500
  0
VERTEX
  8
PLAN_1
 62
     2
  6
CONTINUOUS
 10
-0.440685
 20
3.731555
  0
VERTEX
  8
PLAN_1
 62
     2
  6
CONTINUOUS
 10
-0.437768
 20
3.728634
  0
VERTEX
  8
PLAN_1
 62
     2
  6
CONTINUOUS
 10
-0.435335
 20
3.725232
  0
VERTEX
  8
PLAN_1
 62
     2
  6
CONTINUOUS
 10
-0.434362
 20
3.723287
  0
VERTEX
  8
PLAN_1
 62
     2
  6
CONTINUOUS
 10
-0.433390
 20
3.721343
  0
VERTEX
  8
PLAN_1
 62
     2
  6
CONTINUOUS
 10
-0.432902
 20
3.718909
  0
VERTEX
  8
PLAN_1
 62
     2
  6
CONTINUOUS
 10
-0.432902
 20
3.715992
  0
VERTEX
  8
PLAN_1
 62
     2
  6
CONTINUOUS
 10
-0.441657
 20
3.715992
  0
SEQEND
  8
0
  0
POLYLINE
  8
PLAN_1
 62
     2
  6
CONTINUOUS
 66
     1
 40
0.003000
 41
0.003000
  0
VERTEX
  8
PLAN_1
 62
     2
  6
CONTINUOUS
 10
-0.454787
 20
3.668823
  0
VERTEX
  8
PLAN_1
 62
     2
  6
CONTINUOUS
 10
-0.451870
 20
3.668823
  0
VERTEX
  8
PLAN_1
 62
     2
  6
CONTINUOUS
 10
-0.448949
 20
3.669795
  0
VERTEX
  8
PLAN_1
 62
     2
  6
CONTINUOUS
 10
-0.446520
 20
3.671256
  0
VERTEX
  8
PLAN_1
 62
     2
  6
CONTINUOUS
 10
-0.444575
 20
3.673201
  0
VERTEX
  8
PLAN_1
 62
     2
  6
CONTINUOUS
 10
-0.442630
 20
3.675630
  0
VERTEX
  8
PLAN_1
 62
     2
  6
CONTINUOUS
 10
-0.441657
 20
3.678547
  0
VERTEX
  8
PLAN_1
 62
     2
  6
CONTINUOUS
 10
-0.440685
 20
3.681953
  0
VERTEX
  8
PLAN_1
 62
     2
  6
CONTINUOUS
 10
-0.440685
 20
3.685358
  0
VERTEX
  8
PLAN_1
 62
     2
  6
CONTINUOUS
 10
-0.440685
 20
3.687787
  0
VERTEX
  8
PLAN_1
 62
     2
  6
CONTINUOUS
 10
-0.441169
 20
3.690705
  0
VERTEX
  8
PLAN_1
 62
     2
  6
CONTINUOUS
 10
-0.442142
 20
3.693138
  0
VERTEX
  8
PLAN_1
 62
     2
  6
CONTINUOUS
 10
-0.443602
 20
3.695567
  0
VERTEX
  8
PLAN_1
 62
     2
  6
CONTINUOUS
 10
-0.445547
 20
3.697512
  0
VERTEX
  8
PLAN_1
 62
     2
  6
CONTINUOUS
 10
-0.448465
 20
3.699457
  0
VERTEX
  8
PLAN_1
 62
     2
  6
CONTINUOUS
 10
-0.451382
 20
3.700433
  0
VERTEX
  8
PLAN_1
 62
     2
  6
CONTINUOUS
 10
-0.455272
 20
3.700917
  0
VERTEX
  8
PLAN_1
 62
     2
  6
CONTINUOUS
 10
-0.458677
 20
3.700433
  0
VERTEX
  8
PLAN_1
 62
     2
  6
CONTINUOUS
 10
-0.462079
 20
3.699457
  0
VERTEX
  8
PLAN_1
 62
     2
  6
CONTINUOUS
 10
-0.464512
 20
3.698000
  0
VERTEX
  8
PLAN_1
 62
     2
  6
CONTINUOUS
 10
-0.466457
 20
3.696055
  0
VERTEX
  8
PLAN_1
 62
     2
  6
CONTINUOUS
 10
-0.468402
 20
3.693622
  0
VERTEX
  8
PLAN_1
 62
     2
  6
CONTINUOUS
 10
-0.469374
 20
3.691193
  0
VERTEX
  8
PLAN_1
 62
     2
  6
CONTINUOUS
 10
-0.470346
 20
3.688276
  0
VERTEX
  8
PLAN_1
 62
     2
  6
CONTINUOUS
 10
-0.470346
 20
3.684870
  0
VERTEX
  8
PLAN_1
 62
     2
  6
CONTINUOUS
 10
-0.470346
 20
3.681953
  0
VERTEX
  8
PLAN_1
 62
     2
  6
CONTINUOUS
 10
-0.469374
 20
3.679035
  0
VERTEX
  8
PLAN_1
 62
     2
  6
CONTINUOUS
 10
-0.468402
 20
3.676118
  0
VERTEX
  8
PLAN_1
 62
     2
  6
CONTINUOUS
 10
-0.466457
 20
3.673685
  0
VERTEX
  8
PLAN_1
 62
     2
  6
CONTINUOUS
 10
-0.464512
 20
3.671740
  0
VERTEX
  8
PLAN_1
 62
     2
  6
CONTINUOUS
 10
-0.462079
 20
3.670283
  0
VERTEX
  8
PLAN_1
 62
     2
  6
CONTINUOUS
 10
-0.458677
 20
3.668823
  0
VERTEX
  8
PLAN_1
 62
     2
  6
CONTINUOUS
 10
-0.454787
 20
3.668823
  0
SEQEND
  8
0
  0
POLYLINE
  8
PLAN_1
 62
     2
  6
CONTINUOUS
 66
     1
 40
0.004374
 41
0.004374
  0
VERTEX
  8
PLAN_1
 62
     2
  6
CONTINUOUS
 10
-1.345173
 20
3.431516
  0
VERTEX
  8
PLAN_1
 62
     2
  6
CONTINUOUS
 10
-1.638890
 20
3.431516
  0
SEQEND
  8
0
  0
SOLID
  8
PLAN_1
 62
     2
 10
-1.609224
 20
3.431516
 11
-1.668551
 21
3.447079
 12
-1.609224
 22
3.431516
 13
-1.668551
 23
3.415469
  0
POLYLINE
  8
PLAN_1
 62
     2
  6
CONTINUOUS
 66
     1
 40
0.003000
 41
0.003000
  0
VERTEX
  8
PLAN_1
 62
     2
  6
CONTINUOUS
 10
-1.609224
 20
3.431516
  0
VERTEX
  8
PLAN_1
 62
     2
  6
CONTINUOUS
 10
-1.668551
 20
3.447079
  0
VERTEX
  8
PLAN_1
 62
     2
  6
CONTINUOUS
 10
-1.668551
 20
3.415469
  0
VERTEX
  8
PLAN_1
 62
     2
  6
CONTINUOUS
 10
-1.609224
 20
3.431516
  0
SEQEND
  8
0
  0
SOLID
  8
PLAN_1
 62
     2
 10
-1.374350
 20
3.431516
 11
-1.315512
 21
3.447079
 12
-1.374350
 22
3.431516
 13
-1.315512
 23
3.415469
  0
POLYLINE
  8
PLAN_1
 62
     2
  6
CONTINUOUS
 66
     1
 40
0.003000
 41
0.003000
  0
VERTEX
  8
PLAN_1
 62
     2
  6
CONTINUOUS
 10
-1.374350
 20
3.431516
  0
VERTEX
  8
PLAN_1
 62
     2
  6
CONTINUOUS
 10
-1.315512
 20
3.447079
  0
VERTEX
  8
PLAN_1
 62
     2
  6
CONTINUOUS
 10
-1.315512
 20
3.415469
  0
VERTEX
  8
PLAN_1
 62
     2
  6
CONTINUOUS
 10
-1.374350
 20
3.431516
  0
SEQEND
  8
0
  0
POLYLINE
  8
PLAN_1
 62
     2
  6
CONTINUOUS
 66
     1
 40
0.003000
 41
0.003000
  0
VERTEX
  8
PLAN_1
 62
     2
  6
CONTINUOUS
 10
-1.505646
 20
3.497650
  0
VERTEX
  8
PLAN_1
 62
     2
  6
CONTINUOUS
 10
-1.504189
 20
3.498622
  0
VERTEX
  8
PLAN_1
 62
     2
  6
CONTINUOUS
 10
-1.503217
 20
3.499110
  0
VERTEX
  8
PLAN_1
 62
     2
  6
CONTINUOUS
 10
-1.501272
 20
3.500083
  0
VERTEX
  8
PLAN_1
 62
     2
  6
CONTINUOUS
 10
-1.499811
 20
3.500567
  0
VERTEX
  8
PLAN_1
 62
     2
  6
CONTINUOUS
 10
-1.497866
 20
3.501539
  0
VERTEX
  8
PLAN_1
 62
     2
  6
CONTINUOUS
 10
-1.495921
 20
3.501539
  0
VERTEX
  8
PLAN_1
 62
     2
  6
CONTINUOUS
 10
-1.493976
 20
3.502028
  0
VERTEX
  8
PLAN_1
 62
     2
  6
CONTINUOUS
 10
-1.491543
 20
3.502028
  0
VERTEX
  8
PLAN_1
 62
     2
  6
CONTINUOUS
 10
-1.487169
 20
3.501539
  0
VERTEX
  8
PLAN_1
 62
     2
  6
CONTINUOUS
 10
-1.482791
 20
3.500567
  0
VERTEX
  8
PLAN_1
 62
     2
  6
CONTINUOUS
 10
-1.478417
 20
3.498622
  0
VERTEX
  8
PLAN_1
 62
     2
  6
CONTINUOUS
 10
-1.475012
 20
3.496193
  0
VERTEX
  8
PLAN_1
 62
     2
  6
CONTINUOUS
 10
-1.472094
 20
3.492787
  0
VERTEX
  8
PLAN_1
 62
     2
  6
CONTINUOUS
 10
-1.469661
 20
3.488898
  0
VERTEX
  8
PLAN_1
 62
     2
  6
CONTINUOUS
 10
-1.468689
 20
3.486465
  0
VERTEX
  8
PLAN_1
 62
     2
  6
CONTINUOUS
 10
-1.468205
 20
3.484035
  0
VERTEX
  8
PLAN_1
 62
     2
  6
CONTINUOUS
 10
-1.467717
 20
3.481602
  0
VERTEX
  8
PLAN_1
 62
     2
  6
CONTINUOUS
 10
-1.467232
 20
3.478685
  0
VERTEX
  8
PLAN_1
 62
     2
  6
CONTINUOUS
 10
-1.467717
 20
3.475280
  0
VERTEX
  8
PLAN_1
 62
     2
  6
CONTINUOUS
 10
-1.468205
 20
3.471390
  0
VERTEX
  8
PLAN_1
 62
     2
  6
CONTINUOUS
 10
-1.469661
 20
3.467016
  0
VERTEX
  8
PLAN_1
 62
     2
  6
CONTINUOUS
 10
-1.472094
 20
3.462638
  0
VERTEX
  8
PLAN_1
 62
     2
  6
CONTINUOUS
 10
-1.473551
 20
3.460693
  0
VERTEX
  8
PLAN_1
 62
     2
  6
CONTINUOUS
 10
-1.475496
 20
3.459232
  0
VERTEX
  8
PLAN_1
 62
     2
  6
CONTINUOUS
 10
-1.477445
 20
3.457287
  0
VERTEX
  8
PLAN_1
 62
     2
  6
CONTINUOUS
 10
-1.480362
 20
3.455831
  0
VERTEX
  8
PLAN_1
 62
     2
  6
CONTINUOUS
 10
-1.482791
 20
3.454858
  0
VERTEX
  8
PLAN_1
 62
     2
  6
CONTINUOUS
 10
-1.486197
 20
3.453886
  0
VERTEX
  8
PLAN_1
 62
     2
  6
CONTINUOUS
 10
-1.490087
 20
3.453398
  0
VERTEX
  8
PLAN_1
 62
     2
  6
CONTINUOUS
 10
-1.493976
 20
3.452913
  0
VERTEX
  8
PLAN_1
 62
     2
  6
CONTINUOUS
 10
-1.497866
 20
3.453398
  0
VERTEX
  8
PLAN_1
 62
     2
  6
CONTINUOUS
 10
-1.501272
 20
3.453886
  0
VERTEX
  8
PLAN_1
 62
     2
  6
CONTINUOUS
 10
-1.505161
 20
3.455343
  0
VERTEX
  8
PLAN_1
 62
     2
  6
CONTINUOUS
 10
-1.508567
 20
3.456803
  0
VERTEX
  8
PLAN_1
 62
     2
  6
CONTINUOUS
 10
-1.510512
 20
3.458260
  0
VERTEX
  8
PLAN_1
 62
     2
  6
CONTINUOUS
 10
-1.511969
 20
3.459720
  0
VERTEX
  8
PLAN_1
 62
     2
  6
CONTINUOUS
 10
-1.513429
 20
3.461177
  0
VERTEX
  8
PLAN_1
 62
     2
  6
CONTINUOUS
 10
-1.514402
 20
3.463126
  0
VERTEX
  8
PLAN_1
 62
     2
  6
CONTINUOUS
 10
-1.515374
 20
3.465071
  0
VERTEX
  8
PLAN_1
 62
     2
  6
CONTINUOUS
 10
-1.516346
 20
3.467500
  0
VERTEX
  8
PLAN_1
 62
     2
  6
CONTINUOUS
 10
-1.517319
 20
3.470417
  0
VERTEX
  8
PLAN_1
 62
     2
  6
CONTINUOUS
 10
-1.517803
 20
3.473335
  0
VERTEX
  8
PLAN_1
 62
     2
  6
CONTINUOUS
 10
-1.508079
 20
3.473335
  0
VERTEX
  8
PLAN_1
 62
     2
  6
CONTINUOUS
 10
-1.507594
 20
3.470417
  0
VERTEX
  8
PLAN_1
 62
     2
  6
CONTINUOUS
 10
-1.506618
 20
3.467500
  0
VERTEX
  8
PLAN_1
 62
     2
  6
CONTINUOUS
 10
-1.505161
 20
3.465555
  0
VERTEX
  8
PLAN_1
 62
     2
  6
CONTINUOUS
 10
-1.503217
 20
3.464098
  0
VERTEX
  8
PLAN_1
 62
     2
  6
CONTINUOUS
 10
-1.500783
 20
3.462638
  0
VERTEX
  8
PLAN_1
 62
     2
  6
CONTINUOUS
 10
-1.498354
 20
3.461665
  0
VERTEX
  8
PLAN_1
 62
     2
  6
CONTINUOUS
 10
-1.495437
 20
3.461177
  0
VERTEX
  8
PLAN_1
 62
     2
  6
CONTINUOUS
 10
-1.492520
 20
3.461177
  0
VERTEX
  8
PLAN_1
 62
     2
  6
CONTINUOUS
 10
-1.489114
 20
3.461177
  0
VERTEX
  8
PLAN_1
 62
     2
  6
CONTINUOUS
 10
-1.486197
 20
3.462154
  0
VERTEX
  8
PLAN_1
 62
     2
  6
CONTINUOUS
 10
-1.483764
 20
3.463610
  0
VERTEX
  8
PLAN_1
 62
     2
  6
CONTINUOUS
 10
-1.481335
 20
3.466043
  0
VERTEX
  8
PLAN_1
 62
     2
  6
CONTINUOUS
 10
-1.479390
 20
3.468472
  0
VERTEX
  8
PLAN_1
 62
     2
  6
CONTINUOUS
 10
-1.478417
 20
3.471390
  0
VERTEX
  8
PLAN_1
 62
     2
  6
CONTINUOUS
 10
-1.477445
 20
3.474307
  0
VERTEX
  8
PLAN_1
 62
     2
  6
CONTINUOUS
 10
-1.477445
 20
3.477713
  0
VERTEX
  8
PLAN_1
 62
     2
  6
CONTINUOUS
 10
-1.477445
 20
3.481602
  0
VERTEX
  8
PLAN_1
 62
     2
  6
CONTINUOUS
 10
-1.478417
 20
3.484520
  0
VERTEX
  8
PLAN_1
 62
     2
  6
CONTINUOUS
 10
-1.479874
 20
3.487437
  0
VERTEX
  8
PLAN_1
 62
     2
  6
CONTINUOUS
 10
-1.481819
 20
3.489870
  0
VERTEX
  8
PLAN_1
 62
     2
  6
CONTINUOUS
 10
-1.484252
 20
3.491815
  0
VERTEX
  8
PLAN_1
 62
     2
  6
CONTINUOUS
 10
-1.487169
 20
3.492787
  0
VERTEX
  8
PLAN_1
 62
     2
  6
CONTINUOUS
 10
-1.490087
 20
3.493760
  0
VERTEX
  8
PLAN_1
 62
     2
  6
CONTINUOUS
 10
-1.493492
 20
3.493760
  0
VERTEX
  8
PLAN_1
 62
     2
  6
CONTINUOUS
 10
-1.495437
 20
3.493760
  0
VERTEX
  8
PLAN_1
 62
     2
  6
CONTINUOUS
 10
-1.497382
 20
3.493276
  0
VERTEX
  8
PLAN_1
 62
     2
  6
CONTINUOUS
 10
-1.499327
 20
3.492787
  0
VERTEX
  8
PLAN_1
 62
     2
  6
CONTINUOUS
 10
-1.500783
 20
3.492303
  0
VERTEX
  8
PLAN_1
 62
     2
  6
CONTINUOUS
 10
-1.502728
 20
3.491331
  0
VERTEX
  8
PLAN_1
 62
     2
  6
CONTINUOUS
 10
-1.504189
 20
3.489870
  0
VERTEX
  8
PLAN_1
 62
     2
  6
CONTINUOUS
 10
-1.505646
 20
3.488409
  0
VERTEX
  8
PLAN_1
 62
     2
  6
CONTINUOUS
 10
-1.507106
 20
3.486953
  0
VERTEX
  8
PLAN_1
 62
     2
  6
CONTINUOUS
 10
-1.514886
 20
3.487437
  0
VERTEX
  8
PLAN_1
 62
     2
  6
CONTINUOUS
 10
-1.509539
 20
3.526827
  0
VERTEX
  8
PLAN_1
 62
     2
  6
CONTINUOUS
 10
-1.471606
 20
3.526827
  0
VERTEX
  8
PLAN_1
 62
     2
  6
CONTINUOUS
 10
-1.471606
 20
3.517587
  0
VERTEX
  8
PLAN_1
 62
     2
  6
CONTINUOUS
 10
-1.502728
 20
3.517587
  0
VERTEX
  8
PLAN_1
 62
     2
  6
CONTINUOUS
 10
-1.505646
 20
3.497650
  0
SEQEND
  8
0
  0
POLYLINE
  8
PLAN_1
 62
     2
  6
CONTINUOUS
 66
     1
 40
0.004374
 41
0.004374
  0
VERTEX
  8
PLAN_1
 62
     2
  6
CONTINUOUS
 10
-2.156783
 20
1.876862
  0
VERTEX
  8
PLAN_1
 62
     2
  6
CONTINUOUS
 10
-2.156783
 20
3.816165
  0
SEQEND
  8
0
  0
POLYLINE
  8
PLAN_1
 62
     2
  6
CONTINUOUS
 66
     1
 40
0.004374
 41
0.004374
  0
VERTEX
  8
PLAN_1
 62
     2
  6
CONTINUOUS
 10
0.519728
 20
0.366949
  0
VERTEX
  8
PLAN_1
 62
     2
  6
CONTINUOUS
 10
0.519728
 20
3.820059
  0
SEQEND
  8
0
  0
POLYLINE
  8
PLAN_1
 62
     2
  6
CONTINUOUS
 66
     1
 40
0.004374
 41
0.004374
  0
VERTEX
  8
PLAN_1
 62
     2
  6
CONTINUOUS
 10
-1.489598
 20
3.394559
  0
VERTEX
  8
PLAN_1
 62
     2
  6
CONTINUOUS
 10
-1.489598
 20
3.204906
  0
SEQEND
  8
0
  0
POLYLINE
  8
PLAN_1
 62
     2
  6
CONTINUOUS
 66
     1
 40
0.004374
 41
0.004374
  0
VERTEX
  8
PLAN_1
 62
     2
  6
CONTINUOUS
 10
-1.489598
 20
3.662500
  0
VERTEX
  8
PLAN_1
 62
     2
  6
CONTINUOUS
 10
-1.489598
 20
3.579831
  0
SEQEND
  8
0
  0
POLYLINE
  8
PLAN_1
 62
     2
  6
CONTINUOUS
 66
     1
 40
0.004374
 41
0.004374
  0
VERTEX
  8
PLAN_1
 62
     2
  6
CONTINUOUS
 10
-1.609224
 20
3.296327
  0
VERTEX
  8
PLAN_1
 62
     2
  6
CONTINUOUS
 10
-1.609224
 20
3.454858
  0
SEQEND
  8
0
  0
POLYLINE
  8
PLAN_1
 62
     2
  6
CONTINUOUS
 66
     1
 40
0.004374
 41
0.004374
  0
VERTEX
  8
PLAN_1
 62
     2
  6
CONTINUOUS
 10
-1.374350
 20
3.296327
  0
VERTEX
  8
PLAN_1
 62
     2
  6
CONTINUOUS
 10
-1.374350
 20
3.454858
  0
SEQEND
  8
0
  0
ENDSEC
  0
EOF
