999
DXF file: C:\Users\sesa63760\Dev\_Creo\CAD\MCADID0000495_3D-CAD\drw0001_2.dxf
999
Pro/ENGINEER 2019471 by Parametric Technology Corporation
  0
SECTION
  2
HEADER
  9
$ACADVER
  1
AC1024
  9
$DWGCODEPAGE
  3
ANSI_1252
  9
$EXTMAX
 10
236.6796899771
 20
334.7327043962
 30
0.0
  9
$EXTMIN
 10
0.0
 20
0.0
 30
0.0
  9
$LIMMIN
 10
0.0
 20
0.0
  9
$LIMMAX
 10
236.6796899771
 20
334.7327043962
  9
$VIEWCTR
 10
118.3398449886
 20
167.3663521981
  9
$VIEWSIZE
 40
334.7327043962
  9
$CLAYER
  8
0
  9
$LTSCALE
 40
21.8196133236
  9
$CELTYPE
  6
BYLAYER
  9
$DIMSCALE
 40
1.0
  9
$DIMASZ
 40
2.8176153569
  9
$DIMEXO
 40
1.0
  9
$DIMDLI
 40
15.0753692054
  9
$DIMEXE
 40
1.0
  9
$DIMCEN
 40
3.5704821802
  9
$DIMLFAC
 40
1.0
  9
$DIMBLK
  1
_FILLED
  9
$DIMALT
 70
0
  9
$DIMALTF
 40
0.0393700787
  9
$DIMTXT
 40
3.9446614996
  9
$DIMTOL
 70
1
  9
$DIMLIM
 70
0
  9
$DIMTFAC
 40
1.0
  9
$DIMTP
 40
0.01
  9
$DIMTM
 40
0.01
  9
$DIMGAP
 40
0.625
  9
$DIMDSEP
 70
46
  9
$AUNITS
 70
0
  9
$PDMODE
 70
3
  9
$PDSIZE
 40
0.3125
  9
$HANDSEED
  5
2BD
  9
$TILEMODE
 70
1
  9
$MEASUREMENT
 70
1
  9
$INSUNITS
 70
4
  0
ENDSEC
  0
SECTION
  2
CLASSES
  0
CLASS
  1
ACDBDICTIONARYWDFLT
  2
AcDbDictionaryWithDefault
  3
AutoCAD 2000
 90
0
 91
1
280
0
281
0
  0
CLASS
  1
ACDBPLACEHOLDER
  2
AcDbPlaceHolder
  3
AutoCAD 2000
 90
0
 91
1
280
0
281
0
  0
CLASS
  1
LAYOUT
  2
AcDbLayout
  3
AutoCAD 2000
 90
0
 91
0
280
0
281
0
  0
ENDSEC
  0
SECTION
  2
TABLES
  0
TABLE
  2
VPORT
  5
8
100
AcDbSymbolTable
 70
2
  0
VPORT
  5
1F4
100
AcDbSymbolTableRecord
100
AcDbViewportTableRecord
  2
*ACTIVE
 70
0
 10
0.0
 20
0.0
 11
1.0
 21
1.0
 12
118.3398449886
 22
167.3663521981
 13
0.0
 23
0.0
 14
1.0
 24
1.0
 15
0.0
 25
0.0
 16
0.0
 26
0.0
 36
1.0
 17
0.0
 27
0.0
 37
0.0
 40
334.7327043962
 41
0.7070707071
 42
50.0
 43
0.0
 44
0.0
 50
0.0
 51
0.0
 71
0
 72
100
 73
1
 74
1
 75
0
 76
0
 77
0
 78
0
  0
ENDTAB
  0
TABLE
  2
LTYPE
  5
5
100
AcDbSymbolTable
 70
6
  0
LTYPE
  5
14
100
AcDbSymbolTableRecord
100
AcDbLinetypeTableRecord
  2
BYBLOCK
 70
0
  3

 72
65
 73
0
 40
0.0
  0
LTYPE
  5
15
100
AcDbSymbolTableRecord
100
AcDbLinetypeTableRecord
  2
BYLAYER
 70
0
  3

 72
65
 73
0
 40
0.0
  0
LTYPE
  5
16
100
AcDbSymbolTableRecord
100
AcDbLinetypeTableRecord
  2
CONTINUOUS
 70
64
  3
Solid line
 72
65
 73
0
 40
0.0
  0
LTYPE
  5
1F5
100
AcDbSymbolTableRecord
100
AcDbLinetypeTableRecord
  2
CENTER
 70
64
  3
____ _ ____ _ ____ _ ____ _ ____ _ ____ _ ____
 72
65
 73
4
 40
0.6
 49
0.375
 74
0
 49
-0.075
 74
0
 49
0.075
 74
0
 49
-0.075
 74
0
  0
LTYPE
  5
1F6
100
AcDbSymbolTableRecord
100
AcDbLinetypeTableRecord
  2
HIDDEN
 70
64
  3
- - - - - - - - - - - - - - - - - - - -
 72
65
 73
2
 40
0.2
 49
0.1
 74
0
 49
-0.1
 74
0
  0
LTYPE
  5
1F7
100
AcDbSymbolTableRecord
100
AcDbLinetypeTableRecord
  2
PHANTOM
 70
64
  3
_____ _ _ _____ _ _ _____ _ _ _____
 72
65
 73
6
 40
0.8
 49
0.45
 74
0
 49
-0.05
 74
0
 49
0.1
 74
0
 49
-0.05
 74
0
 49
0.1
 74
0
 49
-0.05
 74
0
  0
LTYPE
  5
1F8
100
AcDbSymbolTableRecord
100
AcDbLinetypeTableRecord
  2
DOT
 70
64
  3
. . . . . . . . . . . . . . . . . . . .
 72
65
 73
2
 40
0.2
 49
0.1
 74
0
 49
-0.1
 74
0
  0
LTYPE
  5
1F9
100
AcDbSymbolTableRecord
100
AcDbLinetypeTableRecord
  2
DASHED
 70
64
  3
- - - - - - - - - - - - - - - - - - - -
 72
65
 73
2
 40
0.2
 49
0.1
 74
0
 49
-0.1
 74
0
  0
ENDTAB
  0
TABLE
  2
LAYER
  5
2
100
AcDbSymbolTable
 70
36
  0
LAYER
  5
10
100
AcDbSymbolTableRecord
100
AcDbLayerTableRecord
  2
0
 70
0
 62
7
  6
CONTINUOUS
370
-3
390
F
  0
LAYER
  5
1FA
100
AcDbSymbolTableRecord
100
AcDbLayerTableRecord
  2
DEFAULT_1
 70
0
 62
7
  6
CENTER
370
-3
390
F
  0
LAYER
  5
1FB
100
AcDbSymbolTableRecord
100
AcDbLayerTableRecord
  2
DEFAULT_2
 70
0
 62
8
  6
HIDDEN
370
-3
390
F
  0
LAYER
  5
1FC
100
AcDbSymbolTableRecord
100
AcDbLayerTableRecord
  2
DEFAULT_3
 70
0
 62
7
  6
PHANTOM
370
-3
390
F
  0
LAYER
  5
1FD
100
AcDbSymbolTableRecord
100
AcDbLayerTableRecord
  2
00_COMPONENTS
 70
0
 62
7
  6
CONTINUOUS
370
-3
390
F
  0
LAYER
  5
1FE
100
AcDbSymbolTableRecord
100
AcDbLayerTableRecord
  2
01_1_DEFAULT_DATUMS
 70
0
 62
7
  6
CONTINUOUS
370
-3
390
F
  0
LAYER
  5
1FF
100
AcDbSymbolTableRecord
100
AcDbLayerTableRecord
  2
01_PLANES
 70
0
 62
7
  6
CONTINUOUS
370
-3
390
F
  0
LAYER
  5
200
100
AcDbSymbolTableRecord
100
AcDbLayerTableRecord
  2
02_COORD_SYS
 70
0
 62
7
  6
CONTINUOUS
370
-3
390
F
  0
LAYER
  5
201
100
AcDbSymbolTableRecord
100
AcDbLayerTableRecord
  2
03_AXES
 70
0
 62
7
  6
CONTINUOUS
370
-3
390
F
  0
LAYER
  5
202
100
AcDbSymbolTableRecord
100
AcDbLayerTableRecord
  2
04_POINTS
 70
0
 62
7
  6
CONTINUOUS
370
-3
390
F
  0
LAYER
  5
203
100
AcDbSymbolTableRecord
100
AcDbLayerTableRecord
  2
05_CURVES
 70
0
 62
7
  6
CONTINUOUS
370
-3
390
F
  0
LAYER
  5
204
100
AcDbSymbolTableRecord
100
AcDbLayerTableRecord
  2
06_SURFS
 70
0
 62
7
  6
CONTINUOUS
370
-3
390
F
  0
LAYER
  5
205
100
AcDbSymbolTableRecord
100
AcDbLayerTableRecord
  2
07_COSMETICS
 70
0
 62
7
  6
CONTINUOUS
370
-3
390
F
  0
LAYER
  5
206
100
AcDbSymbolTableRecord
100
AcDbLayerTableRecord
  2
10_NOTES
 70
0
 62
7
  6
CONTINUOUS
370
-3
390
F
  0
LAYER
  5
207
100
AcDbSymbolTableRecord
100
AcDbLayerTableRecord
  2
11_NOTES_PUB
 70
0
 62
7
  6
CONTINUOUS
370
-3
390
F
  0
LAYER
  5
208
100
AcDbSymbolTableRecord
100
AcDbLayerTableRecord
  2
13_REF_GTOL
 70
0
 62
7
  6
CONTINUOUS
370
-3
390
F
  0
LAYER
  5
209
100
AcDbSymbolTableRecord
100
AcDbLayerTableRecord
  2
16_MISC
 70
0
 62
7
  6
CONTINUOUS
370
-3
390
F
  0
LAYER
  5
20A
100
AcDbSymbolTableRecord
100
AcDbLayerTableRecord
  2
17_NO_PRINT
 70
0
 62
7
  6
CONTINUOUS
370
-3
390
F
  0
LAYER
  5
20B
100
AcDbSymbolTableRecord
100
AcDbLayerTableRecord
  2
18_DATUM_CAMS_JOINTS
 70
0
 62
7
  6
CONTINUOUS
370
-3
390
F
  0
LAYER
  5
20C
100
AcDbSymbolTableRecord
100
AcDbLayerTableRecord
  2
19_DATUM_FUNCTIONAL
 70
0
 62
7
  6
CONTINUOUS
370
-3
390
F
  0
LAYER
  5
20D
100
AcDbSymbolTableRecord
100
AcDbLayerTableRecord
  2
20_DATUM_KINEMATIC_SCHEME
 70
0
 62
7
  6
CONTINUOUS
370
-3
390
F
  0
ENDTAB
  0
TABLE
  2
STYLE
  5
3
100
AcDbSymbolTable
 70
1
  0
STYLE
  5
11
100
AcDbSymbolTableRecord
100
AcDbTextStyleTableRecord
  2
STANDARD
 70
0
 40
0.0
 41
0.8
 50
0.0
 71
0
 42
0.2
  3
txt
  4

  0
STYLE
  5
20E
100
AcDbSymbolTableRecord
100
AcDbTextStyleTableRecord
  2
TEXTSTYLE_1
 70
0
 40
0.0
 41
0.8
 50
0.0
 71
0
 42
0.2
  3
gdt
  4

  0
ENDTAB
  0
TABLE
  2
VIEW
  5
6
100
AcDbSymbolTable
 70
0
  0
ENDTAB
  0
TABLE
  2
UCS
  5
7
100
AcDbSymbolTable
 70
0
  0
ENDTAB
  0
TABLE
  2
APPID
  5
9
100
AcDbSymbolTable
 70
1
  0
APPID
  5
20F
100
AcDbSymbolTableRecord
100
AcDbRegAppTableRecord
  2
ACAD
 70
0
  0
ENDTAB
  0
TABLE
  2
BLOCK_RECORD
  5
1
100
AcDbSymbolTable
 70
0
  0
BLOCK_RECORD
  5
210
100
AcDbSymbolTableRecord
100
AcDbBlockTableRecord
  2
*Model_Space
  0
BLOCK_RECORD
  5
211
100
AcDbSymbolTableRecord
100
AcDbBlockTableRecord
  2
*Paper_Space
  0
BLOCK_RECORD
  5
212
100
AcDbSymbolTableRecord
100
AcDbBlockTableRecord
  2
_FILLED
  0
ENDTAB
  0
TABLE
  2
DIMSTYLE
  5
A
100
AcDbSymbolTable
 70
1
100
AcDbDimStyleTable
 71
0
  0
DIMSTYLE
105
213
100
AcDbSymbolTableRecord
100
AcDbDimStyleTableRecord
  2
STANDARD
 70
0
  3

  4

 40
1.0
 41
2.8176153569
 42
1.0
 43
0.38
 44
1.0
 45
0.0
 46
0.0
 47
0.01
 48
0.01
140
3.9446614996
141
0.09
142
0.0
143
25.4
144
1.0
145
0.0
146
1.0
147
0.625
 71
1
 72
0
 73
0
 74
0
 75
0
 76
0
 77
1
 78
8
 79
2
170
0
171
1
172
0
173
0
174
0
175
0
176
0
177
0
178
0
270
2
179
2
271
2
272
2
273
2
274
2
275
0
280
0
281
0
282
0
283
1
284
8
285
0
286
0
287
3
288
0
340
11
278
46
341
212
342
212
343
212
344
212
  0
ENDTAB
  0
ENDSEC
  0
SECTION
  2
BLOCKS
  0
BLOCK
  5
20
100
AcDbEntity
  8
0
100
AcDbBlockBegin
  2
*Model_Space
 70
0
 10
0.0
 20
0.0
 30
0.0
  3
*Model_Space
  1

  0
ENDBLK
  5
21
100
AcDbEntity
  8
0
100
AcDbBlockEnd
  0
BLOCK
  5
1C
100
AcDbEntity
  8
0
100
AcDbBlockBegin
  2
*Paper_Space
 70
0
 10
0.0
 20
0.0
 30
0.0
  3
*Paper_Space
  1

  0
ENDBLK
  5
1D
100
AcDbEntity
  8
0
100
AcDbBlockEnd
  0
BLOCK
  5
214
100
AcDbEntity
  8
0
100
AcDbBlockBegin
  2
_FILLED
 70
64
 10
0.0
 20
0.0
  3
_FILLED
  1

  0
SOLID
  5
215
100
AcDbEntity
  8
0
  6
BYBLOCK
 62
0
100
AcDbTrace
 10
0.0
 20
0.0
 11
-1.0
 21
0.25
 12
-1.0
 22
-0.25
 13
-1.0
 23
-0.25
  0
ENDBLK
  5
216
100
AcDbEntity
  8
0
  6
BYBLOCK
 62
0
100
AcDbBlockEnd
  0
ENDSEC
  0
SECTION
  2
ENTITIES
  0
LINE
  5
217
100
AcDbEntity
  8
0
100
AcDbLine
 62
7
  6
CONTINUOUS
 10
26.6254733944
 20
171.2517878258
 11
26.6080130097
 21
171.7517878258
  0
LINE
  5
218
100
AcDbEntity
  8
0
100
AcDbLine
 62
7
  6
CONTINUOUS
 10
26.4683055308
 20
155.1252260316
 11
25.9503409027
 21
170.7583403905
  0
LINE
  5
219
100
AcDbEntity
  8
0
100
AcDbLine
 62
7
  6
CONTINUOUS
 10
26.4503408988
 20
154.1583403908
 11
26.4503408988
 21
155.1252260316
  0
LINE
  5
21A
100
AcDbEntity
  8
0
100
AcDbLine
 62
7
  6
CONTINUOUS
 10
26.6254733944
 20
171.251787827
 11
26.6254733944
 21
170.7583403915
  0
LINE
  5
21B
100
AcDbEntity
  8
0
100
AcDbLine
 62
7
  6
CONTINUOUS
 10
26.5265838494
 20
188.2831899031
 11
26.0070254983
 21
171.7517878258
  0
LINE
  5
21C
100
AcDbEntity
  8
0
100
AcDbLine
 62
7
  6
CONTINUOUS
 10
47.1080130097
 20
171.7517878258
 11
47.1254733944
 21
171.2517878264
  0
LINE
  5
21D
100
AcDbEntity
  8
0
100
AcDbLine
 62
7
  6
CONTINUOUS
 10
46.9211272552
 20
155.1282333584
 11
46.4503408988
 21
170.7583403904
  0
LINE
  5
21E
100
AcDbEntity
  8
0
100
AcDbLine
 62
7
  6
CONTINUOUS
 10
46.3070254984
 20
154.1583403908
 11
46.3070254984
 21
189.2517878262
  0
LINE
  5
21F
100
AcDbEntity
  8
0
100
AcDbLine
 62
7
  6
CONTINUOUS
 10
47.1254733944
 20
171.2517878264
 11
47.1254733944
 21
170.7583403904
  0
LINE
  5
220
100
AcDbEntity
  8
0
100
AcDbLine
 62
7
  6
CONTINUOUS
 10
47.0265841946
 20
188.2832008874
 11
46.5070254984
 21
171.7517878258
  0
LINE
  5
221
100
AcDbEntity
  8
0
100
AcDbLine
 62
7
  6
CONTINUOUS
 10
63.3026124331
 20
146.9715715501
 11
64.0126855237
 21
145.957482081
  0
LINE
  5
222
100
AcDbEntity
  8
0
100
AcDbLine
 62
7
  6
CONTINUOUS
 10
62.7254161849
 20
148.6174283506
 11
63.0144792616
 21
147.5812865295
  0
LINE
  5
223
100
AcDbEntity
  8
0
100
AcDbLine
 62
7
  6
CONTINUOUS
 10
62.7097183331
 20
148.8036102069
 11
63.1480823058
 21
147.2323017949
  0
LINE
  5
224
100
AcDbEntity
  8
0
100
AcDbLine
 62
7
  6
CONTINUOUS
 10
63.0682686519
 20
147.618350973
 11
63.1980430502
 21
147.1377087339
  0
LINE
  5
225
100
AcDbEntity
  8
0
100
AcDbLine
 62
7
  6
CONTINUOUS
 10
68.0070254984
 20
154.1583403908
 11
68.0070254984
 21
150.2517878297
  0
LINE
  5
226
100
AcDbEntity
  8
0
100
AcDbLine
 62
7
  6
CONTINUOUS
 10
68.1376926142
 20
149.1819675657
 11
68.1376926142
 21
154.1583403908
  0
LINE
  5
227
100
AcDbEntity
  8
0
100
AcDbLine
 62
7
  6
CONTINUOUS
 10
71.3427335794
 20
147.6183509731
 11
71.3718080068
 21
144.2870053186
  0
LINE
  5
228
100
AcDbEntity
  8
0
100
AcDbLine
 62
7
  6
CONTINUOUS
 10
71.3372052387
 20
148.9599917589
 11
71.3372052387
 21
154.1583403908
  0
LINE
  5
229
100
AcDbEntity
  8
0
100
AcDbLine
 62
7
  6
CONTINUOUS
 10
71.3718080067
 20
154.1583403908
 11
71.3718080067
 21
144.2870053186
  0
LINE
  5
22A
100
AcDbEntity
  8
0
100
AcDbLine
 62
7
  6
CONTINUOUS
 10
71.4070254988
 20
148.8517878258
 11
71.4070254988
 21
152.7517878266
  0
LINE
  5
22B
100
AcDbEntity
  8
0
100
AcDbLine
 62
7
  6
CONTINUOUS
 10
71.6115593505
 20
153.4472539743
 11
71.6115593505
 21
152.7472539531
  0
LINE
  5
22C
100
AcDbEntity
  8
0
100
AcDbLine
 62
7
  6
CONTINUOUS
 10
74.607025498
 20
151.1672544422
 11
74.607025498
 21
148.8517878258
  0
LINE
  5
22D
100
AcDbEntity
  8
0
100
AcDbLine
 62
7
  6
CONTINUOUS
 10
71.6115593505
 20
152.7472539531
 11
71.6102451336
 21
152.2084020501
  0
LINE
  5
22E
100
AcDbEntity
  8
0
100
AcDbLine
 62
7
  6
CONTINUOUS
 10
71.6102451336
 20
152.2084020501
 11
71.948209943
 21
151.6894876586
  0
LINE
  5
22F
100
AcDbEntity
  8
0
100
AcDbLine
 62
7
  6
CONTINUOUS
 10
76.0070254984
 20
148.2517878403
 11
76.0070254984
 21
151.2389285413
  0
LINE
  5
230
100
AcDbEntity
  8
0
100
AcDbLine
 62
7
  6
CONTINUOUS
 10
81.5773025406
 20
148.3583403908
 11
81.5773025406
 21
154.1583403908
  0
LINE
  5
231
100
AcDbEntity
  8
0
100
AcDbLine
 62
7
  6
CONTINUOUS
 10
73.0062067808
 20
151.2526065442
 11
73.0934024376
 21
151.1654108873
  0
LINE
  5
232
100
AcDbEntity
  8
0
100
AcDbLine
 62
7
  6
CONTINUOUS
 10
75.3820131077
 20
151.2555002166
 11
75.4692087645
 21
151.1683045597
  0
LINE
  5
233
100
AcDbEntity
  8
0
100
AcDbLine
 62
7
  6
CONTINUOUS
 10
75.5046997509
 20
151.1684737462
 11
75.4175040941
 21
151.2556694031
  0
LINE
  5
234
100
AcDbEntity
  8
0
100
AcDbLine
 62
7
  6
CONTINUOUS
 10
78.9125513607
 20
152.724961964
 11
78.9997470176
 21
152.6377663071
  0
LINE
  5
235
100
AcDbEntity
  8
0
100
AcDbLine
 62
7
  6
CONTINUOUS
 10
83.5503408984
 20
148.3583403908
 11
83.5503408984
 21
154.1583403908
  0
LINE
  5
236
100
AcDbEntity
  8
0
100
AcDbLine
 62
7
  6
CONTINUOUS
 10
84.1070254984
 20
149.7583403908
 11
84.1070254984
 21
154.1583403908
  0
LINE
  5
237
100
AcDbEntity
  8
0
100
AcDbLine
 62
7
  6
CONTINUOUS
 10
84.7570254984
 20
149.7583403908
 11
84.7570254984
 21
154.1583403908
  0
LINE
  5
238
100
AcDbEntity
  8
0
100
AcDbLine
 62
7
  6
CONTINUOUS
 10
85.4570254977
 20
149.7583403908
 11
85.4570254977
 21
154.1583403908
  0
LINE
  5
239
100
AcDbEntity
  8
0
100
AcDbLine
 62
7
  6
CONTINUOUS
 10
85.857025498
 20
149.7583403908
 11
85.857025498
 21
154.1583403908
  0
LINE
  5
23A
100
AcDbEntity
  8
0
100
AcDbLine
 62
7
  6
CONTINUOUS
 10
86.0570254991
 20
149.7583403908
 11
86.0570254991
 21
154.1583403908
  0
LINE
  5
23B
100
AcDbEntity
  8
0
100
AcDbLine
 62
7
  6
CONTINUOUS
 10
89.9570254977
 20
149.7583403908
 11
89.9570254977
 21
154.1583403908
  0
LINE
  5
23C
100
AcDbEntity
  8
0
100
AcDbLine
 62
7
  6
CONTINUOUS
 10
90.1570254988
 20
149.7583403908
 11
90.1570254988
 21
154.1583403908
  0
LINE
  5
23D
100
AcDbEntity
  8
0
100
AcDbLine
 62
7
  6
CONTINUOUS
 10
90.5570254991
 20
149.7583403908
 11
90.5570254991
 21
154.1583403908
  0
LINE
  5
23E
100
AcDbEntity
  8
0
100
AcDbLine
 62
7
  6
CONTINUOUS
 10
91.2570254984
 20
149.7583403908
 11
91.2570254984
 21
154.1583403908
  0
LINE
  5
23F
100
AcDbEntity
  8
0
100
AcDbLine
 62
7
  6
CONTINUOUS
 10
91.9070254988
 20
149.7583403908
 11
91.9070254988
 21
154.1583403908
  0
LINE
  5
240
100
AcDbEntity
  8
0
100
AcDbLine
 62
7
  6
CONTINUOUS
 10
92.3503408991
 20
148.3583403908
 11
92.3503408991
 21
154.1583403908
  0
LINE
  5
241
100
AcDbEntity
  8
0
100
AcDbLine
 62
7
  6
CONTINUOUS
 10
94.323379257
 20
148.3583403908
 11
94.323379257
 21
154.1583403908
  0
LINE
  5
242
100
AcDbEntity
  8
0
100
AcDbLine
 62
7
  6
CONTINUOUS
 10
80.3459297876
 20
154.1583403908
 11
78.9125513607
 21
152.724961964
  0
LINE
  5
243
100
AcDbEntity
  8
0
100
AcDbLine
 62
7
  6
CONTINUOUS
 10
78.9997470176
 20
152.6377663071
 11
80.5203211013
 21
154.1583403908
  0
LINE
  5
244
100
AcDbEntity
  8
0
100
AcDbLine
 62
7
  6
CONTINUOUS
 10
67.2892937003
 20
144.2517878264
 11
72.0070254984
 21
144.2517878264
  0
LINE
  5
245
100
AcDbEntity
  8
0
100
AcDbLine
 62
7
  6
CONTINUOUS
 10
167.0774087234
 20
144.2583403908
 11
173.2364284606
 21
144.2583403908
  0
LINE
  5
246
100
AcDbEntity
  8
0
100
AcDbLine
 62
7
  6
CONTINUOUS
 10
70.3630036157
 20
144.2870053187
 11
71.3718080068
 21
144.2870053187
  0
LINE
  5
247
100
AcDbEntity
  8
0
100
AcDbLine
 62
7
  6
CONTINUOUS
 10
164.0768457581
 20
147.2583403908
 11
164.0070254984
 21
147.2583403908
  0
LINE
  5
248
100
AcDbEntity
  8
0
100
AcDbLine
 62
7
  6
CONTINUOUS
 10
71.3427335794
 20
147.618350973
 11
63.0682686519
 21
147.618350973
  0
LINE
  5
249
100
AcDbEntity
  8
0
100
AcDbLine
 62
7
  6
CONTINUOUS
 10
177.3070254989
 20
148.2583403908
 11
177.2372052393
 21
148.2583403908
  0
LINE
  5
24A
100
AcDbEntity
  8
0
100
AcDbLine
 62
7
  6
CONTINUOUS
 10
66.0888514182
 20
144.4361710792
 11
70.3630036157
 21
144.2870053187
  0
LINE
  5
24B
100
AcDbEntity
  8
0
100
AcDbLine
 62
7
  6
CONTINUOUS
 10
73.0934024376
 20
151.1654108873
 11
75.5046997509
 21
151.1684737462
  0
LINE
  5
24C
100
AcDbEntity
  8
0
100
AcDbLine
 62
7
  6
CONTINUOUS
 10
73.0062067808
 20
151.2526065442
 11
75.4175040941
 21
151.2556694031
  0
LINE
  5
24D
100
AcDbEntity
  8
0
100
AcDbLine
 62
7
  6
CONTINUOUS
 10
81.5773025406
 20
148.3583403908
 11
83.5503408984
 21
148.3583403908
  0
LINE
  5
24E
100
AcDbEntity
  8
0
100
AcDbLine
 62
7
  6
CONTINUOUS
 10
92.3503408991
 20
148.3583403908
 11
94.323379257
 21
148.3583403908
  0
LINE
  5
24F
100
AcDbEntity
  8
0
100
AcDbLine
 62
7
  6
CONTINUOUS
 10
71.3372052387
 20
148.9599917589
 11
62.7524365382
 21
148.9599917589
  0
LINE
  5
250
100
AcDbEntity
  8
0
100
AcDbLine
 62
7
  6
CONTINUOUS
 10
171.9372052386
 20
149.1583403908
 11
177.307025499
 21
149.1583403908
  0
LINE
  5
251
100
AcDbEntity
  8
0
100
AcDbLine
 62
7
  6
CONTINUOUS
 10
62.95218164
 20
149.1819675657
 11
68.1376926142
 21
149.1819675657
  0
LINE
  5
252
100
AcDbEntity
  8
0
100
AcDbLine
 62
7
  6
CONTINUOUS
 10
67.0070254952
 20
149.2517878264
 11
63.2070254977
 21
149.2517878264
  0
LINE
  5
253
100
AcDbEntity
  8
0
100
AcDbLine
 62
7
  6
CONTINUOUS
 10
84.1070254984
 20
149.7583403908
 11
91.9070254988
 21
149.7583403908
  0
LINE
  5
254
100
AcDbEntity
  8
0
100
AcDbLine
 62
7
  6
CONTINUOUS
 10
26.4503408988
 20
154.1583403908
 11
212.4329246972
 21
154.1583403908
  0
LINE
  5
255
100
AcDbEntity
  8
0
100
AcDbLine
 62
7
  6
CONTINUOUS
 10
26.4503410245
 20
154.2224429556
 11
27.1313489364
 21
154.2224429556
  0
LINE
  5
256
100
AcDbEntity
  8
0
100
AcDbLine
 62
7
  6
CONTINUOUS
 10
192.9794639577
 20
155.1252259447
 11
46.9212178399
 21
155.1252259447
  0
LINE
  5
257
100
AcDbEntity
  8
0
100
AcDbLine
 62
7
  6
CONTINUOUS
 10
213.4324759136
 20
155.1282335634
 11
194.0070254981
 21
155.1282335634
  0
LINE
  5
258
100
AcDbEntity
  8
0
100
AcDbLine
 62
7
  6
CONTINUOUS
 10
46.3070254984
 20
155.1282335634
 11
26.4682058837
 21
155.1282335634
  0
LINE
  5
259
100
AcDbEntity
  8
0
100
AcDbLine
 62
7
  6
CONTINUOUS
 10
117.6570254984
 20
189.2517878254
 11
117.6570254984
 21
188.2832103109
  0
LINE
  5
25A
100
AcDbEntity
  8
0
100
AcDbLine
 62
7
  6
CONTINUOUS
 10
118.1570254984
 20
175.0416405613
 11
118.1570254984
 21
189.2517878254
  0
LINE
  5
25B
100
AcDbEntity
  8
0
100
AcDbLine
 62
7
  6
CONTINUOUS
 10
119.1570254984
 20
173.9793079513
 11
119.1570254984
 21
174.0421340734
  0
LINE
  5
25C
100
AcDbEntity
  8
0
100
AcDbLine
 62
7
  6
CONTINUOUS
 10
117.6570254524
 20
174.5515953619
 11
117.6603334044
 21
188.2832008874
  0
LINE
  5
25D
100
AcDbEntity
  8
0
100
AcDbLine
 62
7
  6
CONTINUOUS
 10
122.6570254984
 20
182.5065279765
 11
122.6570254984
 21
174.0421340734
  0
LINE
  5
25E
100
AcDbEntity
  8
0
100
AcDbLine
 62
7
  6
CONTINUOUS
 10
122.6570254984
 20
173.9353363916
 11
122.6570254984
 21
174.0107222134
  0
LINE
  5
25F
100
AcDbEntity
  8
0
100
AcDbLine
 62
7
  6
CONTINUOUS
 10
46.3070254984
 20
170.7583403904
 11
25.9503409027
 21
170.7583403904
  0
LINE
  5
260
100
AcDbEntity
  8
0
100
AcDbLine
 62
7
  6
CONTINUOUS
 10
46.4503408988
 20
170.7583403904
 11
193.4503408988
 21
170.7583403904
  0
LINE
  5
261
100
AcDbEntity
  8
0
100
AcDbLine
 62
7
  6
CONTINUOUS
 10
194.0070254982
 20
170.7583403904
 11
213.9503408988
 21
170.7583403904
  0
LINE
  5
262
100
AcDbEntity
  8
0
100
AcDbLine
 62
7
  6
CONTINUOUS
 10
46.3070254984
 20
171.251787827
 11
26.6254733944
 21
171.251787827
  0
LINE
  5
263
100
AcDbEntity
  8
0
100
AcDbLine
 62
7
  6
CONTINUOUS
 10
47.1254733944
 20
171.2517878264
 11
192.8885776023
 21
171.2517878264
  0
LINE
  5
264
100
AcDbEntity
  8
0
100
AcDbLine
 62
7
  6
CONTINUOUS
 10
194.0070254982
 20
171.251787827
 11
213.3885776023
 21
171.251787827
  0
LINE
  5
265
100
AcDbEntity
  8
0
100
AcDbLine
 62
7
  6
CONTINUOUS
 10
46.3070254984
 20
171.7517878258
 11
26.0070254984
 21
171.7517878258
  0
LINE
  5
266
100
AcDbEntity
  8
0
100
AcDbLine
 62
7
  6
CONTINUOUS
 10
46.5070254984
 20
171.7517878258
 11
193.5070254984
 21
171.7517878258
  0
LINE
  5
267
100
AcDbEntity
  8
0
100
AcDbLine
 62
7
  6
CONTINUOUS
 10
194.0070254982
 20
171.7517878264
 11
214.0070254984
 21
171.7517878264
  0
LINE
  5
268
100
AcDbEntity
  8
0
100
AcDbLine
 62
7
  6
CONTINUOUS
 10
143.5570254992
 20
173.7517878256
 11
118.4570254975
 21
173.7517878256
  0
LINE
  5
269
100
AcDbEntity
  8
0
100
AcDbLine
 62
7
  6
CONTINUOUS
 10
138.8570257213
 20
173.919631012
 11
123.1570254984
 21
173.919631012
  0
LINE
  5
26A
100
AcDbEntity
  8
0
100
AcDbLine
 62
7
  6
CONTINUOUS
 10
119.1570254984
 20
173.9793079513
 11
122.6570254984
 21
173.9793079513
  0
LINE
  5
26B
100
AcDbEntity
  8
0
100
AcDbLine
 62
7
  6
CONTINUOUS
 10
139.3570254984
 20
173.9793079513
 11
142.8570254977
 21
173.9793079513
  0
LINE
  5
26C
100
AcDbEntity
  8
0
100
AcDbLine
 62
7
  6
CONTINUOUS
 10
119.1570254983
 20
174.0421340734
 11
122.6570254984
 21
174.0421340734
  0
LINE
  5
26D
100
AcDbEntity
  8
0
100
AcDbLine
 62
7
  6
CONTINUOUS
 10
139.3570254984
 20
174.0421340734
 11
142.8570254977
 21
174.0421340734
  0
LINE
  5
26E
100
AcDbEntity
  8
0
100
AcDbLine
 62
7
  6
CONTINUOUS
 10
139.3570254984
 20
173.9353363912
 11
139.3570254984
 21
174.0107222134
  0
LINE
  5
26F
100
AcDbEntity
  8
0
100
AcDbLine
 62
7
  6
CONTINUOUS
 10
139.3570254984
 20
174.0421340734
 11
139.3570254984
 21
182.5065279765
  0
LINE
  5
270
100
AcDbEntity
  8
0
100
AcDbLine
 62
7
  6
CONTINUOUS
 10
124.6570254984
 20
184.5055410972
 11
137.3570254984
 21
184.5055410972
  0
LINE
  5
271
100
AcDbEntity
  8
0
100
AcDbLine
 62
7
  6
CONTINUOUS
 10
144.3537175562
 20
188.2832008874
 11
144.357025498
 21
174.5517878254
  0
LINE
  5
272
100
AcDbEntity
  8
0
100
AcDbLine
 62
7
  6
CONTINUOUS
 10
142.8570254977
 20
174.0421340734
 11
142.8570254977
 21
173.9793079513
  0
LINE
  5
273
100
AcDbEntity
  8
0
100
AcDbLine
 62
7
  6
CONTINUOUS
 10
143.8570254977
 20
189.2517878251
 11
143.8570254977
 21
175.0416405613
  0
LINE
  5
274
100
AcDbEntity
  8
0
100
AcDbLine
 62
7
  6
CONTINUOUS
 10
144.3570336411
 20
188.2832695593
 11
144.357032553
 21
189.2517878251
  0
LINE
  5
275
100
AcDbEntity
  8
0
100
AcDbLine
 62
7
  6
CONTINUOUS
 10
144.3539508919
 20
187.2517878251
 11
143.8570254977
 21
187.2517878251
  0
LINE
  5
276
100
AcDbEntity
  8
0
100
AcDbLine
 62
7
  6
CONTINUOUS
 10
118.1570254984
 20
187.2517878254
 11
117.6601000712
 21
187.2517878254
  0
LINE
  5
277
100
AcDbEntity
  8
0
100
AcDbLine
 62
7
  6
CONTINUOUS
 10
194.0070254984
 20
188.2831295551
 11
213.4874690441
 21
188.2831295551
  0
LINE
  5
278
100
AcDbEntity
  8
0
100
AcDbLine
 62
7
  6
CONTINUOUS
 10
26.5265838494
 20
188.2831899031
 11
46.3070254984
 21
188.2831899031
  0
LINE
  5
279
100
AcDbEntity
  8
0
100
AcDbLine
 62
7
  6
CONTINUOUS
 10
47.0265841946
 20
188.2832008874
 11
117.6603334044
 21
188.2832008874
  0
LINE
  5
27A
100
AcDbEntity
  8
0
100
AcDbLine
 62
7
  6
CONTINUOUS
 10
118.1570254984
 20
188.2832008867
 11
143.8570254977
 21
188.2832008867
  0
LINE
  5
27B
100
AcDbEntity
  8
0
100
AcDbLine
 62
7
  6
CONTINUOUS
 10
144.3537175562
 20
188.2832008874
 11
192.9874668022
 21
188.2832008874
  0
LINE
  5
27C
100
AcDbEntity
  8
0
100
AcDbLine
 62
7
  6
CONTINUOUS
 10
143.8555530227
 20
189.2517878264
 11
118.1584979795
 21
189.2517878264
  0
LINE
  5
27D
100
AcDbEntity
  8
0
100
AcDbLine
 62
7
  6
CONTINUOUS
 10
27.5260906826
 20
189.2517878264
 11
118.1570254984
 21
189.2517878264
  0
LINE
  5
27E
100
AcDbEntity
  8
0
100
AcDbLine
 62
7
  6
CONTINUOUS
 10
143.9744914598
 20
189.2517878264
 11
212.4879603143
 21
189.2517878264
  0
LINE
  5
27F
100
AcDbEntity
  8
0
100
AcDbLine
 62
7
  6
CONTINUOUS
 10
164.0070254984
 20
147.2582823304
 11
164.0070254984
 21
154.1583403908
  0
LINE
  5
280
100
AcDbEntity
  8
0
100
AcDbLine
 62
7
  6
CONTINUOUS
 10
164.0768457581
 20
147.2583403908
 11
164.0768457581
 21
154.1583403908
  0
LINE
  5
281
100
AcDbEntity
  8
0
100
AcDbLine
 62
7
  6
CONTINUOUS
 10
171.9372052387
 20
149.1583403908
 11
171.9372052387
 21
154.1583403908
  0
LINE
  5
282
100
AcDbEntity
  8
0
100
AcDbLine
 62
7
  6
CONTINUOUS
 10
172.0070254984
 20
149.1583403908
 11
172.0070254984
 21
154.1583403908
  0
LINE
  5
283
100
AcDbEntity
  8
0
100
AcDbLine
 62
7
  6
CONTINUOUS
 10
177.2372052393
 20
148.2582283866
 11
177.2372052393
 21
149.1583403908
  0
LINE
  5
284
100
AcDbEntity
  8
0
100
AcDbLine
 62
7
  6
CONTINUOUS
 10
177.3070254989
 20
148.2583403908
 11
177.3070254989
 21
149.1583403908
  0
LINE
  5
285
100
AcDbEntity
  8
0
100
AcDbLine
 62
7
  6
CONTINUOUS
 10
192.9874668022
 20
188.2832008874
 11
193.5070254984
 21
171.7517878258
  0
LINE
  5
286
100
AcDbEntity
  8
0
100
AcDbLine
 62
7
  6
CONTINUOUS
 10
192.8885776023
 20
171.2517878264
 11
192.8885776023
 21
170.7583403904
  0
LINE
  5
287
100
AcDbEntity
  8
0
100
AcDbLine
 62
7
  6
CONTINUOUS
 10
194.007025498
 20
154.1583403908
 11
194.0070254984
 21
189.2517878246
  0
LINE
  5
288
100
AcDbEntity
  8
0
100
AcDbLine
 62
7
  6
CONTINUOUS
 10
192.9794639577
 20
155.1252259447
 11
193.4503411995
 21
170.758350374
  0
LINE
  5
289
100
AcDbEntity
  8
0
100
AcDbLine
 62
7
  6
CONTINUOUS
 10
192.9060379871
 20
171.7517878258
 11
192.8885776024
 21
171.2517878264
  0
LINE
  5
28A
100
AcDbEntity
  8
0
100
AcDbLine
 62
7
  6
CONTINUOUS
 10
213.4874668021
 20
188.2832008878
 11
214.0070254984
 21
171.7517878258
  0
LINE
  5
28B
100
AcDbEntity
  8
0
100
AcDbLine
 62
7
  6
CONTINUOUS
 10
213.3885776024
 20
171.2517878262
 11
213.3885776024
 21
170.7583403904
  0
LINE
  5
28C
100
AcDbEntity
  8
0
100
AcDbLine
 62
7
  6
CONTINUOUS
 10
213.4324759136
 20
155.1282335634
 11
213.9503408988
 21
170.7583403904
  0
LINE
  5
28D
100
AcDbEntity
  8
0
100
AcDbLine
 62
7
  6
CONTINUOUS
 10
213.3885776023
 20
171.251787827
 11
213.406037987
 21
171.7517878258
  0
ARC
  5
28E
100
AcDbEntity
  8
0
100
AcDbCircle
 62
7
  6
CONTINUOUS
 10
75.4539046486
 20
156.1672073724
 40
4.9989916991
100
AcDbArc
 50
270.5821964183
 51
276.403142381
  0
ARC
  5
28F
100
AcDbEntity
  8
0
100
AcDbCircle
 62
7
  6
CONTINUOUS
 10
67.2892985726
 20
148.2517971848
 40
4.0000093584
100
AcDbArc
 50
215.0000697833
 51
269.9999302104
  0
ARC
  5
290
100
AcDbEntity
  8
0
100
AcDbCircle
 62
7
  6
CONTINUOUS
 10
72.0070224719
 20
148.2517908528
 40
4.0000030265
100
AcDbArc
 50
270.0000433513
 51
359.999956848
  0
ARC
  5
291
100
AcDbEntity
  8
0
100
AcDbCircle
 62
7
  6
CONTINUOUS
 10
74.0293469416
 20
152.7408936783
 40
2.5188572217
100
AcDbArc
 50
144.2710786522
 51
163.7141970557
  0
ARC
  5
292
100
AcDbEntity
  8
0
100
AcDbCircle
 62
7
  6
CONTINUOUS
 10
64.9409222567
 20
148.1187271383
 40
2.0000062553
100
AcDbArc
 50
209.3739444066
 51
214.9999693728
  0
ARC
  5
293
100
AcDbEntity
  8
0
100
AcDbCircle
 62
7
  6
CONTINUOUS
 10
64.9409222567
 20
148.1187271383
 40
2.0000062553
100
AcDbArc
 50
195.588081702
 51
206.3089557578
  0
ARC
  5
294
100
AcDbEntity
  8
0
100
AcDbCircle
 62
7
  6
CONTINUOUS
 10
73.0070254984
 20
148.851787826
 40
1.5999999996
100
AcDbArc
 50
180.000000006
 51
359.9999999939
  0
ARC
  5
295
100
AcDbEntity
  8
0
100
AcDbCircle
 62
7
  6
CONTINUOUS
 10
73.0070254984
 20
152.7517878264
 40
1.5999999996
100
AcDbArc
 50
147.6124842873
 51
179.9999999924
  0
ARC
  5
296
100
AcDbEntity
  8
0
100
AcDbCircle
 62
7
  6
CONTINUOUS
 10
73.0070156357
 20
152.7517913418
 40
1.4999997801
100
AcDbArc
 50
159.2071813877
 51
201.2755748239
  0
ARC
  5
297
100
AcDbEntity
  8
0
100
AcDbCircle
 62
7
  6
CONTINUOUS
 10
67.0070254952
 20
150.2517878295
 40
1.0000000032
100
AcDbArc
 50
270.0
 51
360.0
  0
ARC
  5
298
100
AcDbEntity
  8
0
100
AcDbCircle
 62
7
  6
CONTINUOUS
 10
47.9206739357
 20
155.1583403908
 40
1.0
100
AcDbArc
 50
181.7252665959
 51
270.0
  0
ARC
  5
299
100
AcDbEntity
  8
0
100
AcDbCircle
 62
7
  6
CONTINUOUS
 10
27.4677571004
 20
155.1583403908
 40
1.0
100
AcDbArc
 50
181.8976599491
 51
269.9999996726
  0
ARC
  5
29A
100
AcDbEntity
  8
0
100
AcDbCircle
 62
7
  6
CONTINUOUS
 10
63.2070254974
 20
148.7517878275
 40
0.4999999989
100
AcDbArc
 50
170.9157341406
 51
195.5880513882
  0
ARC
  5
29B
100
AcDbEntity
  8
0
100
AcDbCircle
 62
7
  6
CONTINUOUS
 10
63.2070254974
 20
148.7517878275
 40
0.4999999989
100
AcDbArc
 50
89.9999999682
 51
165.5449705859
  0
ARC
  5
29C
100
AcDbEntity
  8
0
100
AcDbCircle
 62
7
  6
CONTINUOUS
 10
119.1589799956
 20
174.9821367697
 40
1.0034630956
100
AcDbArc
 50
225.0411364893
 51
236.6471947102
  0
ARC
  5
29D
100
AcDbEntity
  8
0
100
AcDbCircle
 62
7
  6
CONTINUOUS
 10
27.5260906826
 20
188.2517878264
 40
1.0
100
AcDbArc
 50
90.0
 51
178.1998680092
  0
ARC
  5
29E
100
AcDbEntity
  8
0
100
AcDbCircle
 62
7
  6
CONTINUOUS
 10
48.0260906826
 20
188.2517878264
 40
1.0
100
AcDbArc
 50
90.0
 51
178.1998680416
  0
ARC
  5
29F
100
AcDbEntity
  8
0
100
AcDbCircle
 62
7
  6
CONTINUOUS
 10
119.156814013
 20
175.0419568826
 40
0.9998056985
100
AcDbArc
 50
180.0181277043
 51
270.0121193642
  0
ARC
  5
2A0
100
AcDbEntity
  8
0
100
AcDbCircle
 62
7
  6
CONTINUOUS
 10
118.4570584639
 20
174.5518483438
 40
0.8000467855
100
AcDbArc
 50
180.018117742
 51
269.9976391352
  0
ARC
  5
2A1
100
AcDbEntity
  8
0
100
AcDbCircle
 62
7
  6
CONTINUOUS
 10
173.3066665491
 20
148.258699359
 40
4.0003589852
100
AcDbArc
 50
269.9947204434
 51
359.9923948551
  0
ARC
  5
2A2
100
AcDbEntity
  8
0
100
AcDbCircle
 62
7
  6
CONTINUOUS
 10
173.2368581545
 20
148.2586874789
 40
4.0003471112
100
AcDbArc
 50
269.9938456227
 51
359.9934245577
  0
ARC
  5
2A3
100
AcDbEntity
  8
0
100
AcDbCircle
 62
7
  6
CONTINUOUS
 10
212.4329246972
 20
155.1583403908
 40
1.0
100
AcDbArc
 50
270.0
 51
358.1013838993
  0
ARC
  5
2A4
100
AcDbEntity
  8
0
100
AcDbCircle
 62
7
  6
CONTINUOUS
 10
191.9800078618
 20
155.1583403908
 40
1.0
100
AcDbArc
 50
270.0
 51
358.2747401438
  0
ARC
  5
2A5
100
AcDbEntity
  8
0
100
AcDbCircle
 62
7
  6
CONTINUOUS
 10
142.8550710005
 20
174.9821367695
 40
1.0034630956
100
AcDbArc
 50
303.3528053261
 51
314.9588635106
  0
ARC
  5
2A6
100
AcDbEntity
  8
0
100
AcDbCircle
 62
7
  6
CONTINUOUS
 10
191.9879603142
 20
188.2517878264
 40
1.0
100
AcDbArc
 50
1.8001319556
 51
90.0
  0
ARC
  5
2A7
100
AcDbEntity
  8
0
100
AcDbCircle
 62
7
  6
CONTINUOUS
 10
212.4879603143
 20
188.2518647029
 40
0.9999231215
100
AcDbArc
 50
1.7957291162
 51
89.9999999994
  0
ARC
  5
2A8
100
AcDbEntity
  8
0
100
AcDbCircle
 62
7
  6
CONTINUOUS
 10
142.8572369831
 20
175.0419568826
 40
0.9998056985
100
AcDbArc
 50
269.9878806328
 51
359.9818722982
  0
ARC
  5
2A9
100
AcDbEntity
  8
0
100
AcDbCircle
 62
7
  6
CONTINUOUS
 10
143.556992573
 20
174.551848172
 40
0.8000466375
100
AcDbArc
 50
270.002357984
 51
359.9956781656
  0
SPLINE
  5
2AA
100
AcDbEntity
  8
0
100
AcDbSpline
 62
7
  6
CONTINUOUS
 70
0
 71
3
 72
11
 73
7
 74
0
 42
0.0000001
 43
0.0000001
 44
0.0000000001
 40
0.0
 40
0.0
 40
0.0
 40
0.0
 40
0.2500367309
 40
0.5000009054
 40
0.7499638664
 40
1.0
 40
1.0
 40
1.0
 40
1.0
 10
167.0076524358
 20
144.2583403908
 30
0.0
 10
166.6173800495
 20
144.2583403908
 30
0.0
 10
165.8283308933
 20
144.4142488775
 30
0.0
 10
164.8313051807
 20
145.0821393654
 30
0.0
 10
164.1632177532
 20
146.0789914148
 30
0.0
 10
164.0070254984
 20
146.8680108763
 30
0.0
 10
164.0070254984
 20
147.2582823304
 30
0.0
  0
SPLINE
  5
2AB
100
AcDbEntity
  8
0
100
AcDbSpline
 62
7
  6
CONTINUOUS
 70
0
 71
3
 72
9
 73
5
 74
0
 42
0.0000001
 43
0.0000001
 44
0.0000000001
 40
0.0
 40
0.0
 40
0.0
 40
0.0
 40
0.499995675
 40
1.0
 40
1.0
 40
1.0
 40
1.0
 10
78.9997470132
 20
152.6377663027
 30
0.0
 10
78.6033948983
 20
152.2411763193
 30
0.0
 10
77.6700224322
 20
151.5769167745
 30
0.0
 10
76.5686231846
 20
151.2618684517
 30
0.0
 10
76.0114093751
 20
151.1994003625
 30
0.0
  0
SPLINE
  5
2AC
100
AcDbEntity
  8
0
100
AcDbSpline
 62
7
  6
CONTINUOUS
 70
0
 71
3
 72
9
 73
5
 74
0
 42
0.0000001
 43
0.0000001
 44
0.0000000001
 40
0.0
 40
0.0
 40
0.0
 40
0.0
 40
0.500105119
 40
1.0
 40
1.0
 40
1.0
 40
1.0
 10
73.0934024376
 20
151.1654108873
 30
0.0
 10
72.8988630249
 20
151.165018043
 30
0.0
 10
72.5058760261
 20
151.2415528346
 30
0.0
 10
72.172869606
 20
151.464741896
 30
0.0
 10
72.0362544729
 20
151.6031262511
 30
0.0
  0
SPLINE
  5
2AD
100
AcDbEntity
  8
0
100
AcDbSpline
 62
7
  6
CONTINUOUS
 70
0
 71
3
 72
10
 73
6
 74
0
 42
0.0000001
 43
0.0000001
 44
0.0000000001
 40
0.0
 40
0.0
 40
0.0
 40
0.0
 40
0.4001620449
 40
0.8003240882
 40
1.0
 40
1.0
 40
1.0
 40
1.0
 10
123.1570254984
 20
173.919631012
 30
0.0
 10
123.0523085539
 20
173.919631012
 30
0.0
 10
122.8431060227
 20
173.9217703076
 30
0.0
 10
122.6818024561
 20
173.9287424273
 30
0.0
 10
122.6570254984
 20
173.9336951021
 30
0.0
 10
122.6570254984
 20
173.9353363916
 30
0.0
  0
SPLINE
  5
2AE
100
AcDbEntity
  8
0
100
AcDbSpline
 62
7
  6
CONTINUOUS
 70
0
 71
3
 72
9
 73
5
 74
0
 42
0.0000001
 43
0.0000001
 44
0.0000000001
 40
0.0
 40
0.0
 40
0.0
 40
0.0
 40
0.4133984659
 40
1.0
 40
1.0
 40
1.0
 40
1.0
 10
139.3570254984
 20
173.9353363912
 30
0.0
 10
139.3570254984
 20
173.9330666238
 30
0.0
 10
139.3155626342
 20
173.9275820833
 30
0.0
 10
139.2151281784
 20
173.9240702186
 30
0.0
 10
139.1496076739
 20
173.9225967818
 30
0.0
  0
SPLINE
  5
2AF
100
AcDbEntity
  8
0
100
AcDbSpline
 62
7
  6
CONTINUOUS
 70
0
 71
3
 72
9
 73
5
 74
0
 42
0.0000001
 43
0.0000001
 44
0.0000000001
 40
0.0
 40
0.0
 40
0.0
 40
0.0
 40
0.1412537052
 40
1.0
 40
1.0
 40
1.0
 40
1.0
 10
139.1496076739
 20
173.9225967818
 30
0.0
 10
139.1367515177
 20
173.9223076703
 30
0.0
 10
139.0439364513
 20
173.9204208103
 30
0.0
 10
138.9435574329
 20
173.9196310127
 30
0.0
 10
138.8570257213
 20
173.9196310116
 30
0.0
  0
SPLINE
  5
2B0
100
AcDbEntity
  8
0
100
AcDbSpline
 62
7
  6
CONTINUOUS
 70
0
 71
3
 72
9
 73
5
 74
0
 42
0.0000001
 43
0.0000001
 44
0.0000000001
 40
0.0
 40
0.0
 40
0.0
 40
0.0
 40
0.4997743614
 40
1.0
 40
1.0
 40
1.0
 40
1.0
 10
71.9482503014
 20
151.6895280274
 30
0.0
 10
72.0857610896
 20
151.5520527015
 30
0.0
 10
72.4184279043
 20
151.3289595084
 30
0.0
 10
72.8115870539
 20
151.2522135377
 30
0.0
 10
73.0062067808
 20
151.2526065442
 30
0.0
  0
SPLINE
  5
2B1
100
AcDbEntity
  8
0
100
AcDbSpline
 62
7
  6
CONTINUOUS
 70
0
 71
3
 72
11
 73
7
 74
0
 42
0.0000001
 43
0.0000001
 44
0.0000000001
 40
0.0
 40
0.0
 40
0.0
 40
0.0
 40
0.2500364115
 40
0.4999994694
 40
0.7499636133
 40
1.0
 40
1.0
 40
1.0
 40
1.0
 10
164.0768457581
 20
147.2582684947
 30
0.0
 10
164.0768457581
 20
146.8680034432
 30
0.0
 10
164.2330469628
 20
146.0789995147
 30
0.0
 10
164.901116359
 20
145.0821631095
 30
0.0
 10
165.8981120246
 20
144.414272253
 30
0.0
 10
166.6871437106
 20
144.2583403908
 30
0.0
 10
167.0774087234
 20
144.2583403908
 30
0.0
  0
SPLINE
  5
2B2
100
AcDbEntity
  8
0
100
AcDbSpline
 62
7
  6
CONTINUOUS
 70
0
 71
3
 72
9
 73
5
 74
0
 42
0.0000001
 43
0.0000001
 44
0.0000000001
 40
0.0
 40
0.0
 40
0.0
 40
0.0
 40
0.7486761437
 40
1.0
 40
1.0
 40
1.0
 40
1.0
 10
119.1570254983
 20
173.9793079513
 30
0.0
 10
119.0126643003
 20
173.9793079513
 30
0.0
 10
118.8162283934
 20
174.0228723002
 30
0.0
 10
118.6477638024
 20
174.1173017151
 30
0.0
 10
118.6072831236
 20
174.1439430297
 30
0.0
  0
SPLINE
  5
2B3
100
AcDbEntity
  8
0
100
AcDbSpline
 62
7
  6
CONTINUOUS
 70
0
 71
3
 72
9
 73
5
 74
0
 42
0.0000001
 43
0.0000001
 44
0.0000000001
 40
0.0
 40
0.0
 40
0.0
 40
0.0
 40
0.4999874358
 40
1.0
 40
1.0
 40
1.0
 40
1.0
 10
118.4499340564
 20
174.2720719554
 30
0.0
 10
118.357985935
 20
174.3639746994
 30
0.0
 10
118.2088356255
 20
174.586209787
 30
0.0
 10
118.1570254984
 20
174.848805708
 30
0.0
 10
118.1570254984
 20
174.9788144393
 30
0.0
  0
SPLINE
  5
2B4
100
AcDbEntity
  8
0
100
AcDbSpline
 62
7
  6
CONTINUOUS
 70
0
 71
3
 72
9
 73
5
 74
0
 42
0.0000001
 43
0.0000001
 44
0.0000000001
 40
0.0
 40
0.0
 40
0.0
 40
0.0
 40
0.5000125642
 40
1.0
 40
1.0
 40
1.0
 40
1.0
 10
143.8570254977
 20
174.9788144393
 30
0.0
 10
143.8570254977
 20
174.848805708
 30
0.0
 10
143.8052153706
 20
174.586209787
 30
0.0
 10
143.6560650611
 20
174.3639746993
 30
0.0
 10
143.5641169396
 20
174.2720719553
 30
0.0
  0
SPLINE
  5
2B5
100
AcDbEntity
  8
0
100
AcDbSpline
 62
7
  6
CONTINUOUS
 70
0
 71
3
 72
9
 73
5
 74
0
 42
0.0000001
 43
0.0000001
 44
0.0000000001
 40
0.0
 40
0.0
 40
0.0
 40
0.0
 40
0.2513238563
 40
1.0
 40
1.0
 40
1.0
 40
1.0
 10
143.406767873
 20
174.14394303
 30
0.0
 10
143.3662871941
 20
174.1173017153
 30
0.0
 10
143.197822603
 20
174.0228723002
 30
0.0
 10
143.0013866958
 20
173.9793079512
 30
0.0
 10
142.8570254977
 20
173.9793079512
 30
0.0
  0
SPLINE
  5
2B6
100
AcDbEntity
  8
0
100
AcDbSpline
 62
7
  6
CONTINUOUS
 70
0
 71
3
 72
9
 73
5
 74
0
 42
0.0000001
 43
0.0000001
 44
0.0000000001
 40
0.0
 40
0.0
 40
0.0
 40
0.0
 40
0.4999193575
 40
1.0
 40
1.0
 40
1.0
 40
1.0
 10
75.4175040941
 20
151.2556694031
 30
0.0
 10
76.0613283725
 20
151.262095938
 30
0.0
 10
77.3591337364
 20
151.5283579968
 30
0.0
 10
78.4572659211
 20
152.2694032874
 30
0.0
 10
78.9125513564
 20
152.7249619596
 30
0.0
  0
SPLINE
  5
2B7
100
AcDbEntity
  8
0
100
AcDbSpline
 62
7
  6
CONTINUOUS
 70
0
 71
3
 72
9
 73
5
 74
0
 42
0.0000001
 43
0.0000001
 44
0.0000000001
 40
0.0
 40
0.0
 40
0.0
 40
0.0
 40
0.2585806369
 40
1.0
 40
1.0
 40
1.0
 40
1.0
 10
71.3372052387
 20
148.9600023039
 30
0.0
 10
71.3372052458
 20
148.8443594422
 30
0.0
 10
71.3376624713
 20
148.3971380685
 30
0.0
 10
71.3398397983
 20
147.9499171437
 30
0.0
 10
71.3427335794
 20
147.6183509731
 30
0.0
  0
SPLINE
  5
2B8
100
AcDbEntity
  8
0
100
AcDbSpline
 62
7
  6
CONTINUOUS
 70
0
 71
3
 72
9
 73
5
 74
0
 42
0.0000001
 43
0.0000001
 44
0.0000000001
 40
0.0
 40
0.0
 40
0.0
 40
0.0
 40
0.2580162402
 40
1.0
 40
1.0
 40
1.0
 40
1.0
 10
62.7228535702
 20
148.8765978526
 30
0.0
 10
62.7529674321
 20
148.7684940036
 30
0.0
 10
62.8692943408
 20
148.3494058849
 30
0.0
 10
62.9841477308
 20
147.9299076502
 30
0.0
 10
63.0682686523
 20
147.6183509715
 30
0.0
  0
ELLIPSE
  5
2B9
100
AcDbEntity
  8
0
100
AcDbEllipse
 62
7
  6
CONTINUOUS
 10
124.6570254984
 20
182.5065279765
 30
0.0
 11
2.0
 21
0.0
 31
0.0
 40
0.9995065604
 41
1.5707963268
 42
3.1415926536
  0
ELLIPSE
  5
2BA
100
AcDbEntity
  8
0
100
AcDbEllipse
 62
7
  6
CONTINUOUS
 10
137.3570254984
 20
182.5065279765
 30
0.0
 11
2.0
 21
0.0
 31
0.0
 40
0.9995065604
 41
-0.0
 42
1.5707963268
  0
ENDSEC
  0
SECTION
  2
OBJECTS
  0
DICTIONARY
  5
C
100
AcDbDictionary
280
0
281
1
  3
ACAD_GROUP
350
D
  3
ACAD_MLINESTYLE
350
17
  3
ACAD_LAYOUT
350
1A
  3
ACAD_PLOTSETTINGS
350
19
  3
ACAD_PLOTSTYLENAME
350
E
  0
DICTIONARY
  5
D
102
{ACAD_REACTORS
330
C
102
}
100
AcDbDictionary
280
0
281
1
  0
ACDBDICTIONARYWDFLT
  5
E
102
{ACAD_REACTORS
330
C
102
}
100
AcDbDictionary
281
1
  3
Normal
350
F
100
AcDbDictionaryWithDefault
340
F
  0
DICTIONARY
  5
17
102
{ACAD_REACTORS
330
C
102
}
100
AcDbDictionary
280
0
281
1
  3
Standard
350
18
  0
DICTIONARY
  5
19
102
{ACAD_REACTORS
330
C
102
}
100
AcDbDictionary
281
1
  0
DICTIONARY
  5
1A
102
{ACAD_REACTORS
330
C
102
}
100
AcDbDictionary
281
1
  3
Model
350
2BB
  3
Layout1
350
2BC
  0
ACDBPLACEHOLDER
  5
F
102
{ACAD_REACTORS
330
E
102
}
  0
MLINESTYLE
  5
18
102
{ACAD_REACTORS
330
17
102
}
100
AcDbMlineStyle
  2
STANDARD
 70
0
  3

 62
256
 51
90.0
 52
90.0
 71
2
 49
0.5
 62
256
  6
BYLAYER
 49
-0.5
 62
256
  6
BYLAYER
  0
LAYOUT
  5
2BB
102
{ACAD_REACTORS
330
1A
102
}
100
AcDbPlotSettings
  1

  2
none_device
  4

  6

 40
0.0
 41
0.0
 42
0.0
 43
0.0
 44
210.0
 45
297.0
 46
0.0
 47
0.0
 48
0.0
 49
0.0
140
0.0
141
0.0
142
1.0
143
1.0
 70
1024
 72
1
 73
0
 74
0
  7

 75
0
147
1.0
148
0.0
149
0.0
100
AcDbLayout
  1
Model
 70
0
 71
0
 10
0.0
 20
0.0
 11
210.0
 21
297.0
 12
0.0
 22
0.0
 32
0.0
 14
0.0
 24
0.0
 34
0.0
 15
0.0
 25
0.0
 35
0.0
146
0.0
 13
0.0
 23
0.0
 33
0.0
 16
1.0
 26
0.0
 36
0.0
 17
0.0
 27
1.0
 37
0.0
 76
0
330
210
345
0
346
0
  0
LAYOUT
  5
2BC
102
{ACAD_REACTORS
330
1A
102
}
100
AcDbPlotSettings
  1

  2
none_device
  4

  6

 40
0.0
 41
0.0
 42
0.0
 43
0.0
 44
210.0
 45
297.0
 46
0.0
 47
0.0
 48
0.0
 49
0.0
140
0.0
141
0.0
142
1.0
143
1.0
 70
0
 72
1
 73
0
 74
0
  7

 75
0
147
1.0
148
0.0
149
0.0
100
AcDbLayout
  1
Layout1
 70
0
 71
1
 10
0.0
 20
0.0
 11
210.0
 21
297.0
 12
0.0
 22
0.0
 32
0.0
 14
0.0
 24
0.0
 34
0.0
 15
0.0
 25
0.0
 35
0.0
146
0.0
 13
0.0
 23
0.0
 33
0.0
 16
1.0
 26
0.0
 36
0.0
 17
0.0
 27
1.0
 37
0.0
 76
0
330
211
345
0
346
0
  0
ENDSEC
  0
EOF
