999
DXF file: C:\Gen2D\CAD\GVAX225_3D-CAD\drw0001_5.dxf
999
Pro/ENGINEER 2019471 by Parametric Technology Corporation
  0
SECTION
  2
HEADER
  9
$ACADVER
  1
AC1024
  9
$DWGCODEPAGE
  3
ANSI_1252
  9
$EXTMAX
 10
102.7988655218
 20
145.3869669523
 30
0.0
  9
$EXTMIN
 10
0.0
 20
0.0
 30
0.0
  9
$LIMMIN
 10
0.0
 20
0.0
  9
$LIMMAX
 10
102.7988655218
 20
145.3869669523
  9
$VIEWCTR
 10
51.3994327609
 20
72.6934834761
  9
$VIEWSIZE
 40
145.3869669523
  9
$CLAYER
  8
0
  9
$LTSCALE
 40
9.4770763643
  9
$CELTYPE
  6
BYLAYER
  9
$DIMSCALE
 40
1.0
  9
$DIMASZ
 40
1.2237960181
  9
$DIMEXO
 40
1.0
  9
$DIMDLI
 40
6.5477982153
  9
$DIMEXE
 40
1.0
  9
$DIMCEN
 40
1.5507943142
  9
$DIMLFAC
 40
1.0
  9
$DIMBLK
  1
_FILLED
  9
$DIMALT
 70
0
  9
$DIMALTF
 40
0.0393700787
  9
$DIMTXT
 40
1.7133144254
  9
$DIMTOL
 70
1
  9
$DIMLIM
 70
0
  9
$DIMTFAC
 40
1.0
  9
$DIMTP
 40
0.01
  9
$DIMTM
 40
0.01
  9
$DIMGAP
 40
0.625
  9
$DIMDSEP
 70
46
  9
$AUNITS
 70
0
  9
$PDMODE
 70
3
  9
$PDSIZE
 40
0.3125
  9
$HANDSEED
  5
2B8
  9
$TILEMODE
 70
1
  9
$MEASUREMENT
 70
1
  9
$INSUNITS
 70
4
  0
ENDSEC
  0
SECTION
  2
CLASSES
  0
CLASS
  1
ACDBDICTIONARYWDFLT
  2
AcDbDictionaryWithDefault
  3
AutoCAD 2000
 90
0
 91
1
280
0
281
0
  0
CLASS
  1
ACDBPLACEHOLDER
  2
AcDbPlaceHolder
  3
AutoCAD 2000
 90
0
 91
1
280
0
281
0
  0
CLASS
  1
LAYOUT
  2
AcDbLayout
  3
AutoCAD 2000
 90
0
 91
0
280
0
281
0
  0
ENDSEC
  0
SECTION
  2
TABLES
  0
TABLE
  2
VPORT
  5
8
100
AcDbSymbolTable
 70
2
  0
VPORT
  5
1F4
100
AcDbSymbolTableRecord
100
AcDbViewportTableRecord
  2
*ACTIVE
 70
0
 10
0.0
 20
0.0
 11
1.0
 21
1.0
 12
51.3994327609
 22
72.6934834761
 13
0.0
 23
0.0
 14
1.0
 24
1.0
 15
0.0
 25
0.0
 16
0.0
 26
0.0
 36
1.0
 17
0.0
 27
0.0
 37
0.0
 40
145.3869669523
 41
0.7070707071
 42
50.0
 43
0.0
 44
0.0
 50
0.0
 51
0.0
 71
0
 72
100
 73
1
 74
1
 75
0
 76
0
 77
0
 78
0
  0
ENDTAB
  0
TABLE
  2
LTYPE
  5
5
100
AcDbSymbolTable
 70
6
  0
LTYPE
  5
14
100
AcDbSymbolTableRecord
100
AcDbLinetypeTableRecord
  2
BYBLOCK
 70
0
  3

 72
65
 73
0
 40
0.0
  0
LTYPE
  5
15
100
AcDbSymbolTableRecord
100
AcDbLinetypeTableRecord
  2
BYLAYER
 70
0
  3

 72
65
 73
0
 40
0.0
  0
LTYPE
  5
16
100
AcDbSymbolTableRecord
100
AcDbLinetypeTableRecord
  2
CONTINUOUS
 70
64
  3
Solid line
 72
65
 73
0
 40
0.0
  0
LTYPE
  5
1F5
100
AcDbSymbolTableRecord
100
AcDbLinetypeTableRecord
  2
CENTER
 70
64
  3
____ _ ____ _ ____ _ ____ _ ____ _ ____ _ ____
 72
65
 73
4
 40
0.6
 49
0.375
 74
0
 49
-0.075
 74
0
 49
0.075
 74
0
 49
-0.075
 74
0
  0
LTYPE
  5
1F6
100
AcDbSymbolTableRecord
100
AcDbLinetypeTableRecord
  2
HIDDEN
 70
64
  3
- - - - - - - - - - - - - - - - - - - -
 72
65
 73
2
 40
0.2
 49
0.1
 74
0
 49
-0.1
 74
0
  0
LTYPE
  5
1F7
100
AcDbSymbolTableRecord
100
AcDbLinetypeTableRecord
  2
PHANTOM
 70
64
  3
_____ _ _ _____ _ _ _____ _ _ _____
 72
65
 73
6
 40
0.8
 49
0.45
 74
0
 49
-0.05
 74
0
 49
0.1
 74
0
 49
-0.05
 74
0
 49
0.1
 74
0
 49
-0.05
 74
0
  0
LTYPE
  5
1F8
100
AcDbSymbolTableRecord
100
AcDbLinetypeTableRecord
  2
DOT
 70
64
  3
. . . . . . . . . . . . . . . . . . . .
 72
65
 73
2
 40
0.2
 49
0.1
 74
0
 49
-0.1
 74
0
  0
LTYPE
  5
1F9
100
AcDbSymbolTableRecord
100
AcDbLinetypeTableRecord
  2
DASHED
 70
64
  3
- - - - - - - - - - - - - - - - - - - -
 72
65
 73
2
 40
0.2
 49
0.1
 74
0
 49
-0.1
 74
0
  0
ENDTAB
  0
TABLE
  2
LAYER
  5
2
100
AcDbSymbolTable
 70
36
  0
LAYER
  5
10
100
AcDbSymbolTableRecord
100
AcDbLayerTableRecord
  2
0
 70
0
 62
7
  6
CONTINUOUS
370
-3
390
F
  0
LAYER
  5
1FA
100
AcDbSymbolTableRecord
100
AcDbLayerTableRecord
  2
DEFAULT_1
 70
0
 62
7
  6
CENTER
370
-3
390
F
  0
LAYER
  5
1FB
100
AcDbSymbolTableRecord
100
AcDbLayerTableRecord
  2
DEFAULT_2
 70
0
 62
8
  6
HIDDEN
370
-3
390
F
  0
LAYER
  5
1FC
100
AcDbSymbolTableRecord
100
AcDbLayerTableRecord
  2
DEFAULT_3
 70
0
 62
7
  6
PHANTOM
370
-3
390
F
  0
LAYER
  5
1FD
100
AcDbSymbolTableRecord
100
AcDbLayerTableRecord
  2
00_COMPONENTS
 70
0
 62
7
  6
CONTINUOUS
370
-3
390
F
  0
LAYER
  5
1FE
100
AcDbSymbolTableRecord
100
AcDbLayerTableRecord
  2
01_1_DEFAULT_DATUMS
 70
0
 62
7
  6
CONTINUOUS
370
-3
390
F
  0
LAYER
  5
1FF
100
AcDbSymbolTableRecord
100
AcDbLayerTableRecord
  2
01_PLANES
 70
0
 62
7
  6
CONTINUOUS
370
-3
390
F
  0
LAYER
  5
200
100
AcDbSymbolTableRecord
100
AcDbLayerTableRecord
  2
02_COORD_SYS
 70
0
 62
7
  6
CONTINUOUS
370
-3
390
F
  0
LAYER
  5
201
100
AcDbSymbolTableRecord
100
AcDbLayerTableRecord
  2
03_AXES
 70
0
 62
7
  6
CONTINUOUS
370
-3
390
F
  0
LAYER
  5
202
100
AcDbSymbolTableRecord
100
AcDbLayerTableRecord
  2
04_POINTS
 70
0
 62
7
  6
CONTINUOUS
370
-3
390
F
  0
LAYER
  5
203
100
AcDbSymbolTableRecord
100
AcDbLayerTableRecord
  2
05_CURVES
 70
0
 62
7
  6
CONTINUOUS
370
-3
390
F
  0
LAYER
  5
204
100
AcDbSymbolTableRecord
100
AcDbLayerTableRecord
  2
06_SURFS
 70
0
 62
7
  6
CONTINUOUS
370
-3
390
F
  0
LAYER
  5
205
100
AcDbSymbolTableRecord
100
AcDbLayerTableRecord
  2
07_COSMETICS
 70
0
 62
7
  6
CONTINUOUS
370
-3
390
F
  0
LAYER
  5
206
100
AcDbSymbolTableRecord
100
AcDbLayerTableRecord
  2
10_NOTES
 70
0
 62
7
  6
CONTINUOUS
370
-3
390
F
  0
LAYER
  5
207
100
AcDbSymbolTableRecord
100
AcDbLayerTableRecord
  2
11_NOTES_PUB
 70
0
 62
7
  6
CONTINUOUS
370
-3
390
F
  0
LAYER
  5
208
100
AcDbSymbolTableRecord
100
AcDbLayerTableRecord
  2
13_REF_GTOL
 70
0
 62
7
  6
CONTINUOUS
370
-3
390
F
  0
LAYER
  5
209
100
AcDbSymbolTableRecord
100
AcDbLayerTableRecord
  2
16_MISC
 70
0
 62
7
  6
CONTINUOUS
370
-3
390
F
  0
LAYER
  5
20A
100
AcDbSymbolTableRecord
100
AcDbLayerTableRecord
  2
17_NO_PRINT
 70
0
 62
7
  6
CONTINUOUS
370
-3
390
F
  0
LAYER
  5
20B
100
AcDbSymbolTableRecord
100
AcDbLayerTableRecord
  2
18_DATUM_CAMS_JOINTS
 70
0
 62
7
  6
CONTINUOUS
370
-3
390
F
  0
LAYER
  5
20C
100
AcDbSymbolTableRecord
100
AcDbLayerTableRecord
  2
19_DATUM_FUNCTIONAL
 70
0
 62
7
  6
CONTINUOUS
370
-3
390
F
  0
LAYER
  5
20D
100
AcDbSymbolTableRecord
100
AcDbLayerTableRecord
  2
20_DATUM_KINEMATIC_SCHEME
 70
0
 62
7
  6
CONTINUOUS
370
-3
390
F
  0
LAYER
  5
20E
100
AcDbSymbolTableRecord
100
AcDbLayerTableRecord
  2
INTFCLR_75
 70
0
 62
7
  6
CONTINUOUS
370
-3
390
F
  0
ENDTAB
  0
TABLE
  2
STYLE
  5
3
100
AcDbSymbolTable
 70
1
  0
STYLE
  5
11
100
AcDbSymbolTableRecord
100
AcDbTextStyleTableRecord
  2
STANDARD
 70
0
 40
0.0
 41
0.8
 50
0.0
 71
0
 42
0.2
  3
txt
  4

  0
STYLE
  5
20F
100
AcDbSymbolTableRecord
100
AcDbTextStyleTableRecord
  2
TEXTSTYLE_1
 70
0
 40
0.0
 41
0.8
 50
0.0
 71
0
 42
0.2
  3
gdt
  4

  0
ENDTAB
  0
TABLE
  2
VIEW
  5
6
100
AcDbSymbolTable
 70
0
  0
ENDTAB
  0
TABLE
  2
UCS
  5
7
100
AcDbSymbolTable
 70
0
  0
ENDTAB
  0
TABLE
  2
APPID
  5
9
100
AcDbSymbolTable
 70
1
  0
APPID
  5
210
100
AcDbSymbolTableRecord
100
AcDbRegAppTableRecord
  2
ACAD
 70
0
  0
ENDTAB
  0
TABLE
  2
BLOCK_RECORD
  5
1
100
AcDbSymbolTable
 70
0
  0
BLOCK_RECORD
  5
211
100
AcDbSymbolTableRecord
100
AcDbBlockTableRecord
  2
*Model_Space
  0
BLOCK_RECORD
  5
212
100
AcDbSymbolTableRecord
100
AcDbBlockTableRecord
  2
*Paper_Space
  0
BLOCK_RECORD
  5
213
100
AcDbSymbolTableRecord
100
AcDbBlockTableRecord
  2
_FILLED
  0
ENDTAB
  0
TABLE
  2
DIMSTYLE
  5
A
100
AcDbSymbolTable
 70
1
100
AcDbDimStyleTable
 71
0
  0
DIMSTYLE
105
214
100
AcDbSymbolTableRecord
100
AcDbDimStyleTableRecord
  2
STANDARD
 70
0
  3

  4

 40
1.0
 41
1.2237960181
 42
1.0
 43
0.38
 44
1.0
 45
0.0
 46
0.0
 47
0.01
 48
0.01
140
1.7133144254
141
0.09
142
0.0
143
25.4
144
1.0
145
0.0
146
1.0
147
0.625
 71
1
 72
0
 73
0
 74
0
 75
0
 76
0
 77
1
 78
8
 79
2
170
0
171
1
172
0
173
0
174
0
175
0
176
0
177
0
178
0
270
2
179
2
271
2
272
2
273
2
274
2
275
0
280
0
281
0
282
0
283
1
284
8
285
0
286
0
287
3
288
0
340
11
278
46
341
213
342
213
343
213
344
213
  0
ENDTAB
  0
ENDSEC
  0
SECTION
  2
BLOCKS
  0
BLOCK
  5
20
100
AcDbEntity
  8
0
100
AcDbBlockBegin
  2
*Model_Space
 70
0
 10
0.0
 20
0.0
 30
0.0
  3
*Model_Space
  1

  0
ENDBLK
  5
21
100
AcDbEntity
  8
0
100
AcDbBlockEnd
  0
BLOCK
  5
1C
100
AcDbEntity
  8
0
100
AcDbBlockBegin
  2
*Paper_Space
 70
0
 10
0.0
 20
0.0
 30
0.0
  3
*Paper_Space
  1

  0
ENDBLK
  5
1D
100
AcDbEntity
  8
0
100
AcDbBlockEnd
  0
BLOCK
  5
215
100
AcDbEntity
  8
0
100
AcDbBlockBegin
  2
_FILLED
 70
64
 10
0.0
 20
0.0
  3
_FILLED
  1

  0
SOLID
  5
216
100
AcDbEntity
  8
0
  6
BYBLOCK
 62
0
100
AcDbTrace
 10
0.0
 20
0.0
 11
-1.0
 21
0.25
 12
-1.0
 22
-0.25
 13
-1.0
 23
-0.25
  0
ENDBLK
  5
217
100
AcDbEntity
  8
0
  6
BYBLOCK
 62
0
100
AcDbBlockEnd
  0
ENDSEC
  0
SECTION
  2
ENTITIES
  0
LINE
  5
218
100
AcDbEntity
  8
0
100
AcDbLine
 62
7
  6
CONTINUOUS
 10
15.4623859712
 20
28.8301238474
 11
14.9296470796
 21
30.4648700824
  0
LINE
  5
219
100
AcDbEntity
  8
0
100
AcDbLine
 62
7
  6
CONTINUOUS
 10
11.98301516
 20
105.5648700824
 11
13.65301516
 21
117.4648700824
  0
LINE
  5
21A
100
AcDbEntity
  8
0
100
AcDbLine
 62
7
  6
CONTINUOUS
 10
11.98301516
 20
30.4648700824
 11
11.98301516
 21
54.0648700824
  0
LINE
  5
21B
100
AcDbEntity
  8
0
100
AcDbLine
 62
7
  6
CONTINUOUS
 10
11.98301516
 20
93.6648700824
 11
11.98301516
 21
105.5648700824
  0
LINE
  5
21C
100
AcDbEntity
  8
0
100
AcDbLine
 62
7
  6
CONTINUOUS
 10
37.0782990723
 20
115.2607636601
 11
37.48301516
 21
115.6654797478
  0
LINE
  5
21D
100
AcDbEntity
  8
0
100
AcDbLine
 62
7
  6
CONTINUOUS
 10
20.164799933
 20
30.341926725
 11
27.6665243248
 21
30.6563421337
  0
LINE
  5
21E
100
AcDbEntity
  8
0
100
AcDbLine
 62
7
  6
CONTINUOUS
 10
22.6201157845
 20
30.4648700824
 11
11.98301516
 21
30.4648700824
  0
LINE
  5
21F
100
AcDbEntity
  8
0
100
AcDbLine
 62
7
  6
CONTINUOUS
 10
23.0981395768
 20
30.4648700824
 11
61.28301516
 21
30.4648700824
  0
LINE
  5
220
100
AcDbEntity
  8
0
100
AcDbLine
 62
7
  6
CONTINUOUS
 10
37.12301516
 20
31.4148700824
 11
35.35301516
 21
31.4148700824
  0
LINE
  5
221
100
AcDbEntity
  8
0
100
AcDbLine
 62
7
  6
CONTINUOUS
 10
23.1861473735
 20
32.570402376
 11
23.5842789161
 21
32.5348700824
  0
LINE
  5
222
100
AcDbEntity
  8
0
100
AcDbLine
 62
7
  6
CONTINUOUS
 10
27.55301516
 20
37.3237491511
 11
30.4639678461
 21
36.5437617297
  0
LINE
  5
223
100
AcDbEntity
  8
0
100
AcDbLine
 62
7
  6
CONTINUOUS
 10
27.32301516
 20
116.9848700824
 11
26.3454564752
 21
114.4448700824
  0
LINE
  5
224
100
AcDbEntity
  8
0
100
AcDbLine
 62
7
  6
CONTINUOUS
 10
23.1861473735
 20
32.570402376
 11
22.53301516
 21
32.5430280256
  0
LINE
  5
225
100
AcDbEntity
  8
0
100
AcDbLine
 62
7
  6
CONTINUOUS
 10
41.09301516
 20
34.8148700824
 11
37.29301516
 21
34.8148700824
  0
LINE
  5
226
100
AcDbEntity
  8
0
100
AcDbLine
 62
7
  6
CONTINUOUS
 10
34.98301516
 20
35.8148700824
 11
30.98301516
 21
35.8148700824
  0
LINE
  5
227
100
AcDbEntity
  8
0
100
AcDbLine
 62
7
  6
CONTINUOUS
 10
37.47301516
 20
32.2742604169
 11
37.0782990723
 21
32.6689765046
  0
LINE
  5
228
100
AcDbEntity
  8
0
100
AcDbLine
 62
7
  6
CONTINUOUS
 10
20.164799933
 20
30.341926725
 11
20.1733314622
 21
30.1383706054
  0
LINE
  5
229
100
AcDbEntity
  8
0
100
AcDbLine
 62
7
  6
CONTINUOUS
 10
22.6209540328
 20
30.4448700824
 11
22.53301516
 21
32.5430280256
  0
LINE
  5
22A
100
AcDbEntity
  8
0
100
AcDbLine
 62
7
  6
CONTINUOUS
 10
17.74301516
 20
56.0648700824
 11
17.74301516
 21
93.6648700824
  0
LINE
  5
22B
100
AcDbEntity
  8
0
100
AcDbLine
 62
7
  6
CONTINUOUS
 10
17.79301516
 20
117.277556667
 11
17.79301516
 21
116.997556667
  0
LINE
  5
22C
100
AcDbEntity
  8
0
100
AcDbLine
 62
7
  6
CONTINUOUS
 10
35.1651176084
 20
104.4048700824
 11
35.9898336961
 21
105.2295861701
  0
LINE
  5
22D
100
AcDbEntity
  8
0
100
AcDbLine
 62
7
  6
CONTINUOUS
 10
23.5781199849
 20
32.6818177307
 11
27.4147780266
 21
33.3514217509
  0
LINE
  5
22E
100
AcDbEntity
  8
0
100
AcDbLine
 62
7
  6
CONTINUOUS
 10
27.3460141214
 20
33.7454211628
 11
23.5612270862
 21
33.0848700824
  0
LINE
  5
22F
100
AcDbEntity
  8
0
100
AcDbLine
 62
7
  6
CONTINUOUS
 10
35.9898336961
 20
42.7101539947
 11
35.1651176084
 21
43.5348700824
  0
LINE
  5
230
100
AcDbEntity
  8
0
100
AcDbLine
 62
7
  6
CONTINUOUS
 10
27.5974305323
 20
32.3048700824
 11
27.3460141214
 21
33.7454211628
  0
LINE
  5
231
100
AcDbEntity
  8
0
100
AcDbLine
 62
7
  6
CONTINUOUS
 10
23.5842789161
 20
32.5348700824
 11
23.5612270862
 21
33.0848700824
  0
LINE
  5
232
100
AcDbEntity
  8
0
100
AcDbLine
 62
7
  6
CONTINUOUS
 10
22.6192435515
 20
32.546642066
 11
22.6192435515
 21
30.4856809301
  0
LINE
  5
233
100
AcDbEntity
  8
0
100
AcDbLine
 62
7
  6
CONTINUOUS
 10
30.98301516
 20
41.5248700824
 11
33.28301516
 21
41.5248700824
  0
LINE
  5
234
100
AcDbEntity
  8
0
100
AcDbLine
 62
7
  6
CONTINUOUS
 10
36.1957272739
 20
42.6248700824
 11
41.0857272739
 21
42.6248700824
  0
LINE
  5
235
100
AcDbEntity
  8
0
100
AcDbLine
 62
7
  6
CONTINUOUS
 10
33.88301516
 20
43.6248700824
 11
34.95301516
 21
43.6248700824
  0
LINE
  5
236
100
AcDbEntity
  8
0
100
AcDbLine
 62
7
  6
CONTINUOUS
 10
27.5974305323
 20
32.3048700824
 11
27.6745493815
 21
30.4648700824
  0
LINE
  5
237
100
AcDbEntity
  8
0
100
AcDbLine
 62
7
  6
CONTINUOUS
 10
27.18301516
 20
37.8048700824
 11
27.18301516
 21
39.5348700824
  0
LINE
  5
238
100
AcDbEntity
  8
0
100
AcDbLine
 62
7
  6
CONTINUOUS
 10
27.32301516
 20
116.9848700824
 11
27.32301516
 21
117.2648700824
  0
LINE
  5
239
100
AcDbEntity
  8
0
100
AcDbLine
 62
7
  6
CONTINUOUS
 10
30.4639678461
 20
40.7959784351
 11
27.55301516
 21
40.0159910137
  0
LINE
  5
23A
100
AcDbEntity
  8
0
100
AcDbLine
 62
7
  6
CONTINUOUS
 10
39.3830123013
 20
45.5248779742
 11
37.283015161
 21
45.5248700851
  0
LINE
  5
23B
100
AcDbEntity
  8
0
100
AcDbLine
 62
7
  6
CONTINUOUS
 10
39.0204015143
 20
46.2248700824
 11
37.6456288058
 21
46.2248700824
  0
LINE
  5
23C
100
AcDbEntity
  8
0
100
AcDbLine
 62
7
  6
CONTINUOUS
 10
37.6456288058
 20
46.8248700824
 11
39.0204015143
 21
46.8248700824
  0
LINE
  5
23D
100
AcDbEntity
  8
0
100
AcDbLine
 62
7
  6
CONTINUOUS
 10
37.2830180187
 20
47.5248621905
 11
39.383015159
 21
47.5248700797
  0
LINE
  5
23E
100
AcDbEntity
  8
0
100
AcDbLine
 62
7
  6
CONTINUOUS
 10
30.68301516
 20
36.1182937122
 11
30.68301516
 21
36.2582937122
  0
LINE
  5
23F
100
AcDbEntity
  8
0
100
AcDbLine
 62
7
  6
CONTINUOUS
 10
30.68301516
 20
41.0814464525
 11
30.68301516
 21
41.2214464525
  0
LINE
  5
240
100
AcDbEntity
  8
0
100
AcDbLine
 62
7
  6
CONTINUOUS
 10
31.39301516
 20
106.7648700824
 11
31.39301516
 21
111.6148700824
  0
LINE
  5
241
100
AcDbEntity
  8
0
100
AcDbLine
 62
7
  6
CONTINUOUS
 10
77.48301516
 20
51.5615637488
 11
61.28301516
 21
51.4648700824
  0
LINE
  5
242
100
AcDbEntity
  8
0
100
AcDbLine
 62
7
  6
CONTINUOUS
 10
33.58301516
 20
41.8248700824
 11
33.58301516
 21
43.3248700824
  0
LINE
  5
243
100
AcDbEntity
  8
0
100
AcDbLine
 62
7
  6
CONTINUOUS
 10
33.58301516
 20
104.6148700824
 11
33.58301516
 21
106.1148700824
  0
LINE
  5
244
100
AcDbEntity
  8
0
100
AcDbLine
 62
7
  6
CONTINUOUS
 10
35.28301516
 20
32.6848700824
 11
35.28301516
 21
35.5148700824
  0
LINE
  5
245
100
AcDbEntity
  8
0
100
AcDbLine
 62
7
  6
CONTINUOUS
 10
35.28301516
 20
112.4248700824
 11
35.28301516
 21
115.2448700824
  0
LINE
  5
246
100
AcDbEntity
  8
0
100
AcDbLine
 62
7
  6
CONTINUOUS
 10
36.99301516
 20
115.0548700824
 11
36.99301516
 21
113.4248700824
  0
LINE
  5
247
100
AcDbEntity
  8
0
100
AcDbLine
 62
7
  6
CONTINUOUS
 10
36.99301516
 20
34.5148700824
 11
36.99301516
 21
32.8748700824
  0
LINE
  5
248
100
AcDbEntity
  8
0
100
AcDbLine
 62
7
  6
CONTINUOUS
 10
13.98301516
 20
56.0648700824
 11
17.74301516
 21
56.0648700824
  0
LINE
  5
249
100
AcDbEntity
  8
0
100
AcDbLine
 62
7
  6
CONTINUOUS
 10
18.7754564752
 20
114.4448700824
 11
17.79301516
 21
116.997556667
  0
LINE
  5
24A
100
AcDbEntity
  8
0
100
AcDbLine
 62
7
  6
CONTINUOUS
 10
11.98301516
 20
54.0648700824
 11
13.98301516
 21
56.0648700824
  0
LINE
  5
24B
100
AcDbEntity
  8
0
100
AcDbLine
 62
7
  6
CONTINUOUS
 10
41.59301516
 20
112.6248700824
 11
41.59301516
 21
105.8148700824
  0
LINE
  5
24C
100
AcDbEntity
  8
0
100
AcDbLine
 62
7
  6
CONTINUOUS
 10
41.59301516
 20
42.1248700824
 11
41.59301516
 21
35.3148700824
  0
LINE
  5
24D
100
AcDbEntity
  8
0
100
AcDbLine
 62
7
  6
CONTINUOUS
 10
59.19301516
 20
116.9938627224
 11
58.2119955172
 21
114.4448700824
  0
LINE
  5
24E
100
AcDbEntity
  8
0
100
AcDbLine
 62
7
  6
CONTINUOUS
 10
76.33301516
 20
69.3848700824
 11
77.48301516
 21
69.3848700824
  0
LINE
  5
24F
100
AcDbEntity
  8
0
100
AcDbLine
 62
7
  6
CONTINUOUS
 10
52.1695408459
 20
69.763326352
 11
50.3560929067
 21
69.763326352
  0
LINE
  5
250
100
AcDbEntity
  8
0
100
AcDbLine
 62
7
  6
CONTINUOUS
 10
50.3560929067
 20
72.5464138128
 11
52.1695408459
 21
72.5464138128
  0
LINE
  5
251
100
AcDbEntity
  8
0
100
AcDbLine
 62
7
  6
CONTINUOUS
 10
53.77301516
 20
117.268564027
 11
53.77301516
 21
116.988564027
  0
LINE
  5
252
100
AcDbEntity
  8
0
100
AcDbLine
 62
7
  6
CONTINUOUS
 10
59.19301516
 20
116.9938627224
 11
59.19301516
 21
117.2738627224
  0
LINE
  5
253
100
AcDbEntity
  8
0
100
AcDbLine
 62
7
  6
CONTINUOUS
 10
61.28301516
 20
117.4648700824
 11
61.28301516
 21
96.4648700824
  0
LINE
  5
254
100
AcDbEntity
  8
0
100
AcDbLine
 62
7
  6
CONTINUOUS
 10
61.28301516
 20
51.4648700824
 11
61.28301516
 21
30.4648700824
  0
LINE
  5
255
100
AcDbEntity
  8
0
100
AcDbLine
 62
7
  6
CONTINUOUS
 10
35.1977312477
 20
32.4789765046
 11
34.99301516
 21
32.2742604169
  0
LINE
  5
256
100
AcDbEntity
  8
0
100
AcDbLine
 62
7
  6
CONTINUOUS
 10
88.8617794172
 20
87.9036354672
 11
88.9057237876
 21
87.9446142556
  0
LINE
  5
257
100
AcDbEntity
  8
0
100
AcDbLine
 62
7
  6
CONTINUOUS
 10
90.5997749367
 20
86.1279668102
 11
90.5558305662
 21
86.0869880218
  0
LINE
  5
258
100
AcDbEntity
  8
0
100
AcDbLine
 62
7
  6
CONTINUOUS
 10
76.33301516
 20
91.3848700824
 11
77.48301516
 21
91.3848700824
  0
LINE
  5
259
100
AcDbEntity
  8
0
100
AcDbLine
 62
7
  6
CONTINUOUS
 10
34.98301516
 20
115.6654797478
 11
35.1977312477
 21
115.4507636601
  0
LINE
  5
25A
100
AcDbEntity
  8
0
100
AcDbLine
 62
7
  6
CONTINUOUS
 10
54.7519955172
 20
114.4448700824
 11
53.77301516
 21
116.988564027
  0
LINE
  5
25B
100
AcDbEntity
  8
0
100
AcDbLine
 62
7
  6
CONTINUOUS
 10
76.33301516
 20
91.3848700824
 11
76.33301516
 21
69.3848700824
  0
LINE
  5
25C
100
AcDbEntity
  8
0
100
AcDbLine
 62
7
  6
CONTINUOUS
 10
77.48301516
 20
96.3715637488
 11
77.48301516
 21
90.7471992
  0
LINE
  5
25D
100
AcDbEntity
  8
0
100
AcDbLine
 62
7
  6
CONTINUOUS
 10
77.48301516
 20
70.3769638518
 11
77.48301516
 21
51.5615637488
  0
LINE
  5
25E
100
AcDbEntity
  8
0
100
AcDbLine
 62
7
  6
CONTINUOUS
 10
17.74301516
 20
93.6648700824
 11
11.98301516
 21
93.6648700824
  0
LINE
  5
25F
100
AcDbEntity
  8
0
100
AcDbLine
 62
7
  6
CONTINUOUS
 10
80.59301516
 20
96.3548700824
 11
84.23301516
 21
96.3548700824
  0
LINE
  5
260
100
AcDbEntity
  8
0
100
AcDbLine
 62
7
  6
CONTINUOUS
 10
61.28301516
 20
96.4648700824
 11
77.48301516
 21
96.3715637488
  0
LINE
  5
261
100
AcDbEntity
  8
0
100
AcDbLine
 62
7
  6
CONTINUOUS
 10
77.48301516
 20
61.0148700824
 11
77.63301516
 21
60.4148700824
  0
LINE
  5
262
100
AcDbEntity
  8
0
100
AcDbLine
 62
7
  6
CONTINUOUS
 10
77.63301516
 20
55.8148700824
 11
77.63301516
 21
60.4148700824
  0
LINE
  5
263
100
AcDbEntity
  8
0
100
AcDbLine
 62
7
  6
CONTINUOUS
 10
77.48301516
 20
55.2148700824
 11
77.63301516
 21
55.8148700824
  0
LINE
  5
264
100
AcDbEntity
  8
0
100
AcDbLine
 62
7
  6
CONTINUOUS
 10
19.6219106621
 20
29.3442408936
 11
16.470892624
 21
28.3173721226
  0
LINE
  5
265
100
AcDbEntity
  8
0
100
AcDbLine
 62
7
  6
CONTINUOUS
 10
34.95301516
 20
104.3148700824
 11
33.88301516
 21
104.3148700824
  0
LINE
  5
266
100
AcDbEntity
  8
0
100
AcDbLine
 62
7
  6
CONTINUOUS
 10
41.0857272739
 20
105.3148700824
 11
36.1957272739
 21
105.3148700824
  0
LINE
  5
267
100
AcDbEntity
  8
0
100
AcDbLine
 62
7
  6
CONTINUOUS
 10
33.28301516
 20
106.4148700824
 11
31.74301516
 21
106.4148700824
  0
LINE
  5
268
100
AcDbEntity
  8
0
100
AcDbLine
 62
7
  6
CONTINUOUS
 10
90.5558305662
 20
86.0869880218
 11
88.8617794172
 21
87.9036354672
  0
LINE
  5
269
100
AcDbEntity
  8
0
100
AcDbLine
 62
7
  6
CONTINUOUS
 10
93.143392827
 20
83.4002705744
 11
86.3330717854
 21
90.7033253124
  0
LINE
  5
26A
100
AcDbEntity
  8
0
100
AcDbLine
 62
7
  6
CONTINUOUS
 10
91.3713423524
 20
79.1991626175
 11
90.3500535169
 21
80.7132855825
  0
LINE
  5
26B
100
AcDbEntity
  8
0
100
AcDbLine
 62
7
  6
CONTINUOUS
 10
83.0118970108
 20
90.8740681985
 11
79.7513501435
 21
95.8948700824
  0
LINE
  5
26C
100
AcDbEntity
  8
0
100
AcDbLine
 62
7
  6
CONTINUOUS
 10
31.89301516
 20
112.1248700824
 11
34.98301516
 21
112.1248700824
  0
LINE
  5
26D
100
AcDbEntity
  8
0
100
AcDbLine
 62
7
  6
CONTINUOUS
 10
37.29301516
 20
113.1248700824
 11
41.09301516
 21
113.1248700824
  0
LINE
  5
26E
100
AcDbEntity
  8
0
100
AcDbLine
 62
7
  6
CONTINUOUS
 10
87.9994010641
 20
91.8092538408
 11
93.002064741
 21
85.8473114314
  0
LINE
  5
26F
100
AcDbEntity
  8
0
100
AcDbLine
 62
7
  6
CONTINUOUS
 10
86.3330717854
 20
90.7033253124
 11
82.6629452019
 21
96.3548246511
  0
LINE
  5
270
100
AcDbEntity
  8
0
100
AcDbLine
 62
7
  6
CONTINUOUS
 10
85.49301516
 20
95.6687496803
 11
87.9994010641
 21
91.8092538408
  0
LINE
  5
271
100
AcDbEntity
  8
0
100
AcDbLine
 62
7
  6
CONTINUOUS
 10
58.2119955172
 20
114.4448700824
 11
54.7519955172
 21
114.4448700824
  0
LINE
  5
272
100
AcDbEntity
  8
0
100
AcDbLine
 62
7
  6
CONTINUOUS
 10
26.3454564752
 20
114.4448700824
 11
18.7754564752
 21
114.4448700824
  0
LINE
  5
273
100
AcDbEntity
  8
0
100
AcDbLine
 62
7
  6
CONTINUOUS
 10
58.5717269656
 20
115.3795637158
 11
54.3922640687
 21
115.3795637158
  0
LINE
  5
274
100
AcDbEntity
  8
0
100
AcDbLine
 62
7
  6
CONTINUOUS
 10
26.7051879236
 20
115.3795637158
 11
18.4157250267
 21
115.3795637158
  0
LINE
  5
275
100
AcDbEntity
  8
0
100
AcDbLine
 62
7
  6
CONTINUOUS
 10
35.34301516
 20
116.5248700824
 11
37.13301516
 21
116.5248700824
  0
LINE
  5
276
100
AcDbEntity
  8
0
100
AcDbLine
 62
7
  6
CONTINUOUS
 10
59.1395216709
 20
116.8548700824
 11
53.8244693634
 21
116.8548700824
  0
LINE
  5
277
100
AcDbEntity
  8
0
100
AcDbLine
 62
7
  6
CONTINUOUS
 10
27.2729826289
 20
116.8548700824
 11
17.8479303214
 21
116.8548700824
  0
LINE
  5
278
100
AcDbEntity
  8
0
100
AcDbLine
 62
7
  6
CONTINUOUS
 10
13.65301516
 20
117.4648700824
 11
61.28301516
 21
117.4648700824
  0
ARC
  5
279
100
AcDbEntity
  8
0
100
AcDbCircle
 62
7
  6
CONTINUOUS
 10
52.43301516
 20
71.1548700824
 40
2.5
100
AcDbArc
 50
146.1778039571
 51
213.8221960429
  0
ARC
  5
27A
100
AcDbEntity
  8
0
100
AcDbCircle
 62
7
  6
CONTINUOUS
 10
50.73301516
 20
71.1548700824
 40
2.0
100
AcDbArc
 50
315.9112431553
 51
44.0887568447
  0
ARC
  5
27B
100
AcDbEntity
  8
0
100
AcDbCircle
 62
7
  6
CONTINUOUS
 10
38.33301516
 20
46.5248700824
 40
1.45
100
AcDbArc
 50
316.3972558674
 51
43.602818947
  0
ARC
  5
27C
100
AcDbEntity
  8
0
100
AcDbCircle
 62
7
  6
CONTINUOUS
 10
38.33301516
 20
46.5248700824
 40
1.45
100
AcDbArc
 50
136.3972558684
 51
223.602818947
  0
ARC
  5
27D
100
AcDbEntity
  8
0
100
AcDbCircle
 62
7
  6
CONTINUOUS
 10
19.3740331981
 20
30.1048700824
 40
0.8
100
AcDbArc
 50
288.0500000003
 51
2.3999999991
  0
ARC
  5
27E
100
AcDbEntity
  8
0
100
AcDbCircle
 62
7
  6
CONTINUOUS
 10
16.22301516
 20
29.0780013114
 40
0.8
100
AcDbArc
 50
198.0499999999
 51
288.0499999999
  0
ARC
  5
27F
100
AcDbEntity
  8
0
100
AcDbCircle
 62
7
  6
CONTINUOUS
 10
38.33301516
 20
46.5248700824
 40
0.75
100
AcDbArc
 50
156.4218215218
 51
203.5781784782
  0
ARC
  5
280
100
AcDbEntity
  8
0
100
AcDbCircle
 62
7
  6
CONTINUOUS
 10
38.33301516
 20
46.5248700824
 40
0.75
100
AcDbArc
 50
336.4218215218
 51
23.5781784782
  0
ARC
  5
281
100
AcDbEntity
  8
0
100
AcDbCircle
 62
7
  6
CONTINUOUS
 10
41.0930205041
 20
35.3148647383
 40
0.499994656
100
AcDbArc
 50
269.9993876084
 51
0.0006123917
  0
ARC
  5
282
100
AcDbEntity
  8
0
100
AcDbCircle
 62
7
  6
CONTINUOUS
 10
27.6815199294
 20
39.5343336489
 40
0.498505058
100
AcDbArc
 50
104.9383919914
 51
179.9383448943
  0
ARC
  5
283
100
AcDbEntity
  8
0
100
AcDbCircle
 62
7
  6
CONTINUOUS
 10
27.6815199294
 20
37.8054065159
 40
0.498505058
100
AcDbArc
 50
180.0616551079
 51
255.0616080041
  0
ARC
  5
284
100
AcDbEntity
  8
0
100
AcDbCircle
 62
7
  6
CONTINUOUS
 10
33.8830119536
 20
43.3248732888
 40
0.2999967936
100
AcDbArc
 50
89.999387608
 51
180.0006123912
  0
ARC
  5
285
100
AcDbEntity
  8
0
100
AcDbCircle
 62
7
  6
CONTINUOUS
 10
33.8913495171
 20
117.3648776342
 40
6.5690898455
100
AcDbArc
 50
179.1278302183
 51
180.8723015014
  0
ARC
  5
286
100
AcDbEntity
  8
0
100
AcDbCircle
 62
7
  6
CONTINUOUS
 10
47.3262999538
 20
117.3667245344
 40
6.4474567768
100
AcDbArc
 50
359.1276567948
 51
0.8722102827
  0
CIRCLE
  5
287
100
AcDbEntity
  8
0
100
AcDbCircle
 62
7
  6
CONTINUOUS
 10
38.33301516
 20
102.5748700824
 40
1.45
  0
CIRCLE
  5
288
100
AcDbEntity
  8
0
100
AcDbCircle
 62
7
  6
CONTINUOUS
 10
38.33301516
 20
102.5748700824
 40
0.75
  0
ARC
  5
289
100
AcDbEntity
  8
0
100
AcDbCircle
 62
7
  6
CONTINUOUS
 10
41.0930205041
 20
112.6248754265
 40
0.499994656
100
AcDbArc
 50
359.9993876078
 51
90.0006123919
  0
ARC
  5
28A
100
AcDbEntity
  8
0
100
AcDbCircle
 62
7
  6
CONTINUOUS
 10
31.74301516
 20
106.7648700824
 40
0.35
100
AcDbArc
 50
180.0
 51
270.0
  0
ARC
  5
28B
100
AcDbEntity
  8
0
100
AcDbCircle
 62
7
  6
CONTINUOUS
 10
33.8830119536
 20
104.6148668759
 40
0.2999967936
100
AcDbArc
 50
179.9993876069
 51
270.0006123923
  0
ARC
  5
28C
100
AcDbEntity
  8
0
100
AcDbCircle
 62
7
  6
CONTINUOUS
 10
70.4280001617
 20
96.4133578611
 40
27.11
100
AcDbArc
 50
282.580838797
 51
326.3382473088
  0
ARC
  5
28D
100
AcDbEntity
  8
0
100
AcDbCircle
 62
7
  6
CONTINUOUS
 10
70.43301516
 20
96.4762669975
 40
25.4
100
AcDbArc
 50
321.6407809789
 51
328.0407960202
  0
ARC
  5
28E
100
AcDbEntity
  8
0
100
AcDbCircle
 62
7
  6
CONTINUOUS
 10
70.43301516
 20
96.4762669975
 40
13.77
100
AcDbArc
 50
335.9934628388
 51
341.4803348497
  0
ARC
  5
28F
100
AcDbEntity
  8
0
100
AcDbCircle
 62
7
  6
CONTINUOUS
 10
70.4280001617
 20
96.4133578611
 40
9.22
100
AcDbArc
 50
309.8259170843
 51
354.0953732315
  0
ARC
  5
290
100
AcDbEntity
  8
0
100
AcDbCircle
 62
7
  6
CONTINUOUS
 10
89.66301516
 20
83.6448700824
 40
4.0
100
AcDbArc
 50
359.3805741011
 51
33.4088947354
  0
ARC
  5
291
100
AcDbEntity
  8
0
100
AcDbCircle
 62
7
  6
CONTINUOUS
 10
89.66301516
 20
83.6037404579
 40
4.0
100
AcDbArc
 50
326.3382473086
 51
359.9854363757
  0
ARC
  5
292
100
AcDbEntity
  8
0
100
AcDbCircle
 62
7
  6
CONTINUOUS
 10
84.23301516
 20
94.8548700824
 40
1.5
100
AcDbArc
 50
32.8598803778
 51
90.0
  0
ARC
  5
293
100
AcDbEntity
  8
0
100
AcDbCircle
 62
7
  6
CONTINUOUS
 10
90.7266031292
 20
83.8510660089
 40
1.5
100
AcDbArc
 50
326.8883878243
 51
29.7529095565
  0
ARC
  5
294
100
AcDbEntity
  8
0
100
AcDbCircle
 62
7
  6
CONTINUOUS
 10
84.4381461835
 20
91.7848700824
 40
1.0
100
AcDbArc
 50
32.9853602912
 51
161.4803348489
  0
ARC
  5
295
100
AcDbEntity
  8
0
100
AcDbCircle
 62
7
  6
CONTINUOUS
 10
80.59301516
 20
95.3548700824
 40
1.0
100
AcDbArc
 50
90.0000000016
 51
173.6846844342
  0
ARC
  5
296
100
AcDbEntity
  8
0
100
AcDbCircle
 62
7
  6
CONTINUOUS
 10
93.3627989375
 20
83.6048700824
 40
0.3
100
AcDbArc
 50
222.9999999959
 51
359.3805740987
  0
SPLINE
  5
297
100
AcDbEntity
  8
0
100
AcDbSpline
 62
7
  6
CONTINUOUS
 70
0
 71
3
 72
13
 73
9
 74
0
 42
0.0000001
 43
0.0000001
 44
0.0000000001
 40
0.0
 40
0.0
 40
0.0
 40
0.0
 40
0.1677246303
 40
0.3341989855
 40
0.5000239043
 40
0.6658434762
 40
0.8323018432
 40
1.0
 40
1.0
 40
1.0
 40
1.0
 10
37.48301516
 20
115.6654797478
 30
0.0
 10
37.5295043951
 20
115.7119689829
 30
0.0
 10
37.605658292
 20
115.8233760986
 30
0.0
 10
37.6453099576
 20
116.0204590946
 30
0.0
 10
37.6073235403
 20
116.2170768176
 30
0.0
 10
37.4970981378
 20
116.3844159295
 30
0.0
 10
37.3310477241
 20
116.4972319304
 30
0.0
 10
37.1987504896
 20
116.5248700824
 30
0.0
 10
37.13301516
 20
116.5248700824
 30
0.0
  0
SPLINE
  5
298
100
AcDbEntity
  8
0
100
AcDbSpline
 62
7
  6
CONTINUOUS
 70
0
 71
3
 72
13
 73
9
 74
0
 42
0.0000001
 43
0.0000001
 44
0.0000000001
 40
0.0
 40
0.0
 40
0.0
 40
0.0
 40
0.1677249862
 40
0.3341991627
 40
0.5000239042
 40
0.6658432989
 40
0.8323014873
 40
1.0
 40
1.0
 40
1.0
 40
1.0
 10
35.34301516
 20
116.5248700824
 30
0.0
 10
35.2769988047
 20
116.5248700824
 30
0.0
 10
35.1438764141
 20
116.4993916651
 30
0.0
 10
34.9760102893
 20
116.3873613895
 30
0.0
 10
34.8637009508
 20
116.2205456986
 30
0.0
 10
34.8235478467
 20
116.0234114251
 30
0.0
 10
34.8616781731
 20
115.8254312786
 30
0.0
 10
34.9363419155
 20
115.7121529923
 30
0.0
 10
34.98301516
 20
115.6654797478
 30
0.0
  0
SPLINE
  5
299
100
AcDbEntity
  8
0
100
AcDbSpline
 62
7
  6
CONTINUOUS
 70
0
 71
3
 72
11
 73
7
 74
0
 42
0.0000001
 43
0.0000001
 44
0.0000000001
 40
0.0
 40
0.0
 40
0.0
 40
0.0
 40
0.2520180104
 40
0.5
 40
0.7479819897
 40
1.0
 40
1.0
 40
1.0
 40
1.0
 10
31.89301516
 20
112.1248700824
 30
0.0
 10
31.8268011442
 20
112.1248700824
 30
0.0
 10
31.6942107237
 20
112.0960924491
 30
0.0
 10
31.5282918196
 20
111.9825023467
 30
0.0
 10
31.417252753
 20
111.8141529188
 30
0.0
 10
31.39301516
 20
111.6810840982
 30
0.0
 10
31.39301516
 20
111.6148700824
 30
0.0
  0
SPLINE
  5
29A
100
AcDbEntity
  8
0
100
AcDbSpline
 62
7
  6
CONTINUOUS
 70
0
 71
3
 72
10
 73
6
 74
0
 42
0.0000001
 43
0.0000001
 44
0.0000000001
 40
0.0
 40
0.0
 40
0.0
 40
0.0
 40
0.3373906447
 40
0.6626093553
 40
1.0
 40
1.0
 40
1.0
 40
1.0
 10
34.95301516
 20
104.3148700824
 30
0.0
 10
34.9795741118
 20
104.3148700824
 30
0.0
 10
35.0320104577
 20
104.3216761505
 30
0.0
 10
35.1054802227
 20
104.352585337
 30
0.0
 10
35.1463375936
 20
104.3860900675
 30
0.0
 10
35.1651176084
 20
104.4048700824
 30
0.0
  0
SPLINE
  5
29B
100
AcDbEntity
  8
0
100
AcDbSpline
 62
7
  6
CONTINUOUS
 70
0
 71
3
 72
11
 73
7
 74
0
 42
0.0000001
 43
0.0000001
 44
0.0000000001
 40
0.0
 40
0.0
 40
0.0
 40
0.0
 40
0.2520180103
 40
0.5
 40
0.7479819896
 40
1.0
 40
1.0
 40
1.0
 40
1.0
 10
41.0857272739
 20
105.3148700824
 30
0.0
 10
41.1517619796
 20
105.3148700824
 30
0.0
 10
41.2844114409
 20
105.3396520974
 30
0.0
 10
41.4519816045
 20
105.4507357424
 30
0.0
 10
41.5649244154
 20
105.616534568
 30
0.0
 10
41.59301516
 20
105.7488353767
 30
0.0
 10
41.59301516
 20
105.8148700824
 30
0.0
  0
SPLINE
  5
29C
100
AcDbEntity
  8
0
100
AcDbSpline
 62
7
  6
CONTINUOUS
 70
0
 71
3
 72
11
 73
7
 74
0
 42
0.0000001
 43
0.0000001
 44
0.0000000001
 40
0.0
 40
0.0
 40
0.0
 40
0.0
 40
0.2520180104
 40
0.5
 40
0.7479819896
 40
1.0
 40
1.0
 40
1.0
 40
1.0
 10
41.59301516
 20
42.1248700824
 30
0.0
 10
41.59301516
 20
42.1909047881
 30
0.0
 10
41.5649244154
 20
42.3232055968
 30
0.0
 10
41.4519816045
 20
42.4890044224
 30
0.0
 10
41.2844114409
 20
42.6000880674
 30
0.0
 10
41.1517619796
 20
42.6248700824
 30
0.0
 10
41.0857272739
 20
42.6248700824
 30
0.0
  0
SPLINE
  5
29D
100
AcDbEntity
  8
0
100
AcDbSpline
 62
7
  6
CONTINUOUS
 70
0
 71
3
 72
10
 73
6
 74
0
 42
0.0000001
 43
0.0000001
 44
0.0000000001
 40
0.0
 40
0.0
 40
0.0
 40
0.0
 40
0.3373906446
 40
0.6626093552
 40
1.0
 40
1.0
 40
1.0
 40
1.0
 10
35.1651176084
 20
43.5348700824
 30
0.0
 10
35.1463375936
 20
43.5536500973
 30
0.0
 10
35.1054802227
 20
43.5871548278
 30
0.0
 10
35.0320104578
 20
43.6180640143
 30
0.0
 10
34.9795741118
 20
43.6248700824
 30
0.0
 10
34.95301516
 20
43.6248700824
 30
0.0
  0
SPLINE
  5
29E
100
AcDbEntity
  8
0
100
AcDbSpline
 62
7
  6
CONTINUOUS
 70
0
 71
3
 72
11
 73
7
 74
0
 42
0.0000001
 43
0.0000001
 44
0.0000000001
 40
0.0
 40
0.0
 40
0.0
 40
0.0
 40
0.2520180103
 40
0.5
 40
0.7479819896
 40
1.0
 40
1.0
 40
1.0
 40
1.0
 10
30.98301516
 20
41.5248700824
 30
0.0
 10
30.9434569555
 20
41.5248700824
 30
0.0
 10
30.8641780097
 20
41.508256007
 30
0.0
 10
30.7647406603
 20
41.4407168601
 30
0.0
 10
30.6980748936
 20
41.3404473893
 30
0.0
 10
30.68301516
 20
41.261004657
 30
0.0
 10
30.68301516
 20
41.2214464525
 30
0.0
  0
SPLINE
  5
29F
100
AcDbEntity
  8
0
100
AcDbSpline
 62
7
  6
CONTINUOUS
 70
0
 71
3
 72
11
 73
7
 74
0
 42
0.0000001
 43
0.0000001
 44
0.0000000001
 40
0.0
 40
0.0
 40
0.0
 40
0.0
 40
0.2520180104
 40
0.5
 40
0.7479819896
 40
1.0
 40
1.0
 40
1.0
 40
1.0
 10
30.68301516
 20
36.1182937122
 30
0.0
 10
30.68301516
 20
36.0787355077
 30
0.0
 10
30.6980748936
 20
35.9992927755
 30
0.0
 10
30.7647406603
 20
35.8990233046
 30
0.0
 10
30.8641780097
 20
35.8314841577
 30
0.0
 10
30.9434569555
 20
35.8148700824
 30
0.0
 10
30.98301516
 20
35.8148700824
 30
0.0
  0
SPLINE
  5
2A0
100
AcDbEntity
  8
0
100
AcDbSpline
 62
7
  6
CONTINUOUS
 70
0
 71
3
 72
13
 73
9
 74
0
 42
0.0000001
 43
0.0000001
 44
0.0000000001
 40
0.0
 40
0.0
 40
0.0
 40
0.0
 40
0.1677249862
 40
0.3341991628
 40
0.5000239042
 40
0.6658432989
 40
0.8323014873
 40
1.0
 40
1.0
 40
1.0
 40
1.0
 10
34.99301516
 20
32.2742604169
 30
0.0
 10
34.9463345475
 20
32.2275798044
 30
0.0
 10
34.8716641297
 20
32.1142836324
 30
0.0
 10
34.8335464155
 20
31.9162804696
 30
0.0
 10
34.8737221449
 20
31.71914387
 30
0.0
 10
34.9860456975
 20
31.5523459364
 30
0.0
 10
35.1539042634
 20
31.4403408187
 30
0.0
 10
35.2870092246
 20
31.4148700824
 30
0.0
 10
35.35301516
 20
31.4148700824
 30
0.0
  0
SPLINE
  5
2A1
100
AcDbEntity
  8
0
100
AcDbSpline
 62
7
  6
CONTINUOUS
 70
0
 71
3
 72
13
 73
9
 74
0
 42
0.0000001
 43
0.0000001
 44
0.0000000001
 40
0.0
 40
0.0
 40
0.0
 40
0.0
 40
0.1677246303
 40
0.3341989856
 40
0.5000239043
 40
0.6658434762
 40
0.8323018432
 40
1.0
 40
1.0
 40
1.0
 40
1.0
 10
37.12301516
 20
31.4148700824
 30
0.0
 10
37.1887608668
 20
31.4148700824
 30
0.0
 10
37.3210753823
 20
31.4425161884
 30
0.0
 10
37.4871330735
 20
31.5553572877
 30
0.0
 10
37.5973441472
 20
31.7227139429
 30
0.0
 10
37.6353080545
 20
31.9193291272
 30
0.0
 10
37.5956440364
 20
32.1163890552
 30
0.0
 10
37.5194970573
 20
32.2277785197
 30
0.0
 10
37.47301516
 20
32.2742604169
 30
0.0
  0
SPLINE
  5
2A2
100
AcDbEntity
  8
0
100
AcDbSpline
 62
7
  6
CONTINUOUS
 70
0
 71
3
 72
10
 73
6
 74
0
 42
0.0000001
 43
0.0000001
 44
0.0000000001
 40
0.0
 40
0.0
 40
0.0
 40
0.0
 40
0.3472795539
 40
0.684039791
 40
1.0
 40
1.0
 40
1.0
 40
1.0
 10
59.19301516
 20
117.2738627224
 30
0.0
 10
59.19301516
 20
117.2960047092
 30
0.0
 10
59.1961113817
 20
117.3395552686
 30
0.0
 10
59.1989458315
 20
117.4032373333
 30
0.0
 10
59.2016360457
 20
117.4447722285
 30
0.0
 10
59.20301516
 20
117.4648700824
 30
0.0
  0
SPLINE
  5
2A3
100
AcDbEntity
  8
0
100
AcDbSpline
 62
7
  6
CONTINUOUS
 70
0
 71
3
 72
10
 73
6
 74
0
 42
0.0000001
 43
0.0000001
 44
0.0000000001
 40
0.0
 40
0.0
 40
0.0
 40
0.0
 40
0.3159601157
 40
0.6527202784
 40
1.0
 40
1.0
 40
1.0
 40
1.0
 10
17.78301516
 20
117.4648700824
 30
0.0
 10
17.7843879994
 20
117.4451612445
 30
0.0
 10
17.7870709252
 20
117.4044301359
 30
0.0
 10
17.7899022081
 20
117.3419791251
 30
0.0
 10
17.79301516
 20
117.2992716363
 30
0.0
 10
17.79301516
 20
117.277556667
 30
0.0
  0
SPLINE
  5
2A4
100
AcDbEntity
  8
0
100
AcDbSpline
 62
7
  6
CONTINUOUS
 70
0
 71
3
 72
9
 73
5
 74
0
 42
0.0000001
 43
0.0000001
 44
0.0000000001
 40
0.0
 40
0.0
 40
0.0
 40
0.0
 40
0.5013414034
 40
1.0
 40
1.0
 40
1.0
 40
1.0
 10
37.6456288058
 20
46.8248700824
 30
0.0
 10
37.5734060943
 20
46.9351920965
 30
0.0
 10
37.4446347157
 20
47.1652518979
 30
0.0
 10
37.3346822728
 20
47.4043122661
 30
0.0
 10
37.2830180187
 20
47.5248621905
 30
0.0
  0
SPLINE
  5
2A5
100
AcDbEntity
  8
0
100
AcDbSpline
 62
7
  6
CONTINUOUS
 70
0
 71
3
 72
9
 73
5
 74
0
 42
0.0000001
 43
0.0000001
 44
0.0000000001
 40
0.0
 40
0.0
 40
0.0
 40
0.0
 40
0.5013379927
 40
1.0
 40
1.0
 40
1.0
 40
1.0
 10
37.6456288058
 20
46.2248700824
 30
0.0
 10
37.5734058567
 20
46.1145477054
 30
0.0
 10
37.4446411209
 20
45.8844812256
 30
0.0
 10
37.3346802892
 20
45.6454220509
 30
0.0
 10
37.283015161
 20
45.5248700851
 30
0.0
  0
SPLINE
  5
2A6
100
AcDbEntity
  8
0
100
AcDbSpline
 62
7
  6
CONTINUOUS
 70
0
 71
3
 72
9
 73
5
 74
0
 42
0.0000001
 43
0.0000001
 44
0.0000000001
 40
0.0
 40
0.0
 40
0.0
 40
0.0
 40
0.501337991
 40
1.0
 40
1.0
 40
1.0
 40
1.0
 10
39.0204015143
 20
46.8248700824
 30
0.0
 10
39.092624463
 20
46.935192459
 30
0.0
 10
39.221389199
 20
47.1652589387
 30
0.0
 10
39.3313500306
 20
47.4043181134
 30
0.0
 10
39.383015159
 20
47.5248700797
 30
0.0
  0
SPLINE
  5
2A7
100
AcDbEntity
  8
0
100
AcDbSpline
 62
7
  6
CONTINUOUS
 70
0
 71
3
 72
9
 73
5
 74
0
 42
0.0000001
 43
0.0000001
 44
0.0000000001
 40
0.0
 40
0.0
 40
0.0
 40
0.0
 40
0.5013414049
 40
1.0
 40
1.0
 40
1.0
 40
1.0
 10
39.0204015143
 20
46.2248700824
 30
0.0
 10
39.092624226
 20
46.114548068
 30
0.0
 10
39.2213955959
 20
45.8844882621
 30
0.0
 10
39.3313480474
 20
45.6454278982
 30
0.0
 10
39.3830123013
 20
45.5248779742
 30
0.0
  0
ELLIPSE
  5
2A8
100
AcDbEntity
  8
0
100
AcDbEllipse
 62
7
  6
CONTINUOUS
 10
34.9785222832
 20
115.2393546686
 30
0.0
 11
0.2823680933
 21
0.1169606938
 31
0.0
 40
0.974242772
 41
-0.3835583005
 42
0.3835583004
  0
ELLIPSE
  5
2A9
100
AcDbEntity
  8
0
100
AcDbEllipse
 62
7
  6
CONTINUOUS
 10
34.9874769213
 20
112.4204083211
 30
0.0
 11
0.2105486542
 21
0.2105486542
 31
0.0
 40
0.98501519
 41
-2.3637433117
 42
-0.7778493419
  0
ELLIPSE
  5
2AA
100
AcDbEntity
  8
0
100
AcDbEllipse
 62
7
  6
CONTINUOUS
 10
33.2874769213
 20
106.1193318437
 30
0.0
 11
-0.2105486542
 21
0.2105486542
 31
0.0
 40
0.98501519
 41
-2.3637433117
 42
-0.7778493419
  0
ELLIPSE
  5
2AB
100
AcDbEntity
  8
0
100
AcDbEllipse
 62
7
  6
CONTINUOUS
 10
36.2012426877
 20
105.0103772056
 30
0.0
 11
-0.1169606938
 21
0.2823680933
 31
0.0
 40
0.974242772
 41
-0.3835583005
 42
0.3835583004
  0
ELLIPSE
  5
2AC
100
AcDbEntity
  8
0
100
AcDbEllipse
 62
7
  6
CONTINUOUS
 10
37.2885533987
 20
113.4204083211
 30
0.0
 11
-0.2105486542
 21
0.2105486542
 31
0.0
 40
0.98501519
 41
0.7778493419
 42
2.3637433117
  0
ELLIPSE
  5
2AD
100
AcDbEntity
  8
0
100
AcDbEllipse
 62
7
  6
CONTINUOUS
 10
37.2975080368
 20
115.0493546686
 30
0.0
 11
0.2823680933
 21
-0.1169606938
 31
0.0
 40
0.974242772
 41
2.7580343531
 42
3.5251509541
  0
ELLIPSE
  5
2AE
100
AcDbEntity
  8
0
100
AcDbEllipse
 62
7
  6
CONTINUOUS
 10
36.2012426877
 20
42.9293629592
 30
0.0
 11
0.1169606938
 21
0.2823680933
 31
0.0
 40
0.974242772
 41
-3.525150954
 42
-2.7580343531
  0
ELLIPSE
  5
2AF
100
AcDbEntity
  8
0
100
AcDbEllipse
 62
7
  6
CONTINUOUS
 10
33.2874769213
 20
41.8204083211
 30
0.0
 11
0.2105486542
 21
0.2105486542
 31
0.0
 40
0.98501519
 41
-2.3637433117
 42
-0.7778493419
  0
ELLIPSE
  5
2B0
100
AcDbEntity
  8
0
100
AcDbEllipse
 62
7
  6
CONTINUOUS
 10
30.38301516
 20
41.0848700824
 30
0.0
 11
0.2390458176
 21
-0.1834263072
 31
0.0
 40
0.9882184839
 41
-0.6487835441
 42
0.648783544
  0
ELLIPSE
  5
2B1
100
AcDbEntity
  8
0
100
AcDbEllipse
 62
7
  6
CONTINUOUS
 10
30.38301516
 20
36.2548700824
 30
0.0
 11
0.2390458176
 21
0.1834263072
 31
0.0
 40
0.9882184839
 41
-0.6487835441
 42
0.648783544
  0
ELLIPSE
  5
2B2
100
AcDbEntity
  8
0
100
AcDbEllipse
 62
7
  6
CONTINUOUS
 10
34.9874769213
 20
35.5193318437
 30
0.0
 11
-0.2105486542
 21
0.2105486542
 31
0.0
 40
0.98501519
 41
-2.3637433117
 42
-0.7778493419
  0
ELLIPSE
  5
2B3
100
AcDbEntity
  8
0
100
AcDbEllipse
 62
7
  6
CONTINUOUS
 10
34.9785222832
 20
32.6903854962
 30
0.0
 11
0.2823680933
 21
-0.1169606938
 31
0.0
 40
0.974242772
 41
-0.3835583005
 42
0.3835583005
  0
ELLIPSE
  5
2B4
100
AcDbEntity
  8
0
100
AcDbEllipse
 62
7
  6
CONTINUOUS
 10
37.2975080368
 20
32.8803854962
 30
0.0
 11
0.2823680933
 21
0.1169606938
 31
0.0
 40
0.974242772
 41
2.7580343531
 42
3.525150954
  0
ELLIPSE
  5
2B5
100
AcDbEntity
  8
0
100
AcDbEllipse
 62
7
  6
CONTINUOUS
 10
37.2885533987
 20
34.5193318437
 30
0.0
 11
0.2105486542
 21
0.2105486542
 31
0.0
 40
0.98501519
 41
0.7778493419
 42
2.3637433117
  0
ENDSEC
  0
SECTION
  2
OBJECTS
  0
DICTIONARY
  5
C
100
AcDbDictionary
280
0
281
1
  3
ACAD_GROUP
350
D
  3
ACAD_MLINESTYLE
350
17
  3
ACAD_LAYOUT
350
1A
  3
ACAD_PLOTSETTINGS
350
19
  3
ACAD_PLOTSTYLENAME
350
E
  0
DICTIONARY
  5
D
102
{ACAD_REACTORS
330
C
102
}
100
AcDbDictionary
280
0
281
1
  0
ACDBDICTIONARYWDFLT
  5
E
102
{ACAD_REACTORS
330
C
102
}
100
AcDbDictionary
281
1
  3
Normal
350
F
100
AcDbDictionaryWithDefault
340
F
  0
DICTIONARY
  5
17
102
{ACAD_REACTORS
330
C
102
}
100
AcDbDictionary
280
0
281
1
  3
Standard
350
18
  0
DICTIONARY
  5
19
102
{ACAD_REACTORS
330
C
102
}
100
AcDbDictionary
281
1
  0
DICTIONARY
  5
1A
102
{ACAD_REACTORS
330
C
102
}
100
AcDbDictionary
281
1
  3
Model
350
2B6
  3
Layout1
350
2B7
  0
ACDBPLACEHOLDER
  5
F
102
{ACAD_REACTORS
330
E
102
}
  0
MLINESTYLE
  5
18
102
{ACAD_REACTORS
330
17
102
}
100
AcDbMlineStyle
  2
STANDARD
 70
0
  3

 62
256
 51
90.0
 52
90.0
 71
2
 49
0.5
 62
256
  6
BYLAYER
 49
-0.5
 62
256
  6
BYLAYER
  0
LAYOUT
  5
2B6
102
{ACAD_REACTORS
330
1A
102
}
100
AcDbPlotSettings
  1

  2
none_device
  4

  6

 40
0.0
 41
0.0
 42
0.0
 43
0.0
 44
210.0
 45
297.0
 46
0.0
 47
0.0
 48
0.0
 49
0.0
140
0.0
141
0.0
142
1.0
143
1.0
 70
1024
 72
1
 73
0
 74
0
  7

 75
0
147
1.0
148
0.0
149
0.0
100
AcDbLayout
  1
Model
 70
0
 71
0
 10
0.0
 20
0.0
 11
210.0
 21
297.0
 12
0.0
 22
0.0
 32
0.0
 14
0.0
 24
0.0
 34
0.0
 15
0.0
 25
0.0
 35
0.0
146
0.0
 13
0.0
 23
0.0
 33
0.0
 16
1.0
 26
0.0
 36
0.0
 17
0.0
 27
1.0
 37
0.0
 76
0
330
211
345
0
346
0
  0
LAYOUT
  5
2B7
102
{ACAD_REACTORS
330
1A
102
}
100
AcDbPlotSettings
  1

  2
none_device
  4

  6

 40
0.0
 41
0.0
 42
0.0
 43
0.0
 44
210.0
 45
297.0
 46
0.0
 47
0.0
 48
0.0
 49
0.0
140
0.0
141
0.0
142
1.0
143
1.0
 70
0
 72
1
 73
0
 74
0
  7

 75
0
147
1.0
148
0.0
149
0.0
100
AcDbLayout
  1
Layout1
 70
0
 71
1
 10
0.0
 20
0.0
 11
210.0
 21
297.0
 12
0.0
 22
0.0
 32
0.0
 14
0.0
 24
0.0
 34
0.0
 15
0.0
 25
0.0
 35
0.0
146
0.0
 13
0.0
 23
0.0
 33
0.0
 16
1.0
 26
0.0
 36
0.0
 17
0.0
 27
1.0
 37
0.0
 76
0
330
212
345
0
346
0
  0
ENDSEC
  0
EOF
