999
DXF file: C:\Users\sesa63760\Dev\_Creo\CAD\MCADID0004256_3D-CAD\drw0001_2.dxf
999
Pro/ENGINEER 2019471 by Parametric Technology Corporation
  0
SECTION
  2
HEADER
  9
$ACADVER
  1
AC1024
  9
$DWGCODEPAGE
  3
ANSI_1252
  9
$EXTMAX
 10
566.3497722322
 20
800.9803921569
 30
0.0
  9
$EXTMIN
 10
0.0
 20
0.0
 30
0.0
  9
$LIMMIN
 10
0.0
 20
0.0
  9
$LIMMAX
 10
566.3497722322
 20
800.9803921569
  9
$VIEWCTR
 10
283.1748861161
 20
400.4901960785
  9
$VIEWSIZE
 40
800.9803921569
  9
$CLAYER
  8
0
  9
$LTSCALE
 40
52.2120551924
  9
$CELTYPE
  6
BYLAYER
  9
$DIMSCALE
 40
1.0
  9
$DIMASZ
 40
6.7422591932
  9
$DIMEXO
 40
1.0
  9
$DIMDLI
 40
36.0737835875
  9
$DIMEXE
 40
1.0
  9
$DIMCEN
 40
8.5437908497
  9
$DIMLFAC
 40
1.0
  9
$DIMBLK
  1
_FILLED
  9
$DIMALT
 70
0
  9
$DIMALTF
 40
0.0393700787
  9
$DIMTXT
 40
9.4391628705
  9
$DIMTOL
 70
1
  9
$DIMLIM
 70
0
  9
$DIMTFAC
 40
1.0
  9
$DIMTP
 40
0.01
  9
$DIMTM
 40
0.01
  9
$DIMGAP
 40
0.625
  9
$DIMDSEP
 70
46
  9
$AUNITS
 70
0
  9
$PDMODE
 70
3
  9
$PDSIZE
 40
0.3125
  9
$HANDSEED
  5
4D2
  9
$TILEMODE
 70
1
  9
$MEASUREMENT
 70
1
  9
$INSUNITS
 70
4
  0
ENDSEC
  0
SECTION
  2
CLASSES
  0
CLASS
  1
ACDBDICTIONARYWDFLT
  2
AcDbDictionaryWithDefault
  3
AutoCAD 2000
 90
0
 91
1
280
0
281
0
  0
CLASS
  1
ACDBPLACEHOLDER
  2
AcDbPlaceHolder
  3
AutoCAD 2000
 90
0
 91
1
280
0
281
0
  0
CLASS
  1
LAYOUT
  2
AcDbLayout
  3
AutoCAD 2000
 90
0
 91
0
280
0
281
0
  0
ENDSEC
  0
SECTION
  2
TABLES
  0
TABLE
  2
VPORT
  5
8
100
AcDbSymbolTable
 70
2
  0
VPORT
  5
1F4
100
AcDbSymbolTableRecord
100
AcDbViewportTableRecord
  2
*ACTIVE
 70
0
 10
0.0
 20
0.0
 11
1.0
 21
1.0
 12
283.1748861161
 22
400.4901960785
 13
0.0
 23
0.0
 14
1.0
 24
1.0
 15
0.0
 25
0.0
 16
0.0
 26
0.0
 36
1.0
 17
0.0
 27
0.0
 37
0.0
 40
800.9803921569
 41
0.7070707071
 42
50.0
 43
0.0
 44
0.0
 50
0.0
 51
0.0
 71
0
 72
100
 73
1
 74
1
 75
0
 76
0
 77
0
 78
0
  0
ENDTAB
  0
TABLE
  2
LTYPE
  5
5
100
AcDbSymbolTable
 70
6
  0
LTYPE
  5
14
100
AcDbSymbolTableRecord
100
AcDbLinetypeTableRecord
  2
BYBLOCK
 70
0
  3

 72
65
 73
0
 40
0.0
  0
LTYPE
  5
15
100
AcDbSymbolTableRecord
100
AcDbLinetypeTableRecord
  2
BYLAYER
 70
0
  3

 72
65
 73
0
 40
0.0
  0
LTYPE
  5
16
100
AcDbSymbolTableRecord
100
AcDbLinetypeTableRecord
  2
CONTINUOUS
 70
64
  3
Solid line
 72
65
 73
0
 40
0.0
  0
LTYPE
  5
1F5
100
AcDbSymbolTableRecord
100
AcDbLinetypeTableRecord
  2
CENTER
 70
64
  3
____ _ ____ _ ____ _ ____ _ ____ _ ____ _ ____
 72
65
 73
4
 40
0.6
 49
0.375
 74
0
 49
-0.075
 74
0
 49
0.075
 74
0
 49
-0.075
 74
0
  0
LTYPE
  5
1F6
100
AcDbSymbolTableRecord
100
AcDbLinetypeTableRecord
  2
HIDDEN
 70
64
  3
- - - - - - - - - - - - - - - - - - - -
 72
65
 73
2
 40
0.2
 49
0.1
 74
0
 49
-0.1
 74
0
  0
LTYPE
  5
1F7
100
AcDbSymbolTableRecord
100
AcDbLinetypeTableRecord
  2
PHANTOM
 70
64
  3
_____ _ _ _____ _ _ _____ _ _ _____
 72
65
 73
6
 40
0.8
 49
0.45
 74
0
 49
-0.05
 74
0
 49
0.1
 74
0
 49
-0.05
 74
0
 49
0.1
 74
0
 49
-0.05
 74
0
  0
LTYPE
  5
1F8
100
AcDbSymbolTableRecord
100
AcDbLinetypeTableRecord
  2
DOT
 70
64
  3
. . . . . . . . . . . . . . . . . . . .
 72
65
 73
2
 40
0.2
 49
0.1
 74
0
 49
-0.1
 74
0
  0
LTYPE
  5
1F9
100
AcDbSymbolTableRecord
100
AcDbLinetypeTableRecord
  2
DASHED
 70
64
  3
- - - - - - - - - - - - - - - - - - - -
 72
65
 73
2
 40
0.2
 49
0.1
 74
0
 49
-0.1
 74
0
  0
ENDTAB
  0
TABLE
  2
LAYER
  5
2
100
AcDbSymbolTable
 70
36
  0
LAYER
  5
10
100
AcDbSymbolTableRecord
100
AcDbLayerTableRecord
  2
0
 70
0
 62
7
  6
CONTINUOUS
370
-3
390
F
  0
LAYER
  5
1FA
100
AcDbSymbolTableRecord
100
AcDbLayerTableRecord
  2
DEFAULT_1
 70
0
 62
7
  6
CENTER
370
-3
390
F
  0
LAYER
  5
1FB
100
AcDbSymbolTableRecord
100
AcDbLayerTableRecord
  2
DEFAULT_2
 70
0
 62
7
  6
HIDDEN
370
-3
390
F
  0
LAYER
  5
1FC
100
AcDbSymbolTableRecord
100
AcDbLayerTableRecord
  2
DEFAULT_3
 70
0
 62
7
  6
PHANTOM
370
-3
390
F
  0
LAYER
  5
1FD
100
AcDbSymbolTableRecord
100
AcDbLayerTableRecord
  2
00_COMPONENTS
 70
0
 62
7
  6
CONTINUOUS
370
-3
390
F
  0
LAYER
  5
1FE
100
AcDbSymbolTableRecord
100
AcDbLayerTableRecord
  2
01_1_DEFAULT_DATUMS
 70
0
 62
7
  6
CONTINUOUS
370
-3
390
F
  0
LAYER
  5
1FF
100
AcDbSymbolTableRecord
100
AcDbLayerTableRecord
  2
01_PLANES
 70
0
 62
7
  6
CONTINUOUS
370
-3
390
F
  0
LAYER
  5
200
100
AcDbSymbolTableRecord
100
AcDbLayerTableRecord
  2
02_COORD_SYS
 70
0
 62
7
  6
CONTINUOUS
370
-3
390
F
  0
LAYER
  5
201
100
AcDbSymbolTableRecord
100
AcDbLayerTableRecord
  2
03_AXES
 70
0
 62
7
  6
CONTINUOUS
370
-3
390
F
  0
LAYER
  5
202
100
AcDbSymbolTableRecord
100
AcDbLayerTableRecord
  2
04_POINTS
 70
0
 62
7
  6
CONTINUOUS
370
-3
390
F
  0
LAYER
  5
203
100
AcDbSymbolTableRecord
100
AcDbLayerTableRecord
  2
05_CURVES
 70
0
 62
7
  6
CONTINUOUS
370
-3
390
F
  0
LAYER
  5
204
100
AcDbSymbolTableRecord
100
AcDbLayerTableRecord
  2
06_SURFS
 70
0
 62
7
  6
CONTINUOUS
370
-3
390
F
  0
LAYER
  5
205
100
AcDbSymbolTableRecord
100
AcDbLayerTableRecord
  2
07_COSMETICS
 70
0
 62
7
  6
CONTINUOUS
370
-3
390
F
  0
LAYER
  5
206
100
AcDbSymbolTableRecord
100
AcDbLayerTableRecord
  2
10_NOTES
 70
0
 62
7
  6
CONTINUOUS
370
-3
390
F
  0
LAYER
  5
207
100
AcDbSymbolTableRecord
100
AcDbLayerTableRecord
  2
11_NOTES_PUB
 70
0
 62
7
  6
CONTINUOUS
370
-3
390
F
  0
LAYER
  5
208
100
AcDbSymbolTableRecord
100
AcDbLayerTableRecord
  2
13_REF_GTOL
 70
0
 62
7
  6
CONTINUOUS
370
-3
390
F
  0
LAYER
  5
209
100
AcDbSymbolTableRecord
100
AcDbLayerTableRecord
  2
16_MISC
 70
0
 62
7
  6
CONTINUOUS
370
-3
390
F
  0
LAYER
  5
20A
100
AcDbSymbolTableRecord
100
AcDbLayerTableRecord
  2
17_NO_PRINT
 70
0
 62
7
  6
CONTINUOUS
370
-3
390
F
  0
LAYER
  5
20B
100
AcDbSymbolTableRecord
100
AcDbLayerTableRecord
  2
18_DATUM_CAMS_JOINTS
 70
0
 62
7
  6
CONTINUOUS
370
-3
390
F
  0
LAYER
  5
20C
100
AcDbSymbolTableRecord
100
AcDbLayerTableRecord
  2
19_DATUM_FUNCTIONAL
 70
0
 62
7
  6
CONTINUOUS
370
-3
390
F
  0
LAYER
  5
20D
100
AcDbSymbolTableRecord
100
AcDbLayerTableRecord
  2
20_DATUM_KINEMATIC_SCHEME
 70
0
 62
7
  6
CONTINUOUS
370
-3
390
F
  0
ENDTAB
  0
TABLE
  2
STYLE
  5
3
100
AcDbSymbolTable
 70
1
  0
STYLE
  5
11
100
AcDbSymbolTableRecord
100
AcDbTextStyleTableRecord
  2
STANDARD
 70
0
 40
0.0
 41
1.0
 50
0.0
 71
0
 42
0.2
  3
ARIAL.TTF
  4

  0
STYLE
  5
20E
100
AcDbSymbolTableRecord
100
AcDbTextStyleTableRecord
  2
TEXTSTYLE_1
 70
0
 40
0.0
 41
0.8
 50
0.0
 71
0
 42
0.2
  3
gdt
  4

  0
ENDTAB
  0
TABLE
  2
VIEW
  5
6
100
AcDbSymbolTable
 70
0
  0
ENDTAB
  0
TABLE
  2
UCS
  5
7
100
AcDbSymbolTable
 70
0
  0
ENDTAB
  0
TABLE
  2
APPID
  5
9
100
AcDbSymbolTable
 70
1
  0
APPID
  5
20F
100
AcDbSymbolTableRecord
100
AcDbRegAppTableRecord
  2
ACAD
 70
0
  0
ENDTAB
  0
TABLE
  2
BLOCK_RECORD
  5
1
100
AcDbSymbolTable
 70
0
  0
BLOCK_RECORD
  5
210
100
AcDbSymbolTableRecord
100
AcDbBlockTableRecord
  2
*Model_Space
  0
BLOCK_RECORD
  5
211
100
AcDbSymbolTableRecord
100
AcDbBlockTableRecord
  2
*Paper_Space
  0
BLOCK_RECORD
  5
212
100
AcDbSymbolTableRecord
100
AcDbBlockTableRecord
  2
_FILLED
  0
ENDTAB
  0
TABLE
  2
DIMSTYLE
  5
A
100
AcDbSymbolTable
 70
1
100
AcDbDimStyleTable
 71
0
  0
DIMSTYLE
105
213
100
AcDbSymbolTableRecord
100
AcDbDimStyleTableRecord
  2
STANDARD
 70
0
  3

  4

 40
1.0
 41
6.7422591932
 42
1.0
 43
0.38
 44
1.0
 45
0.0
 46
0.0
 47
0.01
 48
0.01
140
9.4391628705
141
0.09
142
0.0
143
25.4
144
1.0
145
0.0
146
1.0
147
0.625
 71
1
 72
0
 73
0
 74
0
 75
0
 76
0
 77
1
 78
8
 79
2
170
0
171
1
172
0
173
0
174
0
175
0
176
0
177
0
178
0
270
2
179
2
271
2
272
2
273
2
274
2
275
0
280
0
281
0
282
0
283
1
284
8
285
0
286
0
287
3
288
0
340
11
278
46
341
212
342
212
343
212
344
212
  0
ENDTAB
  0
ENDSEC
  0
SECTION
  2
BLOCKS
  0
BLOCK
  5
20
100
AcDbEntity
  8
0
100
AcDbBlockBegin
  2
*Model_Space
 70
0
 10
0.0
 20
0.0
 30
0.0
  3
*Model_Space
  1

  0
ENDBLK
  5
21
100
AcDbEntity
  8
0
100
AcDbBlockEnd
  0
BLOCK
  5
1C
100
AcDbEntity
  8
0
100
AcDbBlockBegin
  2
*Paper_Space
 70
0
 10
0.0
 20
0.0
 30
0.0
  3
*Paper_Space
  1

  0
ENDBLK
  5
1D
100
AcDbEntity
  8
0
100
AcDbBlockEnd
  0
BLOCK
  5
214
100
AcDbEntity
  8
0
100
AcDbBlockBegin
  2
_FILLED
 70
64
 10
0.0
 20
0.0
  3
_FILLED
  1

  0
SOLID
  5
215
100
AcDbEntity
  8
0
  6
BYBLOCK
 62
0
100
AcDbTrace
 10
0.0
 20
0.0
 11
-1.0
 21
0.25
 12
-1.0
 22
-0.25
 13
-1.0
 23
-0.25
  0
ENDBLK
  5
216
100
AcDbEntity
  8
0
  6
BYBLOCK
 62
0
100
AcDbBlockEnd
  0
ENDSEC
  0
SECTION
  2
ENTITIES
  0
LINE
  5
217
100
AcDbEntity
  8
0
100
AcDbLine
 62
7
  6
BYLAYER
 10
62.5964547436
 20
579.9400154029
 11
62.0964547436
 21
579.4400154029
  0
LINE
  5
218
100
AcDbEntity
  8
0
100
AcDbLine
 62
7
  6
BYLAYER
 10
92.3317310342
 20
543.2978858844
 11
92.5007789754
 21
543.6604103644
  0
LINE
  5
219
100
AcDbEntity
  8
0
100
AcDbLine
 62
7
  6
BYLAYER
 10
92.917055536
 20
543.4662974163
 11
92.7480075948
 21
543.1037729363
  0
LINE
  5
21A
100
AcDbEntity
  8
0
100
AcDbLine
 62
7
  6
BYLAYER
 10
91.8980081904
 20
521.9947633913
 11
91.6788303241
 21
521.6601580912
  0
LINE
  5
21B
100
AcDbEntity
  8
0
100
AcDbLine
 62
7
  6
BYLAYER
 10
92.5231348039
 20
266.2225636421
 11
92.3540867452
 21
266.5850883739
  0
LINE
  5
21C
100
AcDbEntity
  8
0
100
AcDbLine
 62
7
  6
BYLAYER
 10
92.7703634297
 20
266.7792013798
 11
92.9394114884
 21
266.416676648
  0
LINE
  5
21D
100
AcDbEntity
  8
0
100
AcDbLine
 62
7
  6
BYLAYER
 10
62.0964547436
 20
579.4400154029
 11
62.0964547435
 21
219.9400154029
  0
LINE
  5
21E
100
AcDbEntity
  8
0
100
AcDbLine
 62
7
  6
BYLAYER
 10
65.5964547435
 20
219.9400154029
 11
65.5964547436
 21
579.9400154029
  0
LINE
  5
21F
100
AcDbEntity
  8
0
100
AcDbLine
 62
7
  6
BYLAYER
 10
76.0964547435
 20
219.9400154029
 11
76.0964547435
 21
218.4400154029
  0
LINE
  5
220
100
AcDbEntity
  8
0
100
AcDbLine
 62
7
  6
BYLAYER
 10
92.7480081781
 20
516.7791996541
 11
92.8724120602
 21
516.8952206524
  0
LINE
  5
221
100
AcDbEntity
  8
0
100
AcDbLine
 62
7
  6
BYLAYER
 10
92.894774348
 20
292.9877473358
 11
92.7703640066
 21
293.1037743488
  0
LINE
  5
222
100
AcDbEntity
  8
0
100
AcDbLine
 62
7
  6
BYLAYER
 10
91.7011859248
 20
288.2228157661
 11
91.9203637538
 21
287.888210462
  0
LINE
  5
223
100
AcDbEntity
  8
0
100
AcDbLine
 62
7
  6
BYLAYER
 10
81.5964547435
 20
576.9400154029
 11
81.5964547435
 21
219.9400154029
  0
LINE
  5
224
100
AcDbEntity
  8
0
100
AcDbLine
 62
7
  6
BYLAYER
 10
82.0964547436
 20
579.9400154029
 11
82.0964547436
 21
576.9400154029
  0
LINE
  5
225
100
AcDbEntity
  8
0
100
AcDbLine
 62
7
  6
BYLAYER
 10
83.0964547435
 20
219.9400154029
 11
83.0964547436
 21
579.4400154029
  0
LINE
  5
226
100
AcDbEntity
  8
0
100
AcDbLine
 62
7
  6
BYLAYER
 10
83.5964547435
 20
229.9400079119
 11
83.5964547435
 21
226.9400154029
  0
LINE
  5
227
100
AcDbEntity
  8
0
100
AcDbLine
 62
7
  6
BYLAYER
 10
83.5964547436
 20
573.9400154029
 11
83.5964547436
 21
579.9400154029
  0
LINE
  5
228
100
AcDbEntity
  8
0
100
AcDbLine
 62
7
  6
BYLAYER
 10
83.9911915856
 20
231.540057813
 11
83.9911915856
 21
235.7505841288
  0
LINE
  5
229
100
AcDbEntity
  8
0
100
AcDbLine
 62
7
  6
BYLAYER
 10
86.0964547435
 20
218.4400154029
 11
86.0964547435
 21
219.9400154029
  0
LINE
  5
22A
100
AcDbEntity
  8
0
100
AcDbLine
 62
7
  6
BYLAYER
 10
86.0964547435
 20
235.7505841288
 11
86.0964547435
 21
237.7505841288
  0
LINE
  5
22B
100
AcDbEntity
  8
0
100
AcDbLine
 62
7
  6
BYLAYER
 10
86.2480081781
 20
543.9057718252
 11
86.2480081781
 21
540.9414870032
  0
LINE
  5
22C
100
AcDbEntity
  8
0
100
AcDbLine
 62
7
  6
BYLAYER
 10
86.2480081781
 20
518.9414870032
 11
86.2480081781
 21
515.9772021783
  0
LINE
  5
22D
100
AcDbEntity
  8
0
100
AcDbLine
 62
7
  6
BYLAYER
 10
86.2703640066
 20
293.9057718252
 11
86.2703640066
 21
290.9414870032
  0
LINE
  5
22E
100
AcDbEntity
  8
0
100
AcDbLine
 62
7
  6
BYLAYER
 10
86.2703640066
 20
268.9414870032
 11
86.2703640066
 21
265.9772021783
  0
LINE
  5
22F
100
AcDbEntity
  8
0
100
AcDbLine
 62
7
  6
BYLAYER
 10
86.6480081781
 20
543.5105368095
 11
86.6480081781
 21
540.9414870033
  0
LINE
  5
230
100
AcDbEntity
  8
0
100
AcDbLine
 62
7
  6
BYLAYER
 10
86.6480081781
 20
518.9414870031
 11
86.6480081781
 21
516.3724376133
  0
LINE
  5
231
100
AcDbEntity
  8
0
100
AcDbLine
 62
7
  6
BYLAYER
 10
86.6703640066
 20
293.5105368095
 11
86.6703640066
 21
290.9414870033
  0
LINE
  5
232
100
AcDbEntity
  8
0
100
AcDbLine
 62
7
  6
BYLAYER
 10
86.6703640066
 20
268.9414870031
 11
86.6703640066
 21
266.3724376133
  0
LINE
  5
233
100
AcDbEntity
  8
0
100
AcDbLine
 62
7
  6
BYLAYER
 10
86.7464547435
 20
573.9400154029
 11
86.7464547435
 21
543.9414870032
  0
LINE
  5
234
100
AcDbEntity
  8
0
100
AcDbLine
 62
7
  6
BYLAYER
 10
86.7464547435
 20
515.9414870032
 11
86.7464547435
 21
293.9414870032
  0
LINE
  5
235
100
AcDbEntity
  8
0
100
AcDbLine
 62
7
  6
BYLAYER
 10
86.7464547435
 20
265.9414870032
 11
86.7464547435
 21
235.7505841288
  0
LINE
  5
236
100
AcDbEntity
  8
0
100
AcDbLine
 62
7
  6
BYLAYER
 10
86.7464547435
 20
229.9400079119
 11
86.7464547435
 21
226.9400154029
  0
LINE
  5
237
100
AcDbEntity
  8
0
100
AcDbLine
 62
7
  6
BYLAYER
 10
86.8859284277
 20
231.540057813
 11
86.8859284277
 21
235.7505841288
  0
LINE
  5
238
100
AcDbEntity
  8
0
100
AcDbLine
 62
7
  6
BYLAYER
 10
87.0480081781
 20
515.9414870032
 11
87.0480081781
 21
518.9414834159
  0
LINE
  5
239
100
AcDbEntity
  8
0
100
AcDbLine
 62
7
  6
BYLAYER
 10
87.0480081781
 20
540.9414908715
 11
87.0480081781
 21
543.9414870032
  0
LINE
  5
23A
100
AcDbEntity
  8
0
100
AcDbLine
 62
7
  6
BYLAYER
 10
87.0703640066
 20
265.9414870032
 11
87.0703640066
 21
268.9414834159
  0
LINE
  5
23B
100
AcDbEntity
  8
0
100
AcDbLine
 62
7
  6
BYLAYER
 10
87.0703640066
 20
290.9414908715
 11
87.0703640066
 21
293.9414870032
  0
LINE
  5
23C
100
AcDbEntity
  8
0
100
AcDbLine
 62
7
  6
BYLAYER
 10
87.0964547435
 20
229.9400079119
 11
87.0964547435
 21
231.5400079119
  0
LINE
  5
23D
100
AcDbEntity
  8
0
100
AcDbLine
 62
7
  6
BYLAYER
 10
87.2464547435
 20
226.9400154029
 11
87.2464547435
 21
265.9414870032
  0
LINE
  5
23E
100
AcDbEntity
  8
0
100
AcDbLine
 62
7
  6
BYLAYER
 10
87.2464547435
 20
293.9414870032
 11
87.2464547435
 21
515.9414870032
  0
LINE
  5
23F
100
AcDbEntity
  8
0
100
AcDbLine
 62
7
  6
BYLAYER
 10
87.2464547435
 20
543.9414870032
 11
87.2464547435
 21
573.9400154029
  0
LINE
  5
240
100
AcDbEntity
  8
0
100
AcDbLine
 62
7
  6
BYLAYER
 10
88.4907762799
 20
540.9774077497
 11
88.4907762799
 21
540.905566257
  0
LINE
  5
241
100
AcDbEntity
  8
0
100
AcDbLine
 62
7
  6
BYLAYER
 10
88.4907762799
 20
518.9774077496
 11
88.4907762799
 21
518.905566257
  0
LINE
  5
242
100
AcDbEntity
  8
0
100
AcDbLine
 62
7
  6
BYLAYER
 10
88.5131321084
 20
290.9774077497
 11
88.5131321084
 21
290.905566257
  0
LINE
  5
243
100
AcDbEntity
  8
0
100
AcDbLine
 62
7
  6
BYLAYER
 10
88.5131321084
 20
268.9774077496
 11
88.5131321084
 21
268.905566257
  0
LINE
  5
244
100
AcDbEntity
  8
0
100
AcDbLine
 62
7
  6
BYLAYER
 10
88.9751344
 20
579.9400154029
 11
88.9751344
 21
573.9400154029
  0
LINE
  5
245
100
AcDbEntity
  8
0
100
AcDbLine
 62
7
  6
BYLAYER
 10
89.5964547435
 20
219.9400154029
 11
89.5964547435
 21
226.9400154029
  0
LINE
  5
246
100
AcDbEntity
  8
0
100
AcDbLine
 62
7
  6
BYLAYER
 10
89.6120874318
 20
542.1288960369
 11
89.6120874318
 21
541.6440744163
  0
LINE
  5
247
100
AcDbEntity
  8
0
100
AcDbLine
 62
7
  6
BYLAYER
 10
89.6120874318
 20
540.2388995904
 11
89.6120874318
 21
539.7540779698
  0
LINE
  5
248
100
AcDbEntity
  8
0
100
AcDbLine
 62
7
  6
BYLAYER
 10
89.6120874318
 20
520.1288960368
 11
89.6120874318
 21
519.6440744163
  0
LINE
  5
249
100
AcDbEntity
  8
0
100
AcDbLine
 62
7
  6
BYLAYER
 10
89.6120874318
 20
518.2388995903
 11
89.6120874318
 21
517.7540779698
  0
LINE
  5
24A
100
AcDbEntity
  8
0
100
AcDbLine
 62
7
  6
BYLAYER
 10
89.6344432603
 20
292.1288960369
 11
89.6344432603
 21
291.6440744163
  0
LINE
  5
24B
100
AcDbEntity
  8
0
100
AcDbLine
 62
7
  6
BYLAYER
 10
89.6344432603
 20
290.2388995904
 11
89.6344432603
 21
289.7540779698
  0
LINE
  5
24C
100
AcDbEntity
  8
0
100
AcDbLine
 62
7
  6
BYLAYER
 10
89.6344432603
 20
270.1288960368
 11
89.6344432603
 21
269.6440744163
  0
LINE
  5
24D
100
AcDbEntity
  8
0
100
AcDbLine
 62
7
  6
BYLAYER
 10
89.6344432603
 20
268.2388995903
 11
89.6344432603
 21
267.7540779698
  0
LINE
  5
24E
100
AcDbEntity
  8
0
100
AcDbLine
 62
7
  6
BYLAYER
 10
90.0357945718
 20
573.9400154029
 11
90.0357945718
 21
579.4400154029
  0
LINE
  5
24F
100
AcDbEntity
  8
0
100
AcDbLine
 62
7
  6
BYLAYER
 10
90.1839289245
 20
517.7540779698
 11
90.1839289245
 21
518.2388995903
  0
LINE
  5
250
100
AcDbEntity
  8
0
100
AcDbLine
 62
7
  6
BYLAYER
 10
90.1839289245
 20
519.6440744163
 11
90.1839289245
 21
520.1288960368
  0
LINE
  5
251
100
AcDbEntity
  8
0
100
AcDbLine
 62
7
  6
BYLAYER
 10
90.1839289244
 20
539.7540779698
 11
90.1839289244
 21
540.2388995904
  0
LINE
  5
252
100
AcDbEntity
  8
0
100
AcDbLine
 62
7
  6
BYLAYER
 10
90.1839289244
 20
541.6440744163
 11
90.1839289244
 21
542.1288960369
  0
LINE
  5
253
100
AcDbEntity
  8
0
100
AcDbLine
 62
7
  6
BYLAYER
 10
90.2062847529
 20
267.7540779698
 11
90.2062847529
 21
268.2388995903
  0
LINE
  5
254
100
AcDbEntity
  8
0
100
AcDbLine
 62
7
  6
BYLAYER
 10
90.2062847529
 20
269.6440744163
 11
90.2062847529
 21
270.1288960368
  0
LINE
  5
255
100
AcDbEntity
  8
0
100
AcDbLine
 62
7
  6
BYLAYER
 10
90.2062847529
 20
289.7540779698
 11
90.2062847529
 21
290.2388995904
  0
LINE
  5
256
100
AcDbEntity
  8
0
100
AcDbLine
 62
7
  6
BYLAYER
 10
90.2062847529
 20
291.6440744163
 11
90.2062847529
 21
292.1288960369
  0
LINE
  5
257
100
AcDbEntity
  8
0
100
AcDbLine
 62
7
  6
BYLAYER
 10
91.2329241902
 20
543.9414870032
 11
91.2329241902
 21
543.5414870032
  0
LINE
  5
258
100
AcDbEntity
  8
0
100
AcDbLine
 62
7
  6
BYLAYER
 10
91.2329241902
 20
516.3414870032
 11
91.2329241902
 21
515.9414870032
  0
LINE
  5
259
100
AcDbEntity
  8
0
100
AcDbLine
 62
7
  6
BYLAYER
 10
91.2552800187
 20
293.9414870032
 11
91.2552800187
 21
293.5414870032
  0
LINE
  5
25A
100
AcDbEntity
  8
0
100
AcDbLine
 62
7
  6
BYLAYER
 10
91.2552800187
 20
266.3414870032
 11
91.2552800187
 21
265.9414870032
  0
LINE
  5
25B
100
AcDbEntity
  8
0
100
AcDbLine
 62
7
  6
BYLAYER
 10
91.3655943469
 20
518.905566257
 11
91.3655943469
 21
518.9774077496
  0
LINE
  5
25C
100
AcDbEntity
  8
0
100
AcDbLine
 62
7
  6
BYLAYER
 10
91.3655943469
 20
540.905566257
 11
91.3655943469
 21
540.9774077497
  0
LINE
  5
25D
100
AcDbEntity
  8
0
100
AcDbLine
 62
7
  6
BYLAYER
 10
91.3879501754
 20
268.905566257
 11
91.3879501754
 21
268.9774077496
  0
LINE
  5
25E
100
AcDbEntity
  8
0
100
AcDbLine
 62
7
  6
BYLAYER
 10
91.3879501754
 20
290.905566257
 11
91.3879501754
 21
290.9774077497
  0
LINE
  5
25F
100
AcDbEntity
  8
0
100
AcDbLine
 62
7
  6
BYLAYER
 10
91.897974862
 20
521.9947826808
 11
91.8979758586
 21
537.8881856292
  0
LINE
  5
260
100
AcDbEntity
  8
0
100
AcDbLine
 62
7
  6
BYLAYER
 10
91.9203306905
 20
271.9947826808
 11
91.920331687
 21
287.8881856292
  0
LINE
  5
261
100
AcDbEntity
  8
0
100
AcDbLine
 62
7
  6
BYLAYER
 10
92.7480153677
 20
543.1037676498
 11
92.7480081782
 21
540.9414905907
  0
LINE
  5
262
100
AcDbEntity
  8
0
100
AcDbLine
 62
7
  6
BYLAYER
 10
92.7480081782
 20
518.9414831349
 11
92.7480166931
 21
516.7792075879
  0
LINE
  5
263
100
AcDbEntity
  8
0
100
AcDbLine
 62
7
  6
BYLAYER
 10
92.7703640066
 20
268.9414831349
 11
92.7703725216
 21
266.7792075879
  0
LINE
  5
264
100
AcDbEntity
  8
0
100
AcDbLine
 62
7
  6
BYLAYER
 10
92.7703711961
 20
293.1037676498
 11
92.7703640066
 21
290.9414905907
  0
LINE
  5
265
100
AcDbEntity
  8
0
100
AcDbLine
 62
7
  6
BYLAYER
 10
93.1480081781
 20
517.2824802187
 11
93.1480081781
 21
518.9414056322
  0
LINE
  5
266
100
AcDbEntity
  8
0
100
AcDbLine
 62
7
  6
BYLAYER
 10
93.1480081781
 20
540.9414940151
 11
93.1480081781
 21
542.6004958274
  0
LINE
  5
267
100
AcDbEntity
  8
0
100
AcDbLine
 62
7
  6
BYLAYER
 10
93.1703640066
 20
267.2824802187
 11
93.1703640066
 21
268.9414056322
  0
LINE
  5
268
100
AcDbEntity
  8
0
100
AcDbLine
 62
7
  6
BYLAYER
 10
93.1703640066
 20
290.9414940151
 11
93.1703640066
 21
292.6004958274
  0
LINE
  5
269
100
AcDbEntity
  8
0
100
AcDbLine
 62
7
  6
BYLAYER
 10
93.801854332
 20
516.9794341332
 11
93.801854332
 21
518.8937741041
  0
LINE
  5
26A
100
AcDbEntity
  8
0
100
AcDbLine
 62
7
  6
BYLAYER
 10
93.801854332
 20
540.9891998854
 11
93.801854332
 21
542.9036298964
  0
LINE
  5
26B
100
AcDbEntity
  8
0
100
AcDbLine
 62
7
  6
BYLAYER
 10
93.8242101605
 20
266.9794341332
 11
93.8242101605
 21
268.8937741041
  0
LINE
  5
26C
100
AcDbEntity
  8
0
100
AcDbLine
 62
7
  6
BYLAYER
 10
93.8242101605
 20
290.9891998854
 11
93.8242101605
 21
292.9036298964
  0
LINE
  5
26D
100
AcDbEntity
  8
0
100
AcDbLine
 62
7
  6
BYLAYER
 10
94.5964547435
 20
573.9400154029
 11
94.5964547435
 21
541.9139343573
  0
LINE
  5
26E
100
AcDbEntity
  8
0
100
AcDbLine
 62
7
  6
BYLAYER
 10
94.5964547435
 20
517.9690388254
 11
94.5964547435
 21
291.9581921605
  0
LINE
  5
26F
100
AcDbEntity
  8
0
100
AcDbLine
 62
7
  6
BYLAYER
 10
94.5964547435
 20
267.9247836039
 11
94.5964547435
 21
226.9400154029
  0
LINE
  5
270
100
AcDbEntity
  8
0
100
AcDbLine
 62
7
  6
BYLAYER
 10
94.8980081781
 20
519.2516207602
 11
94.8980081781
 21
540.6313532462
  0
LINE
  5
271
100
AcDbEntity
  8
0
100
AcDbLine
 62
7
  6
BYLAYER
 10
94.9203640066
 20
269.2516207602
 11
94.9203640066
 21
290.6313532462
  0
LINE
  5
272
100
AcDbEntity
  8
0
100
AcDbLine
 62
7
  6
BYLAYER
 10
95.0964547435
 20
226.9400154029
 11
95.0964547435
 21
573.9400154029
  0
LINE
  5
273
100
AcDbEntity
  8
0
100
AcDbLine
 62
7
  6
BYLAYER
 10
96.0964547435
 20
573.9400154029
 11
96.0964547435
 21
226.9400154029
  0
LINE
  5
274
100
AcDbEntity
  8
0
100
AcDbLine
 62
7
  6
BYLAYER
 10
96.5964547435
 20
573.9400154029
 11
96.5964547435
 21
226.9400154029
  0
LINE
  5
275
100
AcDbEntity
  8
0
100
AcDbLine
 62
7
  6
BYLAYER
 10
97.0964547435
 20
226.9400154029
 11
97.0964547435
 21
573.9400154029
  0
LINE
  5
276
100
AcDbEntity
  8
0
100
AcDbLine
 62
7
  6
BYLAYER
 10
97.8464547435
 20
573.9400154029
 11
97.8464547435
 21
226.9400154029
  0
LINE
  5
277
100
AcDbEntity
  8
0
100
AcDbLine
 62
7
  6
BYLAYER
 10
98.3464547435
 20
226.9400154029
 11
98.3464547435
 21
573.9400154029
  0
LINE
  5
278
100
AcDbEntity
  8
0
100
AcDbLine
 62
7
  6
BYLAYER
 10
99.1571149154
 20
579.4400154029
 11
99.1571149154
 21
573.9400154029
  0
LINE
  5
279
100
AcDbEntity
  8
0
100
AcDbLine
 62
7
  6
BYLAYER
 10
99.3035615247
 20
226.9400154029
 11
99.3035615247
 21
219.9400154029
  0
LINE
  5
27A
100
AcDbEntity
  8
0
100
AcDbLine
 62
7
  6
BYLAYER
 10
99.5964547435
 20
219.9400154029
 11
99.5964547435
 21
226.9400154029
  0
LINE
  5
27B
100
AcDbEntity
  8
0
100
AcDbLine
 62
7
  6
BYLAYER
 10
99.5964547436
 20
573.9400154029
 11
99.5964547436
 21
579.4400154029
  0
LINE
  5
27C
100
AcDbEntity
  8
0
100
AcDbLine
 62
7
  6
BYLAYER
 10
99.8464547435
 20
573.9400154029
 11
99.8464547435
 21
226.9400154029
  0
LINE
  5
27D
100
AcDbEntity
  8
0
100
AcDbLine
 62
7
  6
BYLAYER
 10
100.0357945718
 20
573.9400154029
 11
100.0357945718
 21
579.4400154029
  0
LINE
  5
27E
100
AcDbEntity
  8
0
100
AcDbLine
 62
7
  6
BYLAYER
 10
100.3464547435
 20
226.9400154029
 11
100.3464547435
 21
573.9400154029
  0
LINE
  5
27F
100
AcDbEntity
  8
0
100
AcDbLine
 62
7
  6
BYLAYER
 10
101.5964547435
 20
573.9400154029
 11
101.5964547435
 21
226.9400154029
  0
LINE
  5
280
100
AcDbEntity
  8
0
100
AcDbLine
 62
7
  6
BYLAYER
 10
102.0964547435
 20
226.9400154029
 11
102.0964547435
 21
573.9400154029
  0
LINE
  5
281
100
AcDbEntity
  8
0
100
AcDbLine
 62
7
  6
BYLAYER
 10
102.5964547435
 20
226.9400154029
 11
102.5964547435
 21
573.9400154029
  0
LINE
  5
282
100
AcDbEntity
  8
0
100
AcDbLine
 62
7
  6
BYLAYER
 10
104.4685804811
 20
573.9400154029
 11
104.4685804811
 21
226.9400154029
  0
LINE
  5
283
100
AcDbEntity
  8
0
100
AcDbLine
 62
7
  6
BYLAYER
 10
104.7202143329
 20
226.9400154029
 11
104.7202143329
 21
573.9400154029
  0
LINE
  5
284
100
AcDbEntity
  8
0
100
AcDbLine
 62
7
  6
BYLAYER
 10
109.1571149154
 20
579.4400154029
 11
109.1571149154
 21
573.9400154029
  0
LINE
  5
285
100
AcDbEntity
  8
0
100
AcDbLine
 62
7
  6
BYLAYER
 10
109.2222716694
 20
573.9400154029
 11
109.2222716694
 21
226.9400154029
  0
LINE
  5
286
100
AcDbEntity
  8
0
100
AcDbLine
 62
7
  6
BYLAYER
 10
109.3035615247
 20
226.9400154029
 11
109.3035615247
 21
219.9400154029
  0
LINE
  5
287
100
AcDbEntity
  8
0
100
AcDbLine
 62
7
  6
BYLAYER
 10
109.5964547435
 20
219.9400154029
 11
109.5964547436
 21
579.4400154029
  0
LINE
  5
288
100
AcDbEntity
  8
0
100
AcDbLine
 62
7
  6
BYLAYER
 10
110.0964547436
 20
576.9400154029
 11
110.0964547436
 21
579.9400154029
  0
LINE
  5
289
100
AcDbEntity
  8
0
100
AcDbLine
 62
7
  6
BYLAYER
 10
110.5964547435
 20
219.9400154029
 11
110.5964547435
 21
226.9400154029
  0
LINE
  5
28A
100
AcDbEntity
  8
0
100
AcDbLine
 62
7
  6
BYLAYER
 10
110.8464547436
 20
579.9400154029
 11
110.8464547436
 21
576.9400154029
  0
LINE
  5
28B
100
AcDbEntity
  8
0
100
AcDbLine
 62
7
  6
BYLAYER
 10
110.8464547435
 20
226.9400154029
 11
110.8464547435
 21
219.9400154029
  0
LINE
  5
28C
100
AcDbEntity
  8
0
100
AcDbLine
 62
7
  6
BYLAYER
 10
112.0964547435
 20
219.9400154029
 11
112.0964547436
 21
579.4400154029
  0
LINE
  5
28D
100
AcDbEntity
  8
0
100
AcDbLine
 62
7
  6
BYLAYER
 10
92.3317203749
 20
516.5850814895
 11
92.7480166931
 21
516.7792075879
  0
LINE
  5
28E
100
AcDbEntity
  8
0
100
AcDbLine
 62
7
  6
BYLAYER
 10
92.5007789755
 20
516.2225636422
 11
93.1658527701
 21
516.5326926458
  0
LINE
  5
28F
100
AcDbEntity
  8
0
100
AcDbLine
 62
7
  6
BYLAYER
 10
498.0964547435
 20
218.0992002834
 11
488.0964547435
 21
218.0992002834
  0
LINE
  5
290
100
AcDbEntity
  8
0
100
AcDbLine
 62
7
  6
BYLAYER
 10
76.0964547435
 20
218.4400154029
 11
86.0964547435
 21
218.4400154029
  0
LINE
  5
291
100
AcDbEntity
  8
0
100
AcDbLine
 62
7
  6
BYLAYER
 10
488.0964547435
 20
219.5992002834
 11
498.0964547435
 21
219.5992002834
  0
LINE
  5
292
100
AcDbEntity
  8
0
100
AcDbLine
 62
7
  6
BYLAYER
 10
512.0964547435
 20
219.9332632306
 11
462.0964547435
 21
219.9332632306
  0
LINE
  5
293
100
AcDbEntity
  8
0
100
AcDbLine
 62
7
  6
BYLAYER
 10
112.0964547435
 20
219.9400154029
 11
62.0964547435
 21
219.9400154029
  0
LINE
  5
294
100
AcDbEntity
  8
0
100
AcDbLine
 62
7
  6
BYLAYER
 10
462.0964547435
 20
226.9332632306
 11
512.0964547435
 21
226.9332632306
  0
LINE
  5
295
100
AcDbEntity
  8
0
100
AcDbLine
 62
7
  6
BYLAYER
 10
62.0964547435
 20
226.9400154029
 11
112.0964547435
 21
226.9400154029
  0
LINE
  5
296
100
AcDbEntity
  8
0
100
AcDbLine
 62
7
  6
BYLAYER
 10
92.7703711961
 20
293.1037676498
 11
92.3540762031
 21
293.2978925171
  0
LINE
  5
297
100
AcDbEntity
  8
0
100
AcDbLine
 62
7
  6
BYLAYER
 10
93.1882050124
 20
293.3502830329
 11
92.5231348039
 21
293.6604103643
  0
LINE
  5
298
100
AcDbEntity
  8
0
100
AcDbLine
 62
7
  6
BYLAYER
 10
87.0964547435
 20
229.9400079119
 11
83.0964547435
 21
229.9400079119
  0
LINE
  5
299
100
AcDbEntity
  8
0
100
AcDbLine
 62
7
  6
BYLAYER
 10
491.0964547435
 20
229.9471646964
 11
487.0964547435
 21
229.9471646964
  0
LINE
  5
29A
100
AcDbEntity
  8
0
100
AcDbLine
 62
7
  6
BYLAYER
 10
83.0964547435
 20
231.5400079119
 11
87.0964547435
 21
231.5400079119
  0
LINE
  5
29B
100
AcDbEntity
  8
0
100
AcDbLine
 62
7
  6
BYLAYER
 10
487.0964547435
 20
231.5471646964
 11
491.0964547435
 21
231.5471646964
  0
LINE
  5
29C
100
AcDbEntity
  8
0
100
AcDbLine
 62
7
  6
BYLAYER
 10
491.0964547435
 20
231.5731693442
 11
487.3069810593
 21
231.5731693442
  0
LINE
  5
29D
100
AcDbEntity
  8
0
100
AcDbLine
 62
7
  6
BYLAYER
 10
83.0964547435
 20
235.7505841288
 11
86.8859284277
 21
235.7505841288
  0
LINE
  5
29E
100
AcDbEntity
  8
0
100
AcDbLine
 62
7
  6
BYLAYER
 10
487.3069810593
 20
235.7836956599
 11
491.0964547435
 21
235.7836956599
  0
LINE
  5
29F
100
AcDbEntity
  8
0
100
AcDbLine
 62
7
  6
BYLAYER
 10
83.0964547435
 20
237.7505841288
 11
86.0964547435
 21
237.7505841288
  0
LINE
  5
2A0
100
AcDbEntity
  8
0
100
AcDbLine
 62
7
  6
BYLAYER
 10
488.0964547435
 20
237.7836956599
 11
491.0964547435
 21
237.7836956599
  0
LINE
  5
2A1
100
AcDbEntity
  8
0
100
AcDbLine
 62
7
  6
BYLAYER
 10
482.9599852969
 20
265.8882916303
 11
491.0964547435
 21
265.8882916303
  0
LINE
  5
2A2
100
AcDbEntity
  8
0
100
AcDbLine
 62
7
  6
BYLAYER
 10
83.0964547435
 20
265.9414870032
 11
91.2552800186
 21
265.9414870032
  0
LINE
  5
2A3
100
AcDbEntity
  8
0
100
AcDbLine
 62
7
  6
BYLAYER
 10
487.4913114721
 20
266.2882916303
 11
482.9599728318
 21
266.2882916303
  0
LINE
  5
2A4
100
AcDbEntity
  8
0
100
AcDbLine
 62
7
  6
BYLAYER
 10
91.2552924838
 20
266.3414870032
 11
86.7239538426
 21
266.3414870032
  0
LINE
  5
2A5
100
AcDbEntity
  8
0
100
AcDbLine
 62
7
  6
BYLAYER
 10
92.3540868626
 20
293.2978858844
 11
92.5231348039
 21
293.6604103644
  0
LINE
  5
2A6
100
AcDbEntity
  8
0
100
AcDbLine
 62
7
  6
BYLAYER
 10
92.9394113645
 20
293.4662974163
 11
92.7703634232
 21
293.1037729363
  0
LINE
  5
2A7
100
AcDbEntity
  8
0
100
AcDbLine
 62
7
  6
BYLAYER
 10
484.2589805626
 20
267.4508825967
 11
484.3308220552
 21
267.4508825967
  0
LINE
  5
2A8
100
AcDbEntity
  8
0
100
AcDbLine
 62
7
  6
BYLAYER
 10
89.8844432603
 20
267.5040779698
 11
89.9562847529
 21
267.5040779698
  0
LINE
  5
2A9
100
AcDbEntity
  8
0
100
AcDbLine
 62
7
  6
BYLAYER
 10
483.0773151401
 20
268.6023708839
 11
483.5923138959
 21
268.6023708839
  0
LINE
  5
2AA
100
AcDbEntity
  8
0
100
AcDbLine
 62
7
  6
BYLAYER
 10
484.9974887219
 20
268.6023708839
 11
485.4521332072
 21
268.6023708839
  0
LINE
  5
2AB
100
AcDbEntity
  8
0
100
AcDbLine
 62
7
  6
BYLAYER
 10
88.7631321084
 20
268.655566257
 11
89.2177765936
 21
268.655566257
  0
LINE
  5
2AC
100
AcDbEntity
  8
0
100
AcDbLine
 62
7
  6
BYLAYER
 10
90.6229514196
 20
268.655566257
 11
91.1379501754
 21
268.655566257
  0
LINE
  5
2AD
100
AcDbEntity
  8
0
100
AcDbLine
 62
7
  6
BYLAYER
 10
481.044901309
 20
268.8882916303
 11
481.4449013089
 21
268.8882916303
  0
LINE
  5
2AE
100
AcDbEntity
  8
0
100
AcDbLine
 62
7
  6
BYLAYER
 10
487.1449013089
 20
268.8882916303
 11
491.0964547435
 21
268.8882916306
  0
LINE
  5
2AF
100
AcDbEntity
  8
0
100
AcDbLine
 62
7
  6
BYLAYER
 10
83.0964547435
 20
268.9414870034
 11
87.0703640066
 21
268.9414870032
  0
LINE
  5
2B0
100
AcDbEntity
  8
0
100
AcDbLine
 62
7
  6
BYLAYER
 10
92.7703640066
 20
268.9414870032
 11
93.1703640065
 21
268.9414870032
  0
LINE
  5
2B1
100
AcDbEntity
  8
0
100
AcDbLine
 62
7
  6
BYLAYER
 10
485.4521332072
 20
269.1742123765
 11
484.9974887219
 21
269.1742123765
  0
LINE
  5
2B2
100
AcDbEntity
  8
0
100
AcDbLine
 62
7
  6
BYLAYER
 10
483.5923138959
 20
269.1742123765
 11
483.0773151401
 21
269.1742123765
  0
LINE
  5
2B3
100
AcDbEntity
  8
0
100
AcDbLine
 62
7
  6
BYLAYER
 10
480.4062859035
 20
269.1984253872
 11
479.2949013089
 21
269.1984253872
  0
LINE
  5
2B4
100
AcDbEntity
  8
0
100
AcDbLine
 62
7
  6
BYLAYER
 10
91.1379501754
 20
269.2274077496
 11
90.6229514196
 21
269.2274077496
  0
LINE
  5
2B5
100
AcDbEntity
  8
0
100
AcDbLine
 62
7
  6
BYLAYER
 10
89.2177765936
 20
269.2274077496
 11
88.7631321084
 21
269.2274077496
  0
LINE
  5
2B6
100
AcDbEntity
  8
0
100
AcDbLine
 62
7
  6
BYLAYER
 10
94.9203640066
 20
269.2516207601
 11
93.808982614
 21
269.2516207601
  0
LINE
  5
2B7
100
AcDbEntity
  8
0
100
AcDbLine
 62
7
  6
BYLAYER
 10
484.3308220552
 20
270.3257006637
 11
484.2589805626
 21
270.3257006637
  0
LINE
  5
2B8
100
AcDbEntity
  8
0
100
AcDbLine
 62
7
  6
BYLAYER
 10
89.9562847529
 20
270.3788960368
 11
89.8844432603
 21
270.3788960368
  0
LINE
  5
2B9
100
AcDbEntity
  8
0
100
AcDbLine
 62
7
  6
BYLAYER
 10
92.5007789754
 20
516.2225636421
 11
92.3317309168
 21
516.5850883739
  0
LINE
  5
2BA
100
AcDbEntity
  8
0
100
AcDbLine
 62
7
  6
BYLAYER
 10
92.7480076013
 20
516.7792013798
 11
92.9170556599
 21
516.416676648
  0
LINE
  5
2BB
100
AcDbEntity
  8
0
100
AcDbLine
 62
7
  6
BYLAYER
 10
91.9203640189
 20
271.9947633913
 11
91.7011861525
 21
271.6601580912
  0
LINE
  5
2BC
100
AcDbEntity
  8
0
100
AcDbLine
 62
7
  6
BYLAYER
 10
484.2589805626
 20
289.4508825967
 11
484.3308220552
 21
289.4508825967
  0
LINE
  5
2BD
100
AcDbEntity
  8
0
100
AcDbLine
 62
7
  6
BYLAYER
 10
89.8844432603
 20
289.5040779698
 11
89.9562847529
 21
289.5040779698
  0
LINE
  5
2BE
100
AcDbEntity
  8
0
100
AcDbLine
 62
7
  6
BYLAYER
 10
479.2949013089
 20
290.5781578734
 11
480.4062827015
 21
290.5781578734
  0
LINE
  5
2BF
100
AcDbEntity
  8
0
100
AcDbLine
 62
7
  6
BYLAYER
 10
483.0773151401
 20
290.6023708839
 11
483.5923138959
 21
290.6023708839
  0
LINE
  5
2C0
100
AcDbEntity
  8
0
100
AcDbLine
 62
7
  6
BYLAYER
 10
484.9974887219
 20
290.6023708839
 11
485.4521332071
 21
290.6023708839
  0
LINE
  5
2C1
100
AcDbEntity
  8
0
100
AcDbLine
 62
7
  6
BYLAYER
 10
93.808979412
 20
290.6313532464
 11
94.9203640066
 21
290.6313532464
  0
LINE
  5
2C2
100
AcDbEntity
  8
0
100
AcDbLine
 62
7
  6
BYLAYER
 10
88.7631321084
 20
290.655566257
 11
89.2177765936
 21
290.655566257
  0
LINE
  5
2C3
100
AcDbEntity
  8
0
100
AcDbLine
 62
7
  6
BYLAYER
 10
90.6229514196
 20
290.655566257
 11
91.1379501754
 21
290.655566257
  0
LINE
  5
2C4
100
AcDbEntity
  8
0
100
AcDbLine
 62
7
  6
BYLAYER
 10
481.4449013089
 20
290.8882916303
 11
481.044901309
 21
290.8882916303
  0
LINE
  5
2C5
100
AcDbEntity
  8
0
100
AcDbLine
 62
7
  6
BYLAYER
 10
487.1449013089
 20
290.8882916303
 11
491.0964547435
 21
290.8882916301
  0
LINE
  5
2C6
100
AcDbEntity
  8
0
100
AcDbLine
 62
7
  6
BYLAYER
 10
93.1703640065
 20
290.9414870032
 11
92.7703640066
 21
290.9414870032
  0
LINE
  5
2C7
100
AcDbEntity
  8
0
100
AcDbLine
 62
7
  6
BYLAYER
 10
83.0964547435
 20
290.9414870029
 11
87.0703640066
 21
290.9414870032
  0
LINE
  5
2C8
100
AcDbEntity
  8
0
100
AcDbLine
 62
7
  6
BYLAYER
 10
485.4521332071
 20
291.1742123765
 11
484.9974887219
 21
291.1742123765
  0
LINE
  5
2C9
100
AcDbEntity
  8
0
100
AcDbLine
 62
7
  6
BYLAYER
 10
483.5923138959
 20
291.1742123765
 11
483.0773151401
 21
291.1742123765
  0
LINE
  5
2CA
100
AcDbEntity
  8
0
100
AcDbLine
 62
7
  6
BYLAYER
 10
91.1379501754
 20
291.2274077497
 11
90.6229514196
 21
291.2274077497
  0
LINE
  5
2CB
100
AcDbEntity
  8
0
100
AcDbLine
 62
7
  6
BYLAYER
 10
89.2177765936
 20
291.2274077497
 11
88.7631321084
 21
291.2274077497
  0
LINE
  5
2CC
100
AcDbEntity
  8
0
100
AcDbLine
 62
7
  6
BYLAYER
 10
484.3308220552
 20
292.3257006638
 11
484.2589805626
 21
292.3257006638
  0
LINE
  5
2CD
100
AcDbEntity
  8
0
100
AcDbLine
 62
7
  6
BYLAYER
 10
89.9562847529
 20
292.3788960369
 11
89.8844432603
 21
292.3788960369
  0
LINE
  5
2CE
100
AcDbEntity
  8
0
100
AcDbLine
 62
7
  6
BYLAYER
 10
482.9599728318
 20
293.4882916303
 11
487.4913114729
 21
293.4882916303
  0
LINE
  5
2CF
100
AcDbEntity
  8
0
100
AcDbLine
 62
7
  6
BYLAYER
 10
86.7239538434
 20
293.5414870032
 11
91.2552924838
 21
293.5414870032
  0
LINE
  5
2D0
100
AcDbEntity
  8
0
100
AcDbLine
 62
7
  6
BYLAYER
 10
482.9599852969
 20
293.8882916303
 11
491.0964547435
 21
293.8882916303
  0
LINE
  5
2D1
100
AcDbEntity
  8
0
100
AcDbLine
 62
7
  6
BYLAYER
 10
83.0964547435
 20
293.9414870032
 11
91.2552800186
 21
293.9414870032
  0
LINE
  5
2D2
100
AcDbEntity
  8
0
100
AcDbLine
 62
7
  6
BYLAYER
 10
91.6788300963
 20
538.2228157661
 11
91.8980079253
 21
537.888210462
  0
LINE
  5
2D3
100
AcDbEntity
  8
0
100
AcDbLine
 62
7
  6
BYLAYER
 10
90.0357945718
 20
579.4400154029
 11
89.6822411812
 21
579.9400154029
  0
LINE
  5
2D4
100
AcDbEntity
  8
0
100
AcDbLine
 62
7
  6
BYLAYER
 10
481.6697746831
 20
543.6072149914
 11
481.0047008885
 21
543.2970859877
  0
LINE
  5
2D5
100
AcDbEntity
  8
0
100
AcDbLine
 62
7
  6
BYLAYER
 10
481.8388332837
 20
543.2446971441
 11
481.4225369655
 21
543.0505710457
  0
LINE
  5
2D6
100
AcDbEntity
  8
0
100
AcDbLine
 62
7
  6
BYLAYER
 10
481.0270603031
 20
266.4794956006
 11
481.6921305116
 21
266.1693682692
  0
LINE
  5
2D7
100
AcDbEntity
  8
0
100
AcDbLine
 62
7
  6
BYLAYER
 10
481.4448941194
 20
266.7260109838
 11
481.8611891125
 21
266.5318861164
  0
LINE
  5
2D8
100
AcDbEntity
  8
0
100
AcDbLine
 62
7
  6
BYLAYER
 10
98.8035615248
 20
579.9400154029
 11
99.1571149154
 21
579.4400154029
  0
LINE
  5
2D9
100
AcDbEntity
  8
0
100
AcDbLine
 62
7
  6
BYLAYER
 10
100.0357945718
 20
579.4400154029
 11
99.6822411813
 21
579.9400154029
  0
LINE
  5
2DA
100
AcDbEntity
  8
0
100
AcDbLine
 62
7
  6
BYLAYER
 10
108.8035615248
 20
579.9400154029
 11
109.1571149154
 21
579.4400154029
  0
LINE
  5
2DB
100
AcDbEntity
  8
0
100
AcDbLine
 62
7
  6
BYLAYER
 10
92.7703640066
 20
266.7791996541
 11
92.8947678883
 21
266.895220652
  0
LINE
  5
2DC
100
AcDbEntity
  8
0
100
AcDbLine
 62
7
  6
BYLAYER
 10
92.8724185192
 20
542.9877473362
 11
92.7480081781
 21
543.1037743488
  0
LINE
  5
2DD
100
AcDbEntity
  8
0
100
AcDbLine
 62
7
  6
BYLAYER
 10
83.0964547436
 20
579.4400154029
 11
82.5964547436
 21
579.9400154029
  0
LINE
  5
2DE
100
AcDbEntity
  8
0
100
AcDbLine
 62
7
  6
BYLAYER
 10
462.5964547435
 20
579.9335602764
 11
462.0964547435
 21
579.4335602764
  0
LINE
  5
2DF
100
AcDbEntity
  8
0
100
AcDbLine
 62
7
  6
BYLAYER
 10
465.0964547435
 20
579.9335602764
 11
464.5964547435
 21
579.4335602764
  0
LINE
  5
2E0
100
AcDbEntity
  8
0
100
AcDbLine
 62
7
  6
BYLAYER
 10
99.5964547436
 20
579.4400154029
 11
99.0964547436
 21
579.9400154029
  0
LINE
  5
2E1
100
AcDbEntity
  8
0
100
AcDbLine
 62
7
  6
BYLAYER
 10
109.5964547436
 20
579.4400154029
 11
109.0964547436
 21
579.9400154029
  0
LINE
  5
2E2
100
AcDbEntity
  8
0
100
AcDbLine
 62
7
  6
BYLAYER
 10
475.0964547435
 20
579.9335602764
 11
474.5964547435
 21
579.4335602764
  0
LINE
  5
2E3
100
AcDbEntity
  8
0
100
AcDbLine
 62
7
  6
BYLAYER
 10
491.5964547435
 20
579.9335602764
 11
491.0964547435
 21
579.4335602764
  0
LINE
  5
2E4
100
AcDbEntity
  8
0
100
AcDbLine
 62
7
  6
BYLAYER
 10
112.0964547436
 20
579.4400154029
 11
111.5964547436
 21
579.9400154029
  0
LINE
  5
2E5
100
AcDbEntity
  8
0
100
AcDbLine
 62
7
  6
BYLAYER
 10
481.4225454804
 20
543.0505789794
 11
481.2981415987
 21
542.9345579815
  0
LINE
  5
2E6
100
AcDbEntity
  8
0
100
AcDbLine
 62
7
  6
BYLAYER
 10
92.3540762033
 20
266.5850814895
 11
92.7703725216
 21
266.7792075879
  0
LINE
  5
2E7
100
AcDbEntity
  8
0
100
AcDbLine
 62
7
  6
BYLAYER
 10
92.5231348039
 20
266.2225636422
 11
93.1882085986
 21
266.5326926458
  0
LINE
  5
2E8
100
AcDbEntity
  8
0
100
AcDbLine
 62
7
  6
BYLAYER
 10
481.3204909675
 20
266.8420312977
 11
481.4449013089
 21
266.7260042848
  0
LINE
  5
2E9
100
AcDbEntity
  8
0
100
AcDbLine
 62
7
  6
BYLAYER
 10
465.3893479623
 20
579.9335602764
 11
465.0357945717
 21
579.4335602764
  0
LINE
  5
2EA
100
AcDbEntity
  8
0
100
AcDbLine
 62
7
  6
BYLAYER
 10
474.1571149153
 20
579.4335602764
 11
474.5106683058
 21
579.9335602764
  0
LINE
  5
2EB
100
AcDbEntity
  8
0
100
AcDbLine
 62
7
  6
BYLAYER
 10
475.3893479623
 20
579.9335602764
 11
475.0357945717
 21
579.4335602764
  0
LINE
  5
2EC
100
AcDbEntity
  8
0
100
AcDbLine
 62
7
  6
BYLAYER
 10
484.1571149153
 20
579.4335602764
 11
484.5106683059
 21
579.9335602764
  0
LINE
  5
2ED
100
AcDbEntity
  8
0
100
AcDbLine
 62
7
  6
BYLAYER
 10
92.7480153677
 20
543.1037676498
 11
92.3317203746
 21
543.2978925171
  0
LINE
  5
2EE
100
AcDbEntity
  8
0
100
AcDbLine
 62
7
  6
BYLAYER
 10
93.165849184
 20
543.3502830329
 11
92.5007789755
 21
543.6604103643
  0
LINE
  5
2EF
100
AcDbEntity
  8
0
100
AcDbLine
 62
7
  6
BYLAYER
 10
482.2725454682
 20
537.8350152423
 11
482.4917233345
 21
538.1696205423
  0
LINE
  5
2F0
100
AcDbEntity
  8
0
100
AcDbLine
 62
7
  6
BYLAYER
 10
482.5140793907
 20
271.6069628674
 11
482.2949015617
 21
271.9415681715
  0
LINE
  5
2F1
100
AcDbEntity
  8
0
100
AcDbLine
 62
7
  6
BYLAYER
 10
482.9376294684
 20
515.8882916303
 11
491.0964547435
 21
515.8882916303
  0
LINE
  5
2F2
100
AcDbEntity
  8
0
100
AcDbLine
 62
7
  6
BYLAYER
 10
83.0964547435
 20
515.9414870032
 11
91.2329241902
 21
515.9414870032
  0
LINE
  5
2F3
100
AcDbEntity
  8
0
100
AcDbLine
 62
7
  6
BYLAYER
 10
487.4689556436
 20
516.2882916303
 11
482.9376170033
 21
516.2882916303
  0
LINE
  5
2F4
100
AcDbEntity
  8
0
100
AcDbLine
 62
7
  6
BYLAYER
 10
91.2329366553
 20
516.3414870032
 11
86.7015980142
 21
516.3414870032
  0
LINE
  5
2F5
100
AcDbEntity
  8
0
100
AcDbLine
 62
7
  6
BYLAYER
 10
481.2534981226
 20
516.3634812173
 11
481.4225460638
 21
516.7260056972
  0
LINE
  5
2F6
100
AcDbEntity
  8
0
100
AcDbLine
 62
7
  6
BYLAYER
 10
481.8388226244
 20
516.5318927491
 11
481.6697746832
 21
516.1693682692
  0
LINE
  5
2F7
100
AcDbEntity
  8
0
100
AcDbLine
 62
7
  6
BYLAYER
 10
484.2366247341
 20
517.4508825967
 11
484.3084662268
 21
517.4508825967
  0
LINE
  5
2F8
100
AcDbEntity
  8
0
100
AcDbLine
 62
7
  6
BYLAYER
 10
89.8620874318
 20
517.5040779698
 11
89.9339289245
 21
517.5040779698
  0
LINE
  5
2F9
100
AcDbEntity
  8
0
100
AcDbLine
 62
7
  6
BYLAYER
 10
483.0549593117
 20
518.6023708839
 11
483.5699580675
 21
518.6023708839
  0
LINE
  5
2FA
100
AcDbEntity
  8
0
100
AcDbLine
 62
7
  6
BYLAYER
 10
484.9751328934
 20
518.6023708839
 11
485.4297773787
 21
518.6023708839
  0
LINE
  5
2FB
100
AcDbEntity
  8
0
100
AcDbLine
 62
7
  6
BYLAYER
 10
88.7407762799
 20
518.655566257
 11
89.1954207652
 21
518.655566257
  0
LINE
  5
2FC
100
AcDbEntity
  8
0
100
AcDbLine
 62
7
  6
BYLAYER
 10
90.6005955911
 20
518.655566257
 11
91.1155943469
 21
518.655566257
  0
LINE
  5
2FD
100
AcDbEntity
  8
0
100
AcDbLine
 62
7
  6
BYLAYER
 10
481.0225454806
 20
518.8882916303
 11
481.4225454804
 21
518.8882916303
  0
LINE
  5
2FE
100
AcDbEntity
  8
0
100
AcDbLine
 62
7
  6
BYLAYER
 10
487.1225454804
 20
518.8882916303
 11
491.0964547435
 21
518.8882916306
  0
LINE
  5
2FF
100
AcDbEntity
  8
0
100
AcDbLine
 62
7
  6
BYLAYER
 10
83.0964547435
 20
518.9414870034
 11
87.0480081781
 21
518.9414870032
  0
LINE
  5
300
100
AcDbEntity
  8
0
100
AcDbLine
 62
7
  6
BYLAYER
 10
92.7480081781
 20
518.9414870032
 11
93.148008178
 21
518.9414870032
  0
LINE
  5
301
100
AcDbEntity
  8
0
100
AcDbLine
 62
7
  6
BYLAYER
 10
485.4297773787
 20
519.1742123765
 11
484.9751328934
 21
519.1742123765
  0
LINE
  5
302
100
AcDbEntity
  8
0
100
AcDbLine
 62
7
  6
BYLAYER
 10
483.5699580675
 20
519.1742123765
 11
483.0549593117
 21
519.1742123765
  0
LINE
  5
303
100
AcDbEntity
  8
0
100
AcDbLine
 62
7
  6
BYLAYER
 10
480.383930075
 20
519.1984253872
 11
479.2725454804
 21
519.1984253872
  0
LINE
  5
304
100
AcDbEntity
  8
0
100
AcDbLine
 62
7
  6
BYLAYER
 10
91.1155943469
 20
519.2274077496
 11
90.6005955911
 21
519.2274077496
  0
LINE
  5
305
100
AcDbEntity
  8
0
100
AcDbLine
 62
7
  6
BYLAYER
 10
89.1954207652
 20
519.2274077496
 11
88.7407762799
 21
519.2274077496
  0
LINE
  5
306
100
AcDbEntity
  8
0
100
AcDbLine
 62
7
  6
BYLAYER
 10
94.8980081781
 20
519.2516207601
 11
93.7866267856
 21
519.2516207601
  0
LINE
  5
307
100
AcDbEntity
  8
0
100
AcDbLine
 62
7
  6
BYLAYER
 10
484.3084662268
 20
520.3257006637
 11
484.2366247341
 21
520.3257006637
  0
LINE
  5
308
100
AcDbEntity
  8
0
100
AcDbLine
 62
7
  6
BYLAYER
 10
89.9339289245
 20
520.3788960368
 11
89.8620874318
 21
520.3788960368
  0
LINE
  5
309
100
AcDbEntity
  8
0
100
AcDbLine
 62
7
  6
BYLAYER
 10
481.4449018858
 20
293.0505772538
 11
481.2758538271
 21
293.4131019855
  0
LINE
  5
30A
100
AcDbEntity
  8
0
100
AcDbLine
 62
7
  6
BYLAYER
 10
481.6921305116
 20
293.6072149914
 11
481.8611785703
 21
293.2446902597
  0
LINE
  5
30B
100
AcDbEntity
  8
0
100
AcDbLine
 62
7
  6
BYLAYER
 10
484.2366247341
 20
539.4508825967
 11
484.3084662268
 21
539.4508825967
  0
LINE
  5
30C
100
AcDbEntity
  8
0
100
AcDbLine
 62
7
  6
BYLAYER
 10
89.8620874318
 20
539.5040779698
 11
89.9339289244
 21
539.5040779698
  0
LINE
  5
30D
100
AcDbEntity
  8
0
100
AcDbLine
 62
7
  6
BYLAYER
 10
479.2725454804
 20
540.5781578734
 11
480.383926873
 21
540.5781578734
  0
LINE
  5
30E
100
AcDbEntity
  8
0
100
AcDbLine
 62
7
  6
BYLAYER
 10
483.0549593117
 20
540.6023708839
 11
483.5699580675
 21
540.6023708839
  0
LINE
  5
30F
100
AcDbEntity
  8
0
100
AcDbLine
 62
7
  6
BYLAYER
 10
484.9751328934
 20
540.6023708839
 11
485.4297773787
 21
540.6023708839
  0
LINE
  5
310
100
AcDbEntity
  8
0
100
AcDbLine
 62
7
  6
BYLAYER
 10
93.7866235836
 20
540.6313532464
 11
94.8980081781
 21
540.6313532464
  0
LINE
  5
311
100
AcDbEntity
  8
0
100
AcDbLine
 62
7
  6
BYLAYER
 10
88.7407762799
 20
540.655566257
 11
89.1954207652
 21
540.655566257
  0
LINE
  5
312
100
AcDbEntity
  8
0
100
AcDbLine
 62
7
  6
BYLAYER
 10
90.6005955911
 20
540.655566257
 11
91.1155943469
 21
540.655566257
  0
LINE
  5
313
100
AcDbEntity
  8
0
100
AcDbLine
 62
7
  6
BYLAYER
 10
481.4225454804
 20
540.8882916303
 11
481.0225454806
 21
540.8882916303
  0
LINE
  5
314
100
AcDbEntity
  8
0
100
AcDbLine
 62
7
  6
BYLAYER
 10
487.1225454804
 20
540.8882916303
 11
491.0964547435
 21
540.8882916301
  0
LINE
  5
315
100
AcDbEntity
  8
0
100
AcDbLine
 62
7
  6
BYLAYER
 10
93.148008178
 20
540.9414870032
 11
92.7480081781
 21
540.9414870032
  0
LINE
  5
316
100
AcDbEntity
  8
0
100
AcDbLine
 62
7
  6
BYLAYER
 10
83.0964547435
 20
540.9414870029
 11
87.0480081781
 21
540.9414870032
  0
LINE
  5
317
100
AcDbEntity
  8
0
100
AcDbLine
 62
7
  6
BYLAYER
 10
485.4297773787
 20
541.1742123766
 11
484.9751328934
 21
541.1742123766
  0
LINE
  5
318
100
AcDbEntity
  8
0
100
AcDbLine
 62
7
  6
BYLAYER
 10
483.5699580675
 20
541.1742123766
 11
483.0549593117
 21
541.1742123766
  0
LINE
  5
319
100
AcDbEntity
  8
0
100
AcDbLine
 62
7
  6
BYLAYER
 10
91.1155943469
 20
541.2274077497
 11
90.6005955911
 21
541.2274077497
  0
LINE
  5
31A
100
AcDbEntity
  8
0
100
AcDbLine
 62
7
  6
BYLAYER
 10
89.1954207652
 20
541.2274077497
 11
88.7407762799
 21
541.2274077497
  0
LINE
  5
31B
100
AcDbEntity
  8
0
100
AcDbLine
 62
7
  6
BYLAYER
 10
484.3084662268
 20
542.3257006638
 11
484.2366247341
 21
542.3257006638
  0
LINE
  5
31C
100
AcDbEntity
  8
0
100
AcDbLine
 62
7
  6
BYLAYER
 10
89.9339289244
 20
542.3788960369
 11
89.8620874318
 21
542.3788960369
  0
LINE
  5
31D
100
AcDbEntity
  8
0
100
AcDbLine
 62
7
  6
BYLAYER
 10
482.9376170033
 20
543.4882916303
 11
487.4689556445
 21
543.4882916303
  0
LINE
  5
31E
100
AcDbEntity
  8
0
100
AcDbLine
 62
7
  6
BYLAYER
 10
86.701598015
 20
543.5414870032
 11
91.2329366553
 21
543.5414870032
  0
LINE
  5
31F
100
AcDbEntity
  8
0
100
AcDbLine
 62
7
  6
BYLAYER
 10
482.9376294684
 20
543.8882916303
 11
491.0964547435
 21
543.8882916303
  0
LINE
  5
320
100
AcDbEntity
  8
0
100
AcDbLine
 62
7
  6
BYLAYER
 10
83.0964547435
 20
543.9414870032
 11
91.2329241902
 21
543.9414870032
  0
LINE
  5
321
100
AcDbEntity
  8
0
100
AcDbLine
 62
7
  6
BYLAYER
 10
462.0964547435
 20
579.4335602764
 11
462.0964547435
 21
576.9335602764
  0
LINE
  5
322
100
AcDbEntity
  8
0
100
AcDbLine
 62
7
  6
BYLAYER
 10
462.0964547435
 20
576.9332632306
 11
462.0964547435
 21
219.9332632306
  0
LINE
  5
323
100
AcDbEntity
  8
0
100
AcDbLine
 62
7
  6
BYLAYER
 10
464.5964547435
 20
573.9335602764
 11
491.0964547435
 21
573.9335602764
  0
LINE
  5
324
100
AcDbEntity
  8
0
100
AcDbLine
 62
7
  6
BYLAYER
 10
109.5964547436
 20
573.9400154029
 11
83.0964547436
 21
573.9400154029
  0
LINE
  5
325
100
AcDbEntity
  8
0
100
AcDbLine
 62
7
  6
BYLAYER
 10
463.3464547435
 20
219.9332632306
 11
463.3464547435
 21
226.9332632306
  0
LINE
  5
326
100
AcDbEntity
  8
0
100
AcDbLine
 62
7
  6
BYLAYER
 10
463.3464547435
 20
576.9335602764
 11
463.3464547435
 21
579.9335602764
  0
LINE
  5
327
100
AcDbEntity
  8
0
100
AcDbLine
 62
7
  6
BYLAYER
 10
463.5964547435
 20
226.9332632306
 11
463.5964547435
 21
219.9332632306
  0
LINE
  5
328
100
AcDbEntity
  8
0
100
AcDbLine
 62
7
  6
BYLAYER
 10
464.0964547435
 20
579.9335602764
 11
464.0964547435
 21
576.9335602764
  0
LINE
  5
329
100
AcDbEntity
  8
0
100
AcDbLine
 62
7
  6
BYLAYER
 10
464.5964547435
 20
219.9332632306
 11
464.5964547435
 21
579.4335602764
  0
LINE
  5
32A
100
AcDbEntity
  8
0
100
AcDbLine
 62
7
  6
BYLAYER
 10
464.8893479623
 20
219.9332632306
 11
464.8893479623
 21
226.9332632306
  0
LINE
  5
32B
100
AcDbEntity
  8
0
100
AcDbLine
 62
7
  6
BYLAYER
 10
464.9706378176
 20
226.9332632306
 11
464.9706378176
 21
573.9335602764
  0
LINE
  5
32C
100
AcDbEntity
  8
0
100
AcDbLine
 62
7
  6
BYLAYER
 10
465.0357945717
 20
573.9335602764
 11
465.0357945717
 21
579.4335602764
  0
LINE
  5
32D
100
AcDbEntity
  8
0
100
AcDbLine
 62
7
  6
BYLAYER
 10
469.4726951542
 20
573.9335602764
 11
469.4726951542
 21
226.9332632306
  0
LINE
  5
32E
100
AcDbEntity
  8
0
100
AcDbLine
 62
7
  6
BYLAYER
 10
469.7243290059
 20
226.9332632306
 11
469.7243290059
 21
573.9335602764
  0
LINE
  5
32F
100
AcDbEntity
  8
0
100
AcDbLine
 62
7
  6
BYLAYER
 10
471.5964547435
 20
573.9335602764
 11
471.5964547435
 21
226.9332632306
  0
LINE
  5
330
100
AcDbEntity
  8
0
100
AcDbLine
 62
7
  6
BYLAYER
 10
472.0964547435
 20
573.9335602764
 11
472.0964547435
 21
226.9332632306
  0
LINE
  5
331
100
AcDbEntity
  8
0
100
AcDbLine
 62
7
  6
BYLAYER
 10
472.5964547435
 20
226.9332632306
 11
472.5964547435
 21
573.9335602764
  0
LINE
  5
332
100
AcDbEntity
  8
0
100
AcDbLine
 62
7
  6
BYLAYER
 10
473.8464547435
 20
573.9335602764
 11
473.8464547435
 21
226.9332632306
  0
LINE
  5
333
100
AcDbEntity
  8
0
100
AcDbLine
 62
7
  6
BYLAYER
 10
474.1571149153
 20
579.4335602764
 11
474.1571149153
 21
573.9335602764
  0
LINE
  5
334
100
AcDbEntity
  8
0
100
AcDbLine
 62
7
  6
BYLAYER
 10
474.3464547435
 20
226.9332632306
 11
474.3464547435
 21
573.9335602764
  0
LINE
  5
335
100
AcDbEntity
  8
0
100
AcDbLine
 62
7
  6
BYLAYER
 10
474.5964547435
 20
579.4335602764
 11
474.5964547435
 21
573.9335602764
  0
LINE
  5
336
100
AcDbEntity
  8
0
100
AcDbLine
 62
7
  6
BYLAYER
 10
474.5964547435
 20
226.9332632306
 11
474.5964547435
 21
219.9332632306
  0
LINE
  5
337
100
AcDbEntity
  8
0
100
AcDbLine
 62
7
  6
BYLAYER
 10
474.8893479623
 20
219.9332632306
 11
474.8893479623
 21
226.9332632306
  0
LINE
  5
338
100
AcDbEntity
  8
0
100
AcDbLine
 62
7
  6
BYLAYER
 10
475.0357945717
 20
573.9335602764
 11
475.0357945717
 21
579.4335602764
  0
LINE
  5
339
100
AcDbEntity
  8
0
100
AcDbLine
 62
7
  6
BYLAYER
 10
475.8464547435
 20
573.9335602764
 11
475.8464547435
 21
226.9332632306
  0
LINE
  5
33A
100
AcDbEntity
  8
0
100
AcDbLine
 62
7
  6
BYLAYER
 10
476.3464547435
 20
226.9332632306
 11
476.3464547435
 21
573.9335602764
  0
LINE
  5
33B
100
AcDbEntity
  8
0
100
AcDbLine
 62
7
  6
BYLAYER
 10
477.0964547435
 20
573.9335602764
 11
477.0964547435
 21
226.9332632306
  0
LINE
  5
33C
100
AcDbEntity
  8
0
100
AcDbLine
 62
7
  6
BYLAYER
 10
477.5964547435
 20
226.9332632306
 11
477.5964547435
 21
573.9335602764
  0
LINE
  5
33D
100
AcDbEntity
  8
0
100
AcDbLine
 62
7
  6
BYLAYER
 10
478.0964547435
 20
226.9332632306
 11
478.0964547435
 21
573.9335602764
  0
LINE
  5
33E
100
AcDbEntity
  8
0
100
AcDbLine
 62
7
  6
BYLAYER
 10
479.0964547435
 20
573.9335602764
 11
479.0964547435
 21
226.9332632306
  0
LINE
  5
33F
100
AcDbEntity
  8
0
100
AcDbLine
 62
7
  6
BYLAYER
 10
479.2725454804
 20
540.5781578733
 11
479.2725454804
 21
519.1984253873
  0
LINE
  5
340
100
AcDbEntity
  8
0
100
AcDbLine
 62
7
  6
BYLAYER
 10
479.2949013089
 20
290.5781578733
 11
479.2949013089
 21
269.1984253873
  0
LINE
  5
341
100
AcDbEntity
  8
0
100
AcDbLine
 62
7
  6
BYLAYER
 10
479.5964547435
 20
226.9332632306
 11
479.5964547435
 21
267.9158442762
  0
LINE
  5
342
100
AcDbEntity
  8
0
100
AcDbLine
 62
7
  6
BYLAYER
 10
479.5964547435
 20
291.8607398081
 11
479.5964547435
 21
517.871586473
  0
LINE
  5
343
100
AcDbEntity
  8
0
100
AcDbLine
 62
7
  6
BYLAYER
 10
479.5964547435
 20
541.9049950296
 11
479.5964547435
 21
573.9335602764
  0
LINE
  5
344
100
AcDbEntity
  8
0
100
AcDbLine
 62
7
  6
BYLAYER
 10
480.3686993266
 20
542.8503445004
 11
480.3686993266
 21
540.9360045294
  0
LINE
  5
345
100
AcDbEntity
  8
0
100
AcDbLine
 62
7
  6
BYLAYER
 10
480.3686993266
 20
518.8405787481
 11
480.3686993266
 21
516.9261487371
  0
LINE
  5
346
100
AcDbEntity
  8
0
100
AcDbLine
 62
7
  6
BYLAYER
 10
480.3910551551
 20
292.8503445004
 11
480.3910551551
 21
290.9360045294
  0
LINE
  5
347
100
AcDbEntity
  8
0
100
AcDbLine
 62
7
  6
BYLAYER
 10
480.3910551551
 20
268.8405787481
 11
480.3910551551
 21
266.9261487371
  0
LINE
  5
348
100
AcDbEntity
  8
0
100
AcDbLine
 62
7
  6
BYLAYER
 10
481.0225454804
 20
542.5472984148
 11
481.0225454804
 21
540.8883730013
  0
LINE
  5
349
100
AcDbEntity
  8
0
100
AcDbLine
 62
7
  6
BYLAYER
 10
481.0225454804
 20
518.8882846184
 11
481.0225454804
 21
517.2292828061
  0
LINE
  5
34A
100
AcDbEntity
  8
0
100
AcDbLine
 62
7
  6
BYLAYER
 10
481.0449013089
 20
292.5472984148
 11
481.0449013089
 21
290.8883730013
  0
LINE
  5
34B
100
AcDbEntity
  8
0
100
AcDbLine
 62
7
  6
BYLAYER
 10
481.0449013089
 20
268.8882846184
 11
481.0449013089
 21
267.2292828061
  0
LINE
  5
34C
100
AcDbEntity
  8
0
100
AcDbLine
 62
7
  6
BYLAYER
 10
481.4225382909
 20
516.7260109838
 11
481.4225454804
 21
518.8882880429
  0
LINE
  5
34D
100
AcDbEntity
  8
0
100
AcDbLine
 62
7
  6
BYLAYER
 10
481.4225454804
 20
540.8882954987
 11
481.4225369655
 21
543.0505710457
  0
LINE
  5
34E
100
AcDbEntity
  8
0
100
AcDbLine
 62
7
  6
BYLAYER
 10
481.4449013089
 20
290.8882954987
 11
481.4448927939
 21
293.0505710457
  0
LINE
  5
34F
100
AcDbEntity
  8
0
100
AcDbLine
 62
7
  6
BYLAYER
 10
481.4448941194
 20
266.7260109838
 11
481.4449013089
 21
268.8882880429
  0
LINE
  5
350
100
AcDbEntity
  8
0
100
AcDbLine
 62
7
  6
BYLAYER
 10
481.6921305116
 20
293.6072149914
 11
481.027056717
 21
293.2970859877
  0
LINE
  5
351
100
AcDbEntity
  8
0
100
AcDbLine
 62
7
  6
BYLAYER
 10
481.8611891122
 20
293.2446971441
 11
481.4448927939
 21
293.0505710457
  0
LINE
  5
352
100
AcDbEntity
  8
0
100
AcDbLine
 62
7
  6
BYLAYER
 10
462.0964547435
 20
576.9332632306
 11
464.0964547435
 21
576.9332632306
  0
LINE
  5
353
100
AcDbEntity
  8
0
100
AcDbLine
 62
7
  6
BYLAYER
 10
492.0964547435
 20
576.9332632306
 11
512.0964547435
 21
576.9332632306
  0
LINE
  5
354
100
AcDbEntity
  8
0
100
AcDbLine
 62
7
  6
BYLAYER
 10
462.0964547435
 20
576.9335602764
 11
464.5964547435
 21
576.9335602764
  0
LINE
  5
355
100
AcDbEntity
  8
0
100
AcDbLine
 62
7
  6
BYLAYER
 10
490.5964547435
 20
576.9335602764
 11
512.0964547435
 21
576.9335602764
  0
LINE
  5
356
100
AcDbEntity
  8
0
100
AcDbLine
 62
7
  6
BYLAYER
 10
112.0964547436
 20
576.9400154029
 11
109.5964547436
 21
576.9400154029
  0
LINE
  5
357
100
AcDbEntity
  8
0
100
AcDbLine
 62
7
  6
BYLAYER
 10
83.5964547436
 20
576.9400154029
 11
62.0964547436
 21
576.9400154029
  0
LINE
  5
358
100
AcDbEntity
  8
0
100
AcDbLine
 62
7
  6
BYLAYER
 10
462.0964547435
 20
579.4335602764
 11
512.0964547435
 21
579.4335602764
  0
LINE
  5
359
100
AcDbEntity
  8
0
100
AcDbLine
 62
7
  6
BYLAYER
 10
62.0964547436
 20
579.4400154029
 11
112.0964547436
 21
579.4400154029
  0
LINE
  5
35A
100
AcDbEntity
  8
0
100
AcDbLine
 62
7
  6
BYLAYER
 10
462.5964547435
 20
579.9335602764
 11
511.5964547435
 21
579.9335602764
  0
LINE
  5
35B
100
AcDbEntity
  8
0
100
AcDbLine
 62
7
  6
BYLAYER
 10
62.5964547436
 20
579.9400154029
 11
111.5964547436
 21
579.9400154029
  0
LINE
  5
35C
100
AcDbEntity
  8
0
100
AcDbLine
 62
7
  6
BYLAYER
 10
481.0047044746
 20
516.4794956006
 11
481.6697746831
 21
516.1693682692
  0
LINE
  5
35D
100
AcDbEntity
  8
0
100
AcDbLine
 62
7
  6
BYLAYER
 10
481.4225382909
 20
516.7260109838
 11
481.838833284
 21
516.5318861164
  0
LINE
  5
35E
100
AcDbEntity
  8
0
100
AcDbLine
 62
7
  6
BYLAYER
 10
482.2725787966
 20
537.8349959527
 11
482.2725778
 21
521.9415930044
  0
LINE
  5
35F
100
AcDbEntity
  8
0
100
AcDbLine
 62
7
  6
BYLAYER
 10
482.294934625
 20
287.8349959527
 11
482.2949336285
 21
271.9415930044
  0
LINE
  5
360
100
AcDbEntity
  8
0
100
AcDbLine
 62
7
  6
BYLAYER
 10
482.8049593117
 20
540.9242123766
 11
482.8049593117
 21
540.8523708839
  0
LINE
  5
361
100
AcDbEntity
  8
0
100
AcDbLine
 62
7
  6
BYLAYER
 10
482.8049593117
 20
518.9242123765
 11
482.8049593117
 21
518.8523708839
  0
LINE
  5
362
100
AcDbEntity
  8
0
100
AcDbLine
 62
7
  6
BYLAYER
 10
482.8273151401
 20
290.9242123765
 11
482.8273151401
 21
290.8523708839
  0
LINE
  5
363
100
AcDbEntity
  8
0
100
AcDbLine
 62
7
  6
BYLAYER
 10
482.8273151401
 20
268.9242123765
 11
482.8273151401
 21
268.8523708839
  0
LINE
  5
364
100
AcDbEntity
  8
0
100
AcDbLine
 62
7
  6
BYLAYER
 10
482.9376294684
 20
515.8882916303
 11
482.9376294684
 21
516.2882916303
  0
LINE
  5
365
100
AcDbEntity
  8
0
100
AcDbLine
 62
7
  6
BYLAYER
 10
482.9376294684
 20
543.4882916303
 11
482.9376294684
 21
543.8882916303
  0
LINE
  5
366
100
AcDbEntity
  8
0
100
AcDbLine
 62
7
  6
BYLAYER
 10
482.9599852968
 20
265.8882916303
 11
482.9599852968
 21
266.2882916303
  0
LINE
  5
367
100
AcDbEntity
  8
0
100
AcDbLine
 62
7
  6
BYLAYER
 10
482.9599852968
 20
293.4882916303
 11
482.9599852968
 21
293.8882916303
  0
LINE
  5
368
100
AcDbEntity
  8
0
100
AcDbLine
 62
7
  6
BYLAYER
 10
483.9866247341
 20
542.0757006638
 11
483.9866247341
 21
541.5908790432
  0
LINE
  5
369
100
AcDbEntity
  8
0
100
AcDbLine
 62
7
  6
BYLAYER
 10
483.9866247341
 20
540.1857042173
 11
483.9866247341
 21
539.7008825967
  0
LINE
  5
36A
100
AcDbEntity
  8
0
100
AcDbLine
 62
7
  6
BYLAYER
 10
483.9866247341
 20
520.0757006637
 11
483.9866247341
 21
519.5908790432
  0
LINE
  5
36B
100
AcDbEntity
  8
0
100
AcDbLine
 62
7
  6
BYLAYER
 10
483.9866247341
 20
518.1857042172
 11
483.9866247341
 21
517.7008825967
  0
LINE
  5
36C
100
AcDbEntity
  8
0
100
AcDbLine
 62
7
  6
BYLAYER
 10
484.0089805626
 20
292.0757006638
 11
484.0089805626
 21
291.5908790432
  0
LINE
  5
36D
100
AcDbEntity
  8
0
100
AcDbLine
 62
7
  6
BYLAYER
 10
484.0089805626
 20
290.1857042173
 11
484.0089805626
 21
289.7008825967
  0
LINE
  5
36E
100
AcDbEntity
  8
0
100
AcDbLine
 62
7
  6
BYLAYER
 10
484.0089805626
 20
270.0757006637
 11
484.0089805626
 21
269.5908790432
  0
LINE
  5
36F
100
AcDbEntity
  8
0
100
AcDbLine
 62
7
  6
BYLAYER
 10
484.0089805626
 20
268.1857042172
 11
484.0089805626
 21
267.7008825967
  0
LINE
  5
370
100
AcDbEntity
  8
0
100
AcDbLine
 62
7
  6
BYLAYER
 10
484.1571149153
 20
579.4335602764
 11
484.1571149153
 21
573.9335602764
  0
LINE
  5
371
100
AcDbEntity
  8
0
100
AcDbLine
 62
7
  6
BYLAYER
 10
484.5584662268
 20
517.7008825967
 11
484.5584662268
 21
518.1857042172
  0
LINE
  5
372
100
AcDbEntity
  8
0
100
AcDbLine
 62
7
  6
BYLAYER
 10
484.5584662268
 20
519.5908790432
 11
484.5584662268
 21
520.0757006637
  0
LINE
  5
373
100
AcDbEntity
  8
0
100
AcDbLine
 62
7
  6
BYLAYER
 10
484.5584662268
 20
539.7008825967
 11
484.5584662268
 21
540.1857042173
  0
LINE
  5
374
100
AcDbEntity
  8
0
100
AcDbLine
 62
7
  6
BYLAYER
 10
484.5584662268
 20
541.5908790432
 11
484.5584662268
 21
542.0757006638
  0
LINE
  5
375
100
AcDbEntity
  8
0
100
AcDbLine
 62
7
  6
BYLAYER
 10
484.5808220552
 20
267.7008825967
 11
484.5808220552
 21
268.1857042172
  0
LINE
  5
376
100
AcDbEntity
  8
0
100
AcDbLine
 62
7
  6
BYLAYER
 10
484.5808220552
 20
269.5908790432
 11
484.5808220552
 21
270.0757006637
  0
LINE
  5
377
100
AcDbEntity
  8
0
100
AcDbLine
 62
7
  6
BYLAYER
 10
484.5808220552
 20
289.7008825967
 11
484.5808220552
 21
290.1857042173
  0
LINE
  5
378
100
AcDbEntity
  8
0
100
AcDbLine
 62
7
  6
BYLAYER
 10
484.5808220552
 20
291.5908790432
 11
484.5808220552
 21
292.0757006638
  0
LINE
  5
379
100
AcDbEntity
  8
0
100
AcDbLine
 62
7
  6
BYLAYER
 10
484.5964547435
 20
226.9332632306
 11
484.5964547435
 21
219.9332632306
  0
LINE
  5
37A
100
AcDbEntity
  8
0
100
AcDbLine
 62
7
  6
BYLAYER
 10
485.2177750871
 20
573.9335602764
 11
485.2177750871
 21
579.9335602764
  0
LINE
  5
37B
100
AcDbEntity
  8
0
100
AcDbLine
 62
7
  6
BYLAYER
 10
485.6797773787
 20
518.8523708839
 11
485.6797773787
 21
518.9242123765
  0
LINE
  5
37C
100
AcDbEntity
  8
0
100
AcDbLine
 62
7
  6
BYLAYER
 10
485.6797773787
 20
540.8523708839
 11
485.6797773787
 21
540.9242123766
  0
LINE
  5
37D
100
AcDbEntity
  8
0
100
AcDbLine
 62
7
  6
BYLAYER
 10
485.7021332072
 20
268.8523708839
 11
485.7021332072
 21
268.9242123765
  0
LINE
  5
37E
100
AcDbEntity
  8
0
100
AcDbLine
 62
7
  6
BYLAYER
 10
485.7021332071
 20
290.8523708839
 11
485.7021332071
 21
290.9242123765
  0
LINE
  5
37F
100
AcDbEntity
  8
0
100
AcDbLine
 62
7
  6
BYLAYER
 10
486.9464547435
 20
573.9335602764
 11
486.9464547435
 21
543.8882916303
  0
LINE
  5
380
100
AcDbEntity
  8
0
100
AcDbLine
 62
7
  6
BYLAYER
 10
486.9464547435
 20
515.8882916303
 11
486.9464547435
 21
293.8882916303
  0
LINE
  5
381
100
AcDbEntity
  8
0
100
AcDbLine
 62
7
  6
BYLAYER
 10
486.9464547435
 20
265.8882916303
 11
486.9464547435
 21
226.9332632306
  0
LINE
  5
382
100
AcDbEntity
  8
0
100
AcDbLine
 62
7
  6
BYLAYER
 10
487.0964547435
 20
231.5471646964
 11
487.0964547435
 21
229.9471646964
  0
LINE
  5
383
100
AcDbEntity
  8
0
100
AcDbLine
 62
7
  6
BYLAYER
 10
487.1225454804
 20
543.8882916303
 11
487.1225454804
 21
540.8882952176
  0
LINE
  5
384
100
AcDbEntity
  8
0
100
AcDbLine
 62
7
  6
BYLAYER
 10
487.1225454804
 20
518.888287762
 11
487.1225454804
 21
515.8882916303
  0
LINE
  5
385
100
AcDbEntity
  8
0
100
AcDbLine
 62
7
  6
BYLAYER
 10
487.1449013089
 20
293.8882916303
 11
487.1449013089
 21
290.8882952176
  0
LINE
  5
386
100
AcDbEntity
  8
0
100
AcDbLine
 62
7
  6
BYLAYER
 10
487.1449013089
 20
268.888287762
 11
487.1449013089
 21
265.8882916303
  0
LINE
  5
387
100
AcDbEntity
  8
0
100
AcDbLine
 62
7
  6
BYLAYER
 10
487.3069810593
 20
231.5731693442
 11
487.3069810593
 21
235.7836956599
  0
LINE
  5
388
100
AcDbEntity
  8
0
100
AcDbLine
 62
7
  6
BYLAYER
 10
487.4464547435
 20
226.9332632306
 11
487.4464547435
 21
229.9471646964
  0
LINE
  5
389
100
AcDbEntity
  8
0
100
AcDbLine
 62
7
  6
BYLAYER
 10
487.4464547435
 20
235.7836956599
 11
487.4464547435
 21
265.8882916303
  0
LINE
  5
38A
100
AcDbEntity
  8
0
100
AcDbLine
 62
7
  6
BYLAYER
 10
487.4464547435
 20
293.8882916303
 11
487.4464547435
 21
515.8882916303
  0
LINE
  5
38B
100
AcDbEntity
  8
0
100
AcDbLine
 62
7
  6
BYLAYER
 10
487.4464547435
 20
543.8882916303
 11
487.4464547435
 21
573.9335602764
  0
LINE
  5
38C
100
AcDbEntity
  8
0
100
AcDbLine
 62
7
  6
BYLAYER
 10
487.5225454804
 20
516.319241824
 11
487.5225454804
 21
518.8882916302
  0
LINE
  5
38D
100
AcDbEntity
  8
0
100
AcDbLine
 62
7
  6
BYLAYER
 10
487.5225454804
 20
540.8882916304
 11
487.5225454804
 21
543.4573410202
  0
LINE
  5
38E
100
AcDbEntity
  8
0
100
AcDbLine
 62
7
  6
BYLAYER
 10
487.5449013089
 20
266.319241824
 11
487.5449013089
 21
268.8882916302
  0
LINE
  5
38F
100
AcDbEntity
  8
0
100
AcDbLine
 62
7
  6
BYLAYER
 10
487.5449013089
 20
290.8882916304
 11
487.5449013089
 21
293.4573410202
  0
LINE
  5
390
100
AcDbEntity
  8
0
100
AcDbLine
 62
7
  6
BYLAYER
 10
487.9225454804
 20
515.9240068083
 11
487.9225454804
 21
518.8882916303
  0
LINE
  5
391
100
AcDbEntity
  8
0
100
AcDbLine
 62
7
  6
BYLAYER
 10
487.9225454804
 20
540.8882916303
 11
487.9225454804
 21
543.8525764552
  0
LINE
  5
392
100
AcDbEntity
  8
0
100
AcDbLine
 62
7
  6
BYLAYER
 10
487.9449013089
 20
265.9240068083
 11
487.9449013089
 21
268.8882916303
  0
LINE
  5
393
100
AcDbEntity
  8
0
100
AcDbLine
 62
7
  6
BYLAYER
 10
487.9449013089
 20
290.8882916303
 11
487.9449013089
 21
293.8525764552
  0
LINE
  5
394
100
AcDbEntity
  8
0
100
AcDbLine
 62
7
  6
BYLAYER
 10
488.0964547435
 20
237.7836956599
 11
488.0964547435
 21
235.7836956599
  0
LINE
  5
395
100
AcDbEntity
  8
0
100
AcDbLine
 62
7
  6
BYLAYER
 10
488.0964547435
 20
218.0992002834
 11
488.0964547435
 21
219.5992002834
  0
LINE
  5
396
100
AcDbEntity
  8
0
100
AcDbLine
 62
7
  6
BYLAYER
 10
490.2017179014
 20
231.5731693442
 11
490.2017179014
 21
235.7836956599
  0
LINE
  5
397
100
AcDbEntity
  8
0
100
AcDbLine
 62
7
  6
BYLAYER
 10
490.5964547435
 20
579.9335602764
 11
490.5964547435
 21
573.9335602764
  0
LINE
  5
398
100
AcDbEntity
  8
0
100
AcDbLine
 62
7
  6
BYLAYER
 10
490.5964547435
 20
219.5992002834
 11
490.5964547435
 21
219.9332632306
  0
LINE
  5
399
100
AcDbEntity
  8
0
100
AcDbLine
 62
7
  6
BYLAYER
 10
490.5964547435
 20
226.9332632306
 11
490.5964547435
 21
229.9471646964
  0
LINE
  5
39A
100
AcDbEntity
  8
0
100
AcDbLine
 62
7
  6
BYLAYER
 10
490.5964547435
 20
231.5471646964
 11
490.5964547435
 21
231.5731693442
  0
LINE
  5
39B
100
AcDbEntity
  8
0
100
AcDbLine
 62
7
  6
BYLAYER
 10
491.0964547435
 20
579.4335602764
 11
491.0964547435
 21
576.9335602764
  0
LINE
  5
39C
100
AcDbEntity
  8
0
100
AcDbLine
 62
7
  6
BYLAYER
 10
491.0964547435
 20
576.9332632306
 11
491.0964547435
 21
219.9332632306
  0
LINE
  5
39D
100
AcDbEntity
  8
0
100
AcDbLine
 62
7
  6
BYLAYER
 10
492.0964547435
 20
576.9335602764
 11
492.0964547435
 21
579.9335602764
  0
LINE
  5
39E
100
AcDbEntity
  8
0
100
AcDbLine
 62
7
  6
BYLAYER
 10
492.5964547435
 20
219.9332632306
 11
492.5964547435
 21
576.9332632306
  0
LINE
  5
39F
100
AcDbEntity
  8
0
100
AcDbLine
 62
7
  6
BYLAYER
 10
495.5964547435
 20
219.9332632306
 11
495.5964547435
 21
219.5992002834
  0
LINE
  5
3A0
100
AcDbEntity
  8
0
100
AcDbLine
 62
7
  6
BYLAYER
 10
498.0964547435
 20
219.5992002834
 11
498.0964547435
 21
218.0992002834
  0
LINE
  5
3A1
100
AcDbEntity
  8
0
100
AcDbLine
 62
7
  6
BYLAYER
 10
481.4449013089
 20
293.0505789794
 11
481.3204974272
 21
292.9345579815
  0
LINE
  5
3A2
100
AcDbEntity
  8
0
100
AcDbLine
 62
7
  6
BYLAYER
 10
508.5964547435
 20
579.9335602764
 11
508.5964547435
 21
576.9335602764
  0
LINE
  5
3A3
100
AcDbEntity
  8
0
100
AcDbLine
 62
7
  6
BYLAYER
 10
508.5964547435
 20
576.9332632306
 11
508.5964547435
 21
219.9332632306
  0
LINE
  5
3A4
100
AcDbEntity
  8
0
100
AcDbLine
 62
7
  6
BYLAYER
 10
512.0964547435
 20
219.9332632306
 11
512.0964547435
 21
576.9332632306
  0
LINE
  5
3A5
100
AcDbEntity
  8
0
100
AcDbLine
 62
7
  6
BYLAYER
 10
512.0964547435
 20
576.9335602764
 11
512.0964547435
 21
579.4335602764
  0
LINE
  5
3A6
100
AcDbEntity
  8
0
100
AcDbLine
 62
7
  6
BYLAYER
 10
481.275853951
 20
266.3634812173
 11
481.4449018923
 21
266.7260056972
  0
LINE
  5
3A7
100
AcDbEntity
  8
0
100
AcDbLine
 62
7
  6
BYLAYER
 10
481.8611784529
 20
266.5318927491
 11
481.6921305116
 21
266.1693682692
  0
LINE
  5
3A8
100
AcDbEntity
  8
0
100
AcDbLine
 62
7
  6
BYLAYER
 10
482.2949012966
 20
287.8350152423
 11
482.514079163
 21
288.1696205423
  0
LINE
  5
3A9
100
AcDbEntity
  8
0
100
AcDbLine
 62
7
  6
BYLAYER
 10
481.298135139
 20
516.8420312978
 11
481.4225454804
 21
516.7260042848
  0
LINE
  5
3AA
100
AcDbEntity
  8
0
100
AcDbLine
 62
7
  6
BYLAYER
 10
482.4917235623
 20
521.6069628674
 11
482.2725457333
 21
521.9415681715
  0
LINE
  5
3AB
100
AcDbEntity
  8
0
100
AcDbLine
 62
7
  6
BYLAYER
 10
481.4225460573
 20
543.0505772538
 11
481.2534979987
 21
543.4131019855
  0
LINE
  5
3AC
100
AcDbEntity
  8
0
100
AcDbLine
 62
7
  6
BYLAYER
 10
481.6697746832
 20
543.6072149914
 11
481.8388227418
 21
543.2446902597
  0
LINE
  5
3AD
100
AcDbEntity
  8
0
100
AcDbLine
 62
7
  6
BYLAYER
 10
512.0964547435
 20
579.4335602764
 11
511.5964547435
 21
579.9335602764
  0
ARC
  5
3AE
100
AcDbEntity
  8
0
100
AcDbCircle
 62
7
  6
BYLAYER
 10
81.0964547435
 20
236.5800465773
 40
4.4217881419
100
AcDbArc
 50
15.3503412997
 51
62.9504377407
  0
ARC
  5
3AF
100
AcDbEntity
  8
0
100
AcDbCircle
 62
7
  6
BYLAYER
 10
89.6043993879
 20
268.8934013668
 40
4.2198107889
100
AcDbArc
 50
0.0050612118
 51
4.8696947738
  0
ARC
  5
3B0
100
AcDbEntity
  8
0
100
AcDbCircle
 62
7
  6
BYLAYER
 10
89.9203640066
 20
268.9414870032
 40
3.6499995549
100
AcDbArc
 50
56.7744393816
 51
179.9999999978
  0
ARC
  5
3B1
100
AcDbEntity
  8
0
100
AcDbCircle
 62
7
  6
BYLAYER
 10
89.9203640066
 20
268.9414870032
 40
3.25
100
AcDbArc
 50
359.9992827393
 51
180.0000000026
  0
ARC
  5
3B2
100
AcDbEntity
  8
0
100
AcDbCircle
 62
7
  6
BYLAYER
 10
89.9203640066
 20
268.9414870032
 40
2.8499996326
100
AcDbArc
 50
359.9999222308
 51
180.0000721184
  0
CIRCLE
  5
3B3
100
AcDbEntity
  8
0
100
AcDbCircle
 62
7
  6
BYLAYER
 10
89.9203640066
 20
268.9414870033
 40
2.5
  0
CIRCLE
  5
3B4
100
AcDbEntity
  8
0
100
AcDbCircle
 62
7
  6
BYLAYER
 10
89.9203640066
 20
268.9414870033
 40
1.6666666667
  0
ARC
  5
3B5
100
AcDbEntity
  8
0
100
AcDbCircle
 62
7
  6
BYLAYER
 10
89.2177765936
 20
269.6440744163
 40
0.4166666667
100
AcDbArc
 50
269.9999999964
 51
360.0
  0
ARC
  5
3B6
100
AcDbEntity
  8
0
100
AcDbCircle
 62
7
  6
BYLAYER
 10
89.2177765936
 20
268.2388995903
 40
0.4166666667
100
AcDbArc
 50
0.0
 51
90.0000000033
  0
ARC
  5
3B7
100
AcDbEntity
  8
0
100
AcDbCircle
 62
7
  6
BYLAYER
 10
88.7631321084
 20
268.9774077496
 40
0.25
100
AcDbArc
 50
90.0
 51
180.0
  0
ARC
  5
3B8
100
AcDbEntity
  8
0
100
AcDbCircle
 62
7
  6
BYLAYER
 10
88.7631321084
 20
268.905566257
 40
0.25
100
AcDbArc
 50
180.0
 51
270.0
  0
ARC
  5
3B9
100
AcDbEntity
  8
0
100
AcDbCircle
 62
7
  6
BYLAYER
 10
89.8844432603
 20
267.7540779698
 40
0.25
100
AcDbArc
 50
180.0
 51
270.0
  0
ARC
  5
3BA
100
AcDbEntity
  8
0
100
AcDbCircle
 62
7
  6
BYLAYER
 10
89.9562847529
 20
267.7540779698
 40
0.25
100
AcDbArc
 50
270.0
 51
360.0
  0
ARC
  5
3BB
100
AcDbEntity
  8
0
100
AcDbCircle
 62
7
  6
BYLAYER
 10
89.9562847529
 20
270.1288960368
 40
0.25
100
AcDbArc
 50
0.0
 51
90.0
  0
ARC
  5
3BC
100
AcDbEntity
  8
0
100
AcDbCircle
 62
7
  6
BYLAYER
 10
89.8844432603
 20
270.1288960368
 40
0.25
100
AcDbArc
 50
90.0
 51
180.0
  0
ARC
  5
3BD
100
AcDbEntity
  8
0
100
AcDbCircle
 62
7
  6
BYLAYER
 10
89.6102692225
 20
290.989291372
 40
4.2139409389
100
AcDbArc
 50
355.1273437232
 51
359.9987560697
  0
ARC
  5
3BE
100
AcDbEntity
  8
0
100
AcDbCircle
 62
7
  6
BYLAYER
 10
89.9203640066
 20
290.9414870032
 40
3.6499995378
100
AcDbArc
 50
180.0000000058
 51
303.2255247079
  0
ARC
  5
3BF
100
AcDbEntity
  8
0
100
AcDbCircle
 62
7
  6
BYLAYER
 10
89.9203640066
 20
290.9414870032
 40
3.25
100
AcDbArc
 50
179.9999999965
 51
0.0000618108
  0
ARC
  5
3C0
100
AcDbEntity
  8
0
100
AcDbCircle
 62
7
  6
BYLAYER
 10
89.9203640066
 20
290.9414870032
 40
2.8499996326
100
AcDbArc
 50
179.9999222335
 51
0.0000721208
  0
CIRCLE
  5
3C1
100
AcDbEntity
  8
0
100
AcDbCircle
 62
7
  6
BYLAYER
 10
89.9203640066
 20
290.9414870033
 40
2.5
  0
CIRCLE
  5
3C2
100
AcDbEntity
  8
0
100
AcDbCircle
 62
7
  6
BYLAYER
 10
89.9203640066
 20
290.9414870033
 40
1.6666666667
  0
ARC
  5
3C3
100
AcDbEntity
  8
0
100
AcDbCircle
 62
7
  6
BYLAYER
 10
89.2177765936
 20
291.6440744163
 40
0.4166666667
100
AcDbArc
 50
269.9999999967
 51
360.0
  0
ARC
  5
3C4
100
AcDbEntity
  8
0
100
AcDbCircle
 62
7
  6
BYLAYER
 10
89.2177765936
 20
290.2388995904
 40
0.4166666667
100
AcDbArc
 50
0.0
 51
90.0000000033
  0
ARC
  5
3C5
100
AcDbEntity
  8
0
100
AcDbCircle
 62
7
  6
BYLAYER
 10
88.7631321084
 20
290.9774077497
 40
0.25
100
AcDbArc
 50
90.0
 51
180.0000000002
  0
ARC
  5
3C6
100
AcDbEntity
  8
0
100
AcDbCircle
 62
7
  6
BYLAYER
 10
88.7631321084
 20
290.905566257
 40
0.25
100
AcDbArc
 50
179.9999999998
 51
270.0
  0
ARC
  5
3C7
100
AcDbEntity
  8
0
100
AcDbCircle
 62
7
  6
BYLAYER
 10
89.8844432603
 20
289.7540779698
 40
0.25
100
AcDbArc
 50
180.0
 51
270.0
  0
ARC
  5
3C8
100
AcDbEntity
  8
0
100
AcDbCircle
 62
7
  6
BYLAYER
 10
89.9562847529
 20
289.7540779698
 40
0.25
100
AcDbArc
 50
270.0
 51
360.0
  0
ARC
  5
3C9
100
AcDbEntity
  8
0
100
AcDbCircle
 62
7
  6
BYLAYER
 10
89.9562847529
 20
292.1288960369
 40
0.25
100
AcDbArc
 50
0.0
 51
90.0
  0
ARC
  5
3CA
100
AcDbEntity
  8
0
100
AcDbCircle
 62
7
  6
BYLAYER
 10
89.8844432603
 20
292.1288960369
 40
0.25
100
AcDbArc
 50
90.0
 51
180.0
  0
ARC
  5
3CB
100
AcDbEntity
  8
0
100
AcDbCircle
 62
7
  6
BYLAYER
 10
91.9203640066
 20
269.2516207601
 40
3.0
100
AcDbArc
 50
294.9998925987
 51
360.0
  0
ARC
  5
3CC
100
AcDbEntity
  8
0
100
AcDbCircle
 62
7
  6
BYLAYER
 10
91.2552800187
 20
268.9414870032
 40
3.0
100
AcDbArc
 50
270.0
 51
295.0000000005
  0
ARC
  5
3CD
100
AcDbEntity
  8
0
100
AcDbCircle
 62
7
  6
BYLAYER
 10
91.2552800187
 20
268.9414870032
 40
2.6000009081
100
AcDbArc
 50
270.000274691
 51
294.9997253401
  0
ARC
  5
3CE
100
AcDbEntity
  8
0
100
AcDbCircle
 62
7
  6
BYLAYER
 10
90.6229514196
 20
268.2388995903
 40
0.4166666667
100
AcDbArc
 50
89.9999999967
 51
180.0
  0
ARC
  5
3CF
100
AcDbEntity
  8
0
100
AcDbCircle
 62
7
  6
BYLAYER
 10
90.6229514196
 20
269.6440744163
 40
0.4166666667
100
AcDbArc
 50
180.0
 51
270.0000000036
  0
ARC
  5
3D0
100
AcDbEntity
  8
0
100
AcDbCircle
 62
7
  6
BYLAYER
 10
91.1379501754
 20
268.905566257
 40
0.25
100
AcDbArc
 50
270.0
 51
360.0
  0
ARC
  5
3D1
100
AcDbEntity
  8
0
100
AcDbCircle
 62
7
  6
BYLAYER
 10
91.1379501754
 20
268.9774077496
 40
0.25
100
AcDbArc
 50
0.0
 51
90.0
  0
ARC
  5
3D2
100
AcDbEntity
  8
0
100
AcDbCircle
 62
7
  6
BYLAYER
 10
91.9203640066
 20
290.6313532464
 40
3.0
100
AcDbArc
 50
0.0
 51
65.0001451867
  0
ARC
  5
3D3
100
AcDbEntity
  8
0
100
AcDbCircle
 62
7
  6
BYLAYER
 10
91.2552800187
 20
290.9414870032
 40
3.0
100
AcDbArc
 50
64.9999999997
 51
90.0
  0
ARC
  5
3D4
100
AcDbEntity
  8
0
100
AcDbCircle
 62
7
  6
BYLAYER
 10
91.2552800187
 20
290.9414870032
 40
2.6000009081
100
AcDbArc
 50
65.0002746661
 51
89.999725309
  0
ARC
  5
3D5
100
AcDbEntity
  8
0
100
AcDbCircle
 62
7
  6
BYLAYER
 10
90.6229514196
 20
290.2388995904
 40
0.4166666667
100
AcDbArc
 50
89.9999999967
 51
180.0
  0
ARC
  5
3D6
100
AcDbEntity
  8
0
100
AcDbCircle
 62
7
  6
BYLAYER
 10
90.6229514196
 20
291.6440744163
 40
0.4166666667
100
AcDbArc
 50
180.0
 51
270.0000000033
  0
ARC
  5
3D7
100
AcDbEntity
  8
0
100
AcDbCircle
 62
7
  6
BYLAYER
 10
91.1379501754
 20
290.905566257
 40
0.25
100
AcDbArc
 50
270.0
 51
360.0
  0
ARC
  5
3D8
100
AcDbEntity
  8
0
100
AcDbCircle
 62
7
  6
BYLAYER
 10
91.1379501754
 20
290.9774077497
 40
0.25
100
AcDbArc
 50
0.0
 51
90.0
  0
ARC
  5
3D9
100
AcDbEntity
  8
0
100
AcDbCircle
 62
7
  6
BYLAYER
 10
89.5820435601
 20
518.8934013668
 40
4.2198107883
100
AcDbArc
 50
0.0050612114
 51
4.8696947741
  0
ARC
  5
3DA
100
AcDbEntity
  8
0
100
AcDbCircle
 62
7
  6
BYLAYER
 10
89.8980081781
 20
518.9414870032
 40
3.6499995549
100
AcDbArc
 50
56.7744393816
 51
179.9999999978
  0
ARC
  5
3DB
100
AcDbEntity
  8
0
100
AcDbCircle
 62
7
  6
BYLAYER
 10
89.8980081781
 20
518.9414870032
 40
3.25
100
AcDbArc
 50
359.9992827393
 51
180.0000000026
  0
ARC
  5
3DC
100
AcDbEntity
  8
0
100
AcDbCircle
 62
7
  6
BYLAYER
 10
89.8980081781
 20
518.9414870032
 40
2.8499996326
100
AcDbArc
 50
359.9999222308
 51
180.0000721184
  0
CIRCLE
  5
3DD
100
AcDbEntity
  8
0
100
AcDbCircle
 62
7
  6
BYLAYER
 10
89.8980081782
 20
518.9414870033
 40
2.5
  0
CIRCLE
  5
3DE
100
AcDbEntity
  8
0
100
AcDbCircle
 62
7
  6
BYLAYER
 10
89.8980081782
 20
518.9414870033
 40
1.6666666667
  0
ARC
  5
3DF
100
AcDbEntity
  8
0
100
AcDbCircle
 62
7
  6
BYLAYER
 10
89.1954207652
 20
519.6440744163
 40
0.4166666667
100
AcDbArc
 50
270.0000000069
 51
360.0
  0
ARC
  5
3E0
100
AcDbEntity
  8
0
100
AcDbCircle
 62
7
  6
BYLAYER
 10
89.1954207652
 20
518.2388995903
 40
0.4166666667
100
AcDbArc
 50
0.0
 51
90.0000000033
  0
ARC
  5
3E1
100
AcDbEntity
  8
0
100
AcDbCircle
 62
7
  6
BYLAYER
 10
88.7407762799
 20
518.9774077496
 40
0.25
100
AcDbArc
 50
90.0
 51
180.0
  0
ARC
  5
3E2
100
AcDbEntity
  8
0
100
AcDbCircle
 62
7
  6
BYLAYER
 10
88.7407762799
 20
518.905566257
 40
0.25
100
AcDbArc
 50
180.0
 51
270.0
  0
ARC
  5
3E3
100
AcDbEntity
  8
0
100
AcDbCircle
 62
7
  6
BYLAYER
 10
89.8620874318
 20
517.7540779698
 40
0.25
100
AcDbArc
 50
180.0
 51
270.0
  0
ARC
  5
3E4
100
AcDbEntity
  8
0
100
AcDbCircle
 62
7
  6
BYLAYER
 10
89.9339289245
 20
517.7540779698
 40
0.25
100
AcDbArc
 50
270.0
 51
360.0
  0
ARC
  5
3E5
100
AcDbEntity
  8
0
100
AcDbCircle
 62
7
  6
BYLAYER
 10
89.9339289245
 20
520.1288960368
 40
0.25
100
AcDbArc
 50
0.0
 51
90.0
  0
ARC
  5
3E6
100
AcDbEntity
  8
0
100
AcDbCircle
 62
7
  6
BYLAYER
 10
89.8620874318
 20
520.1288960368
 40
0.25
100
AcDbArc
 50
90.0
 51
180.0
  0
ARC
  5
3E7
100
AcDbEntity
  8
0
100
AcDbCircle
 62
7
  6
BYLAYER
 10
89.5879133934
 20
540.989291372
 40
4.2139409396
100
AcDbArc
 50
355.1273437235
 51
359.9987560693
  0
ARC
  5
3E8
100
AcDbEntity
  8
0
100
AcDbCircle
 62
7
  6
BYLAYER
 10
89.8980081781
 20
540.9414870032
 40
3.6499995378
100
AcDbArc
 50
180.0000000058
 51
303.2255247079
  0
ARC
  5
3E9
100
AcDbEntity
  8
0
100
AcDbCircle
 62
7
  6
BYLAYER
 10
89.8980081781
 20
540.9414870032
 40
3.25
100
AcDbArc
 50
179.9999999965
 51
0.0000618108
  0
ARC
  5
3EA
100
AcDbEntity
  8
0
100
AcDbCircle
 62
7
  6
BYLAYER
 10
89.8980081781
 20
540.9414870032
 40
2.8499996326
100
AcDbArc
 50
179.9999222335
 51
0.0000721208
  0
CIRCLE
  5
3EB
100
AcDbEntity
  8
0
100
AcDbCircle
 62
7
  6
BYLAYER
 10
89.8980081781
 20
540.9414870033
 40
2.5
  0
CIRCLE
  5
3EC
100
AcDbEntity
  8
0
100
AcDbCircle
 62
7
  6
BYLAYER
 10
89.8980081781
 20
540.9414870033
 40
1.6666666667
  0
ARC
  5
3ED
100
AcDbEntity
  8
0
100
AcDbCircle
 62
7
  6
BYLAYER
 10
89.1954207652
 20
541.6440744163
 40
0.4166666667
100
AcDbArc
 50
270.0000000071
 51
360.0
  0
ARC
  5
3EE
100
AcDbEntity
  8
0
100
AcDbCircle
 62
7
  6
BYLAYER
 10
89.1954207652
 20
540.2388995904
 40
0.4166666667
100
AcDbArc
 50
0.0
 51
90.0000000033
  0
ARC
  5
3EF
100
AcDbEntity
  8
0
100
AcDbCircle
 62
7
  6
BYLAYER
 10
88.7407762799
 20
540.9774077497
 40
0.25
100
AcDbArc
 50
90.0
 51
180.0000000002
  0
ARC
  5
3F0
100
AcDbEntity
  8
0
100
AcDbCircle
 62
7
  6
BYLAYER
 10
88.7407762799
 20
540.905566257
 40
0.25
100
AcDbArc
 50
179.9999999998
 51
270.0
  0
ARC
  5
3F1
100
AcDbEntity
  8
0
100
AcDbCircle
 62
7
  6
BYLAYER
 10
89.8620874318
 20
539.7540779698
 40
0.25
100
AcDbArc
 50
180.0
 51
270.0
  0
ARC
  5
3F2
100
AcDbEntity
  8
0
100
AcDbCircle
 62
7
  6
BYLAYER
 10
89.9339289244
 20
539.7540779698
 40
0.25
100
AcDbArc
 50
270.0
 51
360.0
  0
ARC
  5
3F3
100
AcDbEntity
  8
0
100
AcDbCircle
 62
7
  6
BYLAYER
 10
89.9339289244
 20
542.1288960369
 40
0.25
100
AcDbArc
 50
0.0
 51
90.0
  0
ARC
  5
3F4
100
AcDbEntity
  8
0
100
AcDbCircle
 62
7
  6
BYLAYER
 10
89.8620874318
 20
542.1288960369
 40
0.25
100
AcDbArc
 50
90.0
 51
180.0
  0
ARC
  5
3F5
100
AcDbEntity
  8
0
100
AcDbCircle
 62
7
  6
BYLAYER
 10
91.8980081781
 20
519.2516207601
 40
3.0
100
AcDbArc
 50
294.9998925987
 51
360.0
  0
ARC
  5
3F6
100
AcDbEntity
  8
0
100
AcDbCircle
 62
7
  6
BYLAYER
 10
91.2329241902
 20
518.9414870032
 40
3.0
100
AcDbArc
 50
270.0
 51
295.0000000005
  0
ARC
  5
3F7
100
AcDbEntity
  8
0
100
AcDbCircle
 62
7
  6
BYLAYER
 10
91.2329241902
 20
518.9414870032
 40
2.6000009081
100
AcDbArc
 50
270.000274691
 51
294.9997253401
  0
ARC
  5
3F8
100
AcDbEntity
  8
0
100
AcDbCircle
 62
7
  6
BYLAYER
 10
90.6005955911
 20
518.2388995903
 40
0.4166666667
100
AcDbArc
 50
89.9999999967
 51
180.0
  0
ARC
  5
3F9
100
AcDbEntity
  8
0
100
AcDbCircle
 62
7
  6
BYLAYER
 10
90.6005955911
 20
519.6440744163
 40
0.4166666667
100
AcDbArc
 50
180.0
 51
269.9999999931
  0
ARC
  5
3FA
100
AcDbEntity
  8
0
100
AcDbCircle
 62
7
  6
BYLAYER
 10
91.1155943469
 20
518.905566257
 40
0.25
100
AcDbArc
 50
270.0
 51
360.0
  0
ARC
  5
3FB
100
AcDbEntity
  8
0
100
AcDbCircle
 62
7
  6
BYLAYER
 10
91.1155943469
 20
518.9774077496
 40
0.25
100
AcDbArc
 50
0.0
 51
90.0
  0
ARC
  5
3FC
100
AcDbEntity
  8
0
100
AcDbCircle
 62
7
  6
BYLAYER
 10
91.8980081781
 20
540.6313532464
 40
3.0
100
AcDbArc
 50
0.0
 51
65.0001451867
  0
ARC
  5
3FD
100
AcDbEntity
  8
0
100
AcDbCircle
 62
7
  6
BYLAYER
 10
91.2329241902
 20
540.9414870032
 40
3.0
100
AcDbArc
 50
64.9999999997
 51
90.0
  0
ARC
  5
3FE
100
AcDbEntity
  8
0
100
AcDbCircle
 62
7
  6
BYLAYER
 10
91.2329241902
 20
540.9414870032
 40
2.6000009081
100
AcDbArc
 50
65.0002746661
 51
89.999725309
  0
ARC
  5
3FF
100
AcDbEntity
  8
0
100
AcDbCircle
 62
7
  6
BYLAYER
 10
90.6005955911
 20
540.2388995904
 40
0.4166666667
100
AcDbArc
 50
89.9999999967
 51
180.0
  0
ARC
  5
400
100
AcDbEntity
  8
0
100
AcDbCircle
 62
7
  6
BYLAYER
 10
90.6005955911
 20
541.6440744163
 40
0.4166666667
100
AcDbArc
 50
180.0
 51
269.9999999929
  0
ARC
  5
401
100
AcDbEntity
  8
0
100
AcDbCircle
 62
7
  6
BYLAYER
 10
91.1155943469
 20
540.905566257
 40
0.25
100
AcDbArc
 50
270.0
 51
360.0
  0
ARC
  5
402
100
AcDbEntity
  8
0
100
AcDbCircle
 62
7
  6
BYLAYER
 10
91.1155943469
 20
540.9774077497
 40
0.25
100
AcDbArc
 50
0.0
 51
90.0
  0
ARC
  5
403
100
AcDbEntity
  8
0
100
AcDbCircle
 62
7
  6
BYLAYER
 10
482.2949013089
 20
269.1984253872
 40
3.0
100
AcDbArc
 50
180.0
 51
245.0001451867
  0
ARC
  5
404
100
AcDbEntity
  8
0
100
AcDbCircle
 62
7
  6
BYLAYER
 10
482.9599852968
 20
268.8882916303
 40
3.0
100
AcDbArc
 50
244.9999999997
 51
270.0
  0
ARC
  5
405
100
AcDbEntity
  8
0
100
AcDbCircle
 62
7
  6
BYLAYER
 10
482.9599852968
 20
268.8882916303
 40
2.6000009081
100
AcDbArc
 50
245.0002746661
 51
269.999725309
  0
ARC
  5
406
100
AcDbEntity
  8
0
100
AcDbCircle
 62
7
  6
BYLAYER
 10
483.5923138959
 20
269.5908790432
 40
0.4166666667
100
AcDbArc
 50
270.0000000071
 51
360.0
  0
ARC
  5
407
100
AcDbEntity
  8
0
100
AcDbCircle
 62
7
  6
BYLAYER
 10
483.5923138959
 20
268.1857042172
 40
0.4166666667
100
AcDbArc
 50
0.0
 51
90.0000000033
  0
ARC
  5
408
100
AcDbEntity
  8
0
100
AcDbCircle
 62
7
  6
BYLAYER
 10
483.0773151401
 20
268.9242123765
 40
0.25
100
AcDbArc
 50
90.0
 51
180.0
  0
ARC
  5
409
100
AcDbEntity
  8
0
100
AcDbCircle
 62
7
  6
BYLAYER
 10
483.0773151401
 20
268.8523708839
 40
0.25
100
AcDbArc
 50
180.0
 51
270.0
  0
ARC
  5
40A
100
AcDbEntity
  8
0
100
AcDbCircle
 62
7
  6
BYLAYER
 10
482.2949013089
 20
290.5781578734
 40
3.0
100
AcDbArc
 50
114.9998925986
 51
180.0
  0
ARC
  5
40B
100
AcDbEntity
  8
0
100
AcDbCircle
 62
7
  6
BYLAYER
 10
482.9599852968
 20
290.8882916303
 40
3.0
100
AcDbArc
 50
90.0
 51
115.0000000005
  0
ARC
  5
40C
100
AcDbEntity
  8
0
100
AcDbCircle
 62
7
  6
BYLAYER
 10
482.9599852968
 20
290.8882916303
 40
2.6000009081
100
AcDbArc
 50
90.000274691
 51
114.9997253401
  0
ARC
  5
40D
100
AcDbEntity
  8
0
100
AcDbCircle
 62
7
  6
BYLAYER
 10
483.5923138959
 20
291.5908790432
 40
0.4166666667
100
AcDbArc
 50
269.9999999967
 51
360.0
  0
ARC
  5
40E
100
AcDbEntity
  8
0
100
AcDbCircle
 62
7
  6
BYLAYER
 10
483.5923138959
 20
290.1857042173
 40
0.4166666667
100
AcDbArc
 50
0.0
 51
90.0000000033
  0
ARC
  5
40F
100
AcDbEntity
  8
0
100
AcDbCircle
 62
7
  6
BYLAYER
 10
483.0773151401
 20
290.9242123765
 40
0.25
100
AcDbArc
 50
90.0
 51
180.0
  0
ARC
  5
410
100
AcDbEntity
  8
0
100
AcDbCircle
 62
7
  6
BYLAYER
 10
483.0773151401
 20
290.8523708839
 40
0.25
100
AcDbArc
 50
180.0
 51
270.0
  0
ARC
  5
411
100
AcDbEntity
  8
0
100
AcDbCircle
 62
7
  6
BYLAYER
 10
484.6049960921
 20
268.8404872616
 40
4.213940938
100
AcDbArc
 50
175.1273437227
 51
179.9987560699
  0
ARC
  5
412
100
AcDbEntity
  8
0
100
AcDbCircle
 62
7
  6
BYLAYER
 10
484.2949013089
 20
268.8882916303
 40
3.6499995378
100
AcDbArc
 50
0.0000000058
 51
123.2255247079
  0
ARC
  5
413
100
AcDbEntity
  8
0
100
AcDbCircle
 62
7
  6
BYLAYER
 10
484.2949013089
 20
268.8882916303
 40
3.25
100
AcDbArc
 50
0.0
 51
180.0000618108
  0
ARC
  5
414
100
AcDbEntity
  8
0
100
AcDbCircle
 62
7
  6
BYLAYER
 10
484.2949013089
 20
268.8882916303
 40
2.8499996326
100
AcDbArc
 50
359.9999222336
 51
180.0000721207
  0
CIRCLE
  5
415
100
AcDbEntity
  8
0
100
AcDbCircle
 62
7
  6
BYLAYER
 10
484.2949013089
 20
268.8882916302
 40
2.5
  0
CIRCLE
  5
416
100
AcDbEntity
  8
0
100
AcDbCircle
 62
7
  6
BYLAYER
 10
484.2949013089
 20
268.8882916302
 40
1.6666666667
  0
ARC
  5
417
100
AcDbEntity
  8
0
100
AcDbCircle
 62
7
  6
BYLAYER
 10
484.9974887219
 20
268.1857042172
 40
0.4166666667
100
AcDbArc
 50
89.9999999967
 51
179.9999999993
  0
ARC
  5
418
100
AcDbEntity
  8
0
100
AcDbCircle
 62
7
  6
BYLAYER
 10
484.9974887219
 20
269.5908790432
 40
0.4166666667
100
AcDbArc
 50
180.0000000007
 51
269.9999999929
  0
ARC
  5
419
100
AcDbEntity
  8
0
100
AcDbCircle
 62
7
  6
BYLAYER
 10
485.4521332072
 20
268.8523708839
 40
0.25
100
AcDbArc
 50
270.0
 51
360.0
  0
ARC
  5
41A
100
AcDbEntity
  8
0
100
AcDbCircle
 62
7
  6
BYLAYER
 10
485.4521332072
 20
268.9242123765
 40
0.25
100
AcDbArc
 50
0.0
 51
90.0
  0
ARC
  5
41B
100
AcDbEntity
  8
0
100
AcDbCircle
 62
7
  6
BYLAYER
 10
484.3308220552
 20
270.0757006637
 40
0.25
100
AcDbArc
 50
0.0
 51
90.0
  0
ARC
  5
41C
100
AcDbEntity
  8
0
100
AcDbCircle
 62
7
  6
BYLAYER
 10
484.2589805626
 20
270.0757006637
 40
0.25
100
AcDbArc
 50
90.0
 51
180.0
  0
ARC
  5
41D
100
AcDbEntity
  8
0
100
AcDbCircle
 62
7
  6
BYLAYER
 10
484.2589805626
 20
267.7008825967
 40
0.25
100
AcDbArc
 50
180.0
 51
270.0
  0
ARC
  5
41E
100
AcDbEntity
  8
0
100
AcDbCircle
 62
7
  6
BYLAYER
 10
484.3308220552
 20
267.7008825967
 40
0.25
100
AcDbArc
 50
270.0
 51
360.0
  0
ARC
  5
41F
100
AcDbEntity
  8
0
100
AcDbCircle
 62
7
  6
BYLAYER
 10
484.6108659275
 20
290.9363772667
 40
4.2198107888
100
AcDbArc
 50
180.0050612116
 51
184.8696947738
  0
ARC
  5
420
100
AcDbEntity
  8
0
100
AcDbCircle
 62
7
  6
BYLAYER
 10
484.2949013089
 20
290.8882916303
 40
3.6499995549
100
AcDbArc
 50
236.7744393816
 51
359.9999999978
  0
ARC
  5
421
100
AcDbEntity
  8
0
100
AcDbCircle
 62
7
  6
BYLAYER
 10
484.2949013089
 20
290.8882916303
 40
3.25
100
AcDbArc
 50
179.9992827393
 51
360.0
  0
ARC
  5
422
100
AcDbEntity
  8
0
100
AcDbCircle
 62
7
  6
BYLAYER
 10
484.2949013089
 20
290.8882916303
 40
2.8499996326
100
AcDbArc
 50
179.9999222308
 51
0.0000721184
  0
CIRCLE
  5
423
100
AcDbEntity
  8
0
100
AcDbCircle
 62
7
  6
BYLAYER
 10
484.2949013089
 20
290.8882916302
 40
2.5
  0
CIRCLE
  5
424
100
AcDbEntity
  8
0
100
AcDbCircle
 62
7
  6
BYLAYER
 10
484.2949013089
 20
290.8882916302
 40
1.6666666667
  0
ARC
  5
425
100
AcDbEntity
  8
0
100
AcDbCircle
 62
7
  6
BYLAYER
 10
484.9974887219
 20
290.1857042173
 40
0.4166666667
100
AcDbArc
 50
89.9999999967
 51
180.0000000003
  0
ARC
  5
426
100
AcDbEntity
  8
0
100
AcDbCircle
 62
7
  6
BYLAYER
 10
484.9974887219
 20
291.5908790432
 40
0.4166666667
100
AcDbArc
 50
179.9999999997
 51
270.0000000033
  0
ARC
  5
427
100
AcDbEntity
  8
0
100
AcDbCircle
 62
7
  6
BYLAYER
 10
485.4521332071
 20
290.8523708839
 40
0.25
100
AcDbArc
 50
270.0
 51
360.0
  0
ARC
  5
428
100
AcDbEntity
  8
0
100
AcDbCircle
 62
7
  6
BYLAYER
 10
485.4521332071
 20
290.9242123765
 40
0.25
100
AcDbArc
 50
0.0
 51
90.0
  0
ARC
  5
429
100
AcDbEntity
  8
0
100
AcDbCircle
 62
7
  6
BYLAYER
 10
484.3308220552
 20
292.0757006638
 40
0.25
100
AcDbArc
 50
0.0
 51
90.0
  0
ARC
  5
42A
100
AcDbEntity
  8
0
100
AcDbCircle
 62
7
  6
BYLAYER
 10
484.2589805626
 20
292.0757006638
 40
0.25
100
AcDbArc
 50
90.0
 51
180.0
  0
ARC
  5
42B
100
AcDbEntity
  8
0
100
AcDbCircle
 62
7
  6
BYLAYER
 10
484.2589805626
 20
289.7008825967
 40
0.25
100
AcDbArc
 50
180.0
 51
270.0
  0
ARC
  5
42C
100
AcDbEntity
  8
0
100
AcDbCircle
 62
7
  6
BYLAYER
 10
484.3308220552
 20
289.7008825967
 40
0.25
100
AcDbArc
 50
270.0
 51
360.0
  0
ARC
  5
42D
100
AcDbEntity
  8
0
100
AcDbCircle
 62
7
  6
BYLAYER
 10
493.0964547435
 20
236.6131581084
 40
4.4217881419
100
AcDbArc
 50
117.0495633292
 51
164.6496202964
  0
ARC
  5
42E
100
AcDbEntity
  8
0
100
AcDbCircle
 62
7
  6
BYLAYER
 10
482.2725454804
 20
519.1984253872
 40
3.0
100
AcDbArc
 50
180.0
 51
245.0001451867
  0
ARC
  5
42F
100
AcDbEntity
  8
0
100
AcDbCircle
 62
7
  6
BYLAYER
 10
482.9376294684
 20
518.8882916303
 40
3.0
100
AcDbArc
 50
244.9999999997
 51
270.0
  0
ARC
  5
430
100
AcDbEntity
  8
0
100
AcDbCircle
 62
7
  6
BYLAYER
 10
482.9376294684
 20
518.8882916303
 40
2.6000009081
100
AcDbArc
 50
245.0002746661
 51
269.999725309
  0
ARC
  5
431
100
AcDbEntity
  8
0
100
AcDbCircle
 62
7
  6
BYLAYER
 10
483.5699580675
 20
519.5908790432
 40
0.4166666667
100
AcDbArc
 50
270.0000000071
 51
360.0
  0
ARC
  5
432
100
AcDbEntity
  8
0
100
AcDbCircle
 62
7
  6
BYLAYER
 10
483.5699580675
 20
518.1857042172
 40
0.4166666667
100
AcDbArc
 50
0.0
 51
90.0000000033
  0
ARC
  5
433
100
AcDbEntity
  8
0
100
AcDbCircle
 62
7
  6
BYLAYER
 10
483.0549593117
 20
518.9242123765
 40
0.25
100
AcDbArc
 50
90.0
 51
180.0
  0
ARC
  5
434
100
AcDbEntity
  8
0
100
AcDbCircle
 62
7
  6
BYLAYER
 10
483.0549593117
 20
518.8523708839
 40
0.25
100
AcDbArc
 50
180.0
 51
270.0
  0
ARC
  5
435
100
AcDbEntity
  8
0
100
AcDbCircle
 62
7
  6
BYLAYER
 10
482.2725454804
 20
540.5781578734
 40
3.0
100
AcDbArc
 50
114.9998925987
 51
180.0
  0
ARC
  5
436
100
AcDbEntity
  8
0
100
AcDbCircle
 62
7
  6
BYLAYER
 10
482.9376294684
 20
540.8882916303
 40
3.0
100
AcDbArc
 50
90.0
 51
115.0000000005
  0
ARC
  5
437
100
AcDbEntity
  8
0
100
AcDbCircle
 62
7
  6
BYLAYER
 10
482.9376294684
 20
540.8882916303
 40
2.6000009081
100
AcDbArc
 50
90.000274691
 51
114.9997253401
  0
ARC
  5
438
100
AcDbEntity
  8
0
100
AcDbCircle
 62
7
  6
BYLAYER
 10
483.5699580675
 20
541.5908790432
 40
0.4166666667
100
AcDbArc
 50
270.0000000071
 51
360.0
  0
ARC
  5
439
100
AcDbEntity
  8
0
100
AcDbCircle
 62
7
  6
BYLAYER
 10
483.5699580675
 20
540.1857042173
 40
0.4166666667
100
AcDbArc
 50
0.0
 51
90.0000000033
  0
ARC
  5
43A
100
AcDbEntity
  8
0
100
AcDbCircle
 62
7
  6
BYLAYER
 10
483.0549593117
 20
540.9242123766
 40
0.25
100
AcDbArc
 50
90.0
 51
180.0
  0
ARC
  5
43B
100
AcDbEntity
  8
0
100
AcDbCircle
 62
7
  6
BYLAYER
 10
483.0549593117
 20
540.8523708839
 40
0.25
100
AcDbArc
 50
180.0
 51
270.0
  0
ARC
  5
43C
100
AcDbEntity
  8
0
100
AcDbCircle
 62
7
  6
BYLAYER
 10
484.5826402631
 20
518.8404872616
 40
4.2139409375
100
AcDbArc
 50
175.1273437223
 51
179.9987560707
  0
ARC
  5
43D
100
AcDbEntity
  8
0
100
AcDbCircle
 62
7
  6
BYLAYER
 10
484.2725454804
 20
518.8882916303
 40
3.6499995378
100
AcDbArc
 50
0.0000000058
 51
123.2255247079
  0
ARC
  5
43E
100
AcDbEntity
  8
0
100
AcDbCircle
 62
7
  6
BYLAYER
 10
484.2725454804
 20
518.8882916303
 40
3.25
100
AcDbArc
 50
0.0
 51
180.0000618108
  0
ARC
  5
43F
100
AcDbEntity
  8
0
100
AcDbCircle
 62
7
  6
BYLAYER
 10
484.2725454804
 20
518.8882916303
 40
2.8499996326
100
AcDbArc
 50
359.9999222336
 51
180.0000721209
  0
CIRCLE
  5
440
100
AcDbEntity
  8
0
100
AcDbCircle
 62
7
  6
BYLAYER
 10
484.2725454805
 20
518.8882916302
 40
2.5
  0
CIRCLE
  5
441
100
AcDbEntity
  8
0
100
AcDbCircle
 62
7
  6
BYLAYER
 10
484.2725454805
 20
518.8882916302
 40
1.6666666667
  0
ARC
  5
442
100
AcDbEntity
  8
0
100
AcDbCircle
 62
7
  6
BYLAYER
 10
484.9751328934
 20
518.1857042172
 40
0.4166666667
100
AcDbArc
 50
89.9999999967
 51
179.9999999993
  0
ARC
  5
443
100
AcDbEntity
  8
0
100
AcDbCircle
 62
7
  6
BYLAYER
 10
484.9751328934
 20
519.5908790432
 40
0.4166666667
100
AcDbArc
 50
180.0000000007
 51
269.9999999929
  0
ARC
  5
444
100
AcDbEntity
  8
0
100
AcDbCircle
 62
7
  6
BYLAYER
 10
485.4297773787
 20
518.8523708839
 40
0.25
100
AcDbArc
 50
270.0
 51
360.0
  0
ARC
  5
445
100
AcDbEntity
  8
0
100
AcDbCircle
 62
7
  6
BYLAYER
 10
485.4297773787
 20
518.9242123765
 40
0.25
100
AcDbArc
 50
0.0
 51
90.0
  0
ARC
  5
446
100
AcDbEntity
  8
0
100
AcDbCircle
 62
7
  6
BYLAYER
 10
484.3084662268
 20
520.0757006637
 40
0.25
100
AcDbArc
 50
0.0
 51
90.0
  0
ARC
  5
447
100
AcDbEntity
  8
0
100
AcDbCircle
 62
7
  6
BYLAYER
 10
484.2366247341
 20
520.0757006637
 40
0.25
100
AcDbArc
 50
90.0
 51
180.0
  0
ARC
  5
448
100
AcDbEntity
  8
0
100
AcDbCircle
 62
7
  6
BYLAYER
 10
484.2366247341
 20
517.7008825967
 40
0.25
100
AcDbArc
 50
180.0
 51
270.0
  0
ARC
  5
449
100
AcDbEntity
  8
0
100
AcDbCircle
 62
7
  6
BYLAYER
 10
484.3084662268
 20
517.7008825967
 40
0.25
100
AcDbArc
 50
270.0
 51
360.0
  0
ARC
  5
44A
100
AcDbEntity
  8
0
100
AcDbCircle
 62
7
  6
BYLAYER
 10
484.5885100985
 20
540.9363772667
 40
4.2198107883
100
AcDbArc
 50
180.0050612106
 51
184.8696947743
  0
ARC
  5
44B
100
AcDbEntity
  8
0
100
AcDbCircle
 62
7
  6
BYLAYER
 10
484.2725454804
 20
540.8882916303
 40
3.6499995549
100
AcDbArc
 50
236.7744393816
 51
359.9999999978
  0
ARC
  5
44C
100
AcDbEntity
  8
0
100
AcDbCircle
 62
7
  6
BYLAYER
 10
484.2725454804
 20
540.8882916303
 40
3.25
100
AcDbArc
 50
179.9992827393
 51
360.0
  0
ARC
  5
44D
100
AcDbEntity
  8
0
100
AcDbCircle
 62
7
  6
BYLAYER
 10
484.2725454804
 20
540.8882916303
 40
2.8499996326
100
AcDbArc
 50
179.9999222308
 51
0.0000721184
  0
CIRCLE
  5
44E
100
AcDbEntity
  8
0
100
AcDbCircle
 62
7
  6
BYLAYER
 10
484.2725454804
 20
540.8882916302
 40
2.5
  0
CIRCLE
  5
44F
100
AcDbEntity
  8
0
100
AcDbCircle
 62
7
  6
BYLAYER
 10
484.2725454804
 20
540.8882916302
 40
1.6666666667
  0
ARC
  5
450
100
AcDbEntity
  8
0
100
AcDbCircle
 62
7
  6
BYLAYER
 10
484.9751328934
 20
540.1857042173
 40
0.4166666667
100
AcDbArc
 50
89.9999999967
 51
180.0000000004
  0
ARC
  5
451
100
AcDbEntity
  8
0
100
AcDbCircle
 62
7
  6
BYLAYER
 10
484.9751328934
 20
541.5908790432
 40
0.4166666667
100
AcDbArc
 50
179.9999999997
 51
269.9999999929
  0
ARC
  5
452
100
AcDbEntity
  8
0
100
AcDbCircle
 62
7
  6
BYLAYER
 10
485.4297773787
 20
540.8523708839
 40
0.25
100
AcDbArc
 50
270.0
 51
360.0
  0
ARC
  5
453
100
AcDbEntity
  8
0
100
AcDbCircle
 62
7
  6
BYLAYER
 10
485.4297773787
 20
540.9242123766
 40
0.25
100
AcDbArc
 50
0.0
 51
90.0
  0
ARC
  5
454
100
AcDbEntity
  8
0
100
AcDbCircle
 62
7
  6
BYLAYER
 10
484.3084662268
 20
542.0757006638
 40
0.25
100
AcDbArc
 50
0.0
 51
90.0
  0
ARC
  5
455
100
AcDbEntity
  8
0
100
AcDbCircle
 62
7
  6
BYLAYER
 10
484.2366247341
 20
542.0757006638
 40
0.25
100
AcDbArc
 50
90.0
 51
180.0
  0
ARC
  5
456
100
AcDbEntity
  8
0
100
AcDbCircle
 62
7
  6
BYLAYER
 10
484.2366247341
 20
539.7008825967
 40
0.25
100
AcDbArc
 50
180.0
 51
270.0
  0
ARC
  5
457
100
AcDbEntity
  8
0
100
AcDbCircle
 62
7
  6
BYLAYER
 10
484.3084662268
 20
539.7008825967
 40
0.25
100
AcDbArc
 50
270.0
 51
360.0
  0
SPLINE
  5
458
100
AcDbEntity
  8
0
100
AcDbSpline
 62
7
  6
BYLAYER
 70
0
 71
3
 72
12
 73
8
 74
0
 42
0.0000001
 43
0.0000001
 44
0.0000000001
 40
0.0
 40
0.0
 40
0.0
 40
0.0
 40
0.1140477002
 40
0.2142400311
 40
0.3447704465
 40
0.6689109959
 40
1.0
 40
1.0
 40
1.0
 40
1.0
 10
481.0046923735
 20
543.2970804673
 30
0.0
 10
481.0214157972
 20
543.304879639
 30
0.0
 10
481.0604396812
 20
543.2895294193
 30
0.0
 10
481.1010628705
 20
543.254097192
 30
0.0
 10
481.1619721231
 20
543.1866416299
 30
0.0
 10
481.230357842
 20
543.0792891735
 30
0.0
 10
481.2773485603
 20
542.9839275373
 30
0.0
 10
481.2981427843
 20
542.9345587141
 30
0.0
  0
SPLINE
  5
459
100
AcDbEntity
  8
0
100
AcDbSpline
 62
7
  6
BYLAYER
 70
0
 71
3
 72
9
 73
5
 74
0
 42
0.0000001
 43
0.0000001
 44
0.0000000001
 40
0.0
 40
0.0
 40
0.0
 40
0.0
 40
0.2966377822
 40
1.0
 40
1.0
 40
1.0
 40
1.0
 10
480.6225454805
 20
540.9500292666
 30
0.0
 10
480.5973987642
 20
540.9500292162
 30
0.0
 10
480.5126458299
 20
540.9487285174
 30
0.0
 10
480.4278552334
 20
540.9435010918
 30
0.0
 10
480.3687027016
 20
540.9360038926
 30
0.0
  0
SPLINE
  5
45A
100
AcDbEntity
  8
0
100
AcDbSpline
 62
7
  6
BYLAYER
 70
0
 71
3
 72
13
 73
9
 74
0
 42
0.0000001
 43
0.0000001
 44
0.0000000001
 40
0.0
 40
0.0
 40
0.0
 40
0.0
 40
0.0269725314
 40
0.0757739678
 40
0.1565629412
 40
0.2727285561
 40
0.6031450231
 40
1.0
 40
1.0
 40
1.0
 40
1.0
 10
481.022549889
 20
540.888291673
 30
0.0
 10
481.0225497864
 20
540.8920020462
 30
0.0
 10
481.0158120885
 20
540.9015653365
 30
0.0
 10
480.9963701858
 20
540.9108404066
 30
0.0
 10
480.9640712902
 20
540.9212530437
 30
0.0
 10
480.8928514725
 20
540.9354320708
 30
0.0
 10
480.7771848965
 20
540.9469412686
 30
0.0
 10
480.6771373189
 20
540.9500293393
 30
0.0
 10
480.6225454805
 20
540.9500292294
 30
0.0
  0
SPLINE
  5
45B
100
AcDbEntity
  8
0
100
AcDbSpline
 62
7
  6
BYLAYER
 70
0
 71
3
 72
9
 73
5
 74
0
 42
0.0000001
 43
0.0000001
 44
0.0000000001
 40
0.0
 40
0.0
 40
0.0
 40
0.0
 40
0.5895033168
 40
1.0
 40
1.0
 40
1.0
 40
1.0
 10
481.0761440842
 20
542.6709317376
 30
0.0
 10
481.0611607876
 20
542.6488345521
 30
0.0
 10
481.0381509229
 20
542.6101247781
 30
0.0
 10
481.022549556
 20
542.565893105
 30
0.0
 10
481.0225571003
 20
542.5473021126
 30
0.0
  0
SPLINE
  5
45C
100
AcDbEntity
  8
0
100
AcDbSpline
 62
7
  6
BYLAYER
 70
0
 71
3
 72
9
 73
5
 74
0
 42
0.0000001
 43
0.0000001
 44
0.0000000001
 40
0.0
 40
0.0
 40
0.0
 40
0.0
 40
0.2704838407
 40
1.0
 40
1.0
 40
1.0
 40
1.0
 10
481.2981535097
 20
542.9345449499
 30
0.0
 10
481.2754014001
 20
542.9133211433
 30
0.0
 10
481.1942585776
 20
542.8316670979
 30
0.0
 10
481.1232455053
 20
542.7403823099
 30
0.0
 10
481.0761441542
 20
542.6709293845
 30
0.0
  0
SPLINE
  5
45D
100
AcDbEntity
  8
0
100
AcDbSpline
 62
7
  6
BYLAYER
 70
0
 71
3
 72
11
 73
7
 74
0
 42
0.0000001
 43
0.0000001
 44
0.0000000001
 40
0.0
 40
0.0
 40
0.0
 40
0.0
 40
0.3375389513
 40
0.5925627713
 40
0.7940768016
 40
1.0
 40
1.0
 40
1.0
 40
1.0
 10
487.4689453661
 20
516.2883099262
 30
0.0
 10
487.4767451873
 20
516.2883109164
 30
0.0
 10
487.4904610101
 20
516.2890835963
 30
0.0
 10
487.5084379001
 20
516.2940297335
 30
0.0
 10
487.520575701
 20
516.3046583592
 30
0.0
 10
487.5225359965
 20
516.3145071608
 30
0.0
 10
487.522534816
 20
516.3192656164
 30
0.0
  0
SPLINE
  5
45E
100
AcDbEntity
  8
0
100
AcDbSpline
 62
7
  6
BYLAYER
 70
0
 71
3
 72
11
 73
7
 74
0
 42
0.0000001
 43
0.0000001
 44
0.0000000001
 40
0.0
 40
0.0
 40
0.0
 40
0.0
 40
0.2523710741
 40
0.503320698
 40
0.7523293402
 40
1.0
 40
1.0
 40
1.0
 40
1.0
 10
480.6225454804
 20
542.9393311014
 30
0.0
 10
480.6745386692
 20
542.9393295527
 30
0.0
 10
480.779337369
 20
542.9190410336
 30
0.0
 10
480.9122249342
 20
542.832066313
 30
0.0
 10
481.0015853113
 20
542.7018053728
 30
0.0
 10
481.0225456694
 20
542.5983235246
 30
0.0
 10
481.0225454804
 20
542.5472987096
 30
0.0
  0
SPLINE
  5
45F
100
AcDbEntity
  8
0
100
AcDbSpline
 62
7
  6
BYLAYER
 70
0
 71
3
 72
11
 73
7
 74
0
 42
0.0000001
 43
0.0000001
 44
0.0000000001
 40
0.0
 40
0.0
 40
0.0
 40
0.0
 40
0.223878454
 40
0.476611494
 40
0.7441160033
 40
1.0
 40
1.0
 40
1.0
 40
1.0
 10
487.8153641057
 20
515.8883202555
 30
0.0
 10
487.7718425651
 20
515.8883172443
 30
0.0
 10
487.6781103438
 20
515.9093480969
 30
0.0
 10
487.5605597071
 20
516.0010599831
 30
0.0
 10
487.4854920152
 20
516.1360353889
 30
0.0
 10
487.4689433043
 20
516.2385482731
 30
0.0
 10
487.4689414795
 20
516.2882916297
 30
0.0
  0
SPLINE
  5
460
100
AcDbEntity
  8
0
100
AcDbSpline
 62
7
  6
BYLAYER
 70
0
 71
3
 72
9
 73
5
 74
0
 42
0.0000001
 43
0.0000001
 44
0.0000000001
 40
0.0
 40
0.0
 40
0.0
 40
0.0
 40
0.4989154126
 40
1.0
 40
1.0
 40
1.0
 40
1.0
 10
480.3686993266
 20
542.8503445004
 30
0.0
 10
480.4040615806
 20
542.8787901868
 30
0.0
 10
480.4853314219
 20
542.9239273318
 30
0.0
 10
480.5769648408
 20
542.939340326
 30
0.0
 10
480.6225454804
 20
542.9393311015
 30
0.0
  0
SPLINE
  5
461
100
AcDbEntity
  8
0
100
AcDbSpline
 62
7
  6
BYLAYER
 70
0
 71
3
 72
10
 73
6
 74
0
 42
0.0000001
 43
0.0000001
 44
0.0000000001
 40
0.0
 40
0.0
 40
0.0
 40
0.0
 40
0.6322330962
 40
0.8474161435
 40
1.0
 40
1.0
 40
1.0
 40
1.0
 10
480.4923680907
 20
542.9928977064
 30
0.0
 10
480.459674387
 20
542.9687895234
 30
0.0
 10
480.4166257078
 20
542.9341715542
 30
0.0
 10
480.3773902546
 20
542.8832376728
 30
0.0
 10
480.3687229744
 20
542.860103285
 30
0.0
 10
480.3686993266
 20
542.8502997442
 30
0.0
  0
SPLINE
  5
462
100
AcDbEntity
  8
0
100
AcDbSpline
 62
7
  6
BYLAYER
 70
0
 71
3
 72
11
 73
7
 74
0
 42
0.0000001
 43
0.0000001
 44
0.0000000001
 40
0.0
 40
0.0
 40
0.0
 40
0.0
 40
0.2414461237
 40
0.5019587126
 40
0.7612325544
 40
1.0
 40
1.0
 40
1.0
 40
1.0
 10
487.9225454779
 20
515.9240503627
 30
0.0
 10
487.8726033946
 20
515.9240475116
 30
0.0
 10
487.7677850781
 20
515.9436420384
 30
0.0
 10
487.632049567
 20
516.0316470672
 30
0.0
 10
487.5425383331
 20
516.1658225128
 30
0.0
 10
487.5225367311
 20
516.269858798
 30
0.0
 10
487.5225348142
 20
516.3192468083
 30
0.0
  0
SPLINE
  5
463
100
AcDbEntity
  8
0
100
AcDbSpline
 62
7
  6
BYLAYER
 70
0
 71
3
 72
11
 73
7
 74
0
 42
0.0000001
 43
0.0000001
 44
0.0000000001
 40
0.0
 40
0.0
 40
0.0
 40
0.0
 40
0.3873031076
 40
0.6683530788
 40
0.8570539417
 40
1.0
 40
1.0
 40
1.0
 40
1.0
 10
487.8153658088
 20
515.8882916303
 30
0.0
 10
487.8310507502
 20
515.8882916482
 30
0.0
 10
487.8582609928
 20
515.8890172672
 30
0.0
 10
487.8923520416
 20
515.8944832323
 30
0.0
 10
487.9163031821
 20
515.9045365411
 30
0.0
 10
487.9225480531
 20
515.9182178015
 30
0.0
 10
487.9225454804
 20
515.9240068083
 30
0.0
  0
SPLINE
  5
464
100
AcDbEntity
  8
0
100
AcDbSpline
 62
7
  6
BYLAYER
 70
0
 71
3
 72
11
 73
7
 74
0
 42
0.0000001
 43
0.0000001
 44
0.0000000001
 40
0.0
 40
0.0
 40
0.0
 40
0.0
 40
0.2539753862
 40
0.5023672
 40
0.7487291455
 40
1.0
 40
1.0
 40
1.0
 40
1.0
 10
482.2725454804
 20
521.9415764952
 30
0.0
 10
482.0183109043
 20
521.7972329084
 30
0.0
 10
481.5426619267
 20
521.4595332393
 30
0.0
 10
480.9607436925
 20
520.8139258621
 30
0.0
 10
480.5478164069
 20
520.0513945328
 30
0.0
 10
480.4122718328
 20
519.4862732923
 30
0.0
 10
480.383930075
 20
519.1984253872
 30
0.0
  0
SPLINE
  5
465
100
AcDbEntity
  8
0
100
AcDbSpline
 62
7
  6
BYLAYER
 70
0
 71
3
 72
16
 73
12
 74
0
 42
0.0000001
 43
0.0000001
 44
0.0000000001
 40
0.0
 40
0.0
 40
0.0
 40
0.0
 40
0.2838971917
 40
0.4653768133
 40
0.6477535025
 40
0.8047031984
 40
0.9168466336
 40
0.95375835
 40
0.9788056948
 40
0.9934804045
 40
1.0
 40
1.0
 40
1.0
 40
1.0
 10
480.3839287558
 20
519.1984262973
 30
0.0
 10
480.445220303
 20
519.1897683928
 30
0.0
 10
480.5461088118
 20
519.1785132789
 30
0.0
 10
480.6868077647
 20
519.166331242
 30
0.0
 10
480.800161776
 20
519.1589032191
 30
0.0
 10
480.8984370453
 20
519.154866893
 30
0.0
 10
480.9653723754
 20
519.154505644
 30
0.0
 10
481.0030694279
 20
519.1562685121
 30
0.0
 10
481.0200328181
 20
519.1584070628
 30
0.0
 10
481.0292902224
 20
519.1602008302
 30
0.0
 10
481.0341798678
 20
519.163021098
 30
0.0
 10
481.0343004797
 20
519.1644374834
 30
0.0
  0
SPLINE
  5
466
100
AcDbEntity
  8
0
100
AcDbSpline
 62
7
  6
BYLAYER
 70
0
 71
3
 72
9
 73
5
 74
0
 42
0.0000001
 43
0.0000001
 44
0.0000000001
 40
0.0
 40
0.0
 40
0.0
 40
0.0
 40
0.1977562152
 40
1.0
 40
1.0
 40
1.0
 40
1.0
 10
480.3686998901
 20
518.8405788544
 30
0.0
 10
480.3853312531
 20
518.8384709584
 30
0.0
 10
480.4696461608
 20
518.8295345959
 30
0.0
 10
480.5545367752
 20
518.8265536943
 30
0.0
 10
480.6225454804
 20
518.8265536712
 30
0.0
  0
SPLINE
  5
467
100
AcDbEntity
  8
0
100
AcDbSpline
 62
7
  6
BYLAYER
 70
0
 71
3
 72
13
 73
9
 74
0
 42
0.0000001
 43
0.0000001
 44
0.0000000001
 40
0.0
 40
0.0
 40
0.0
 40
0.0
 40
0.396856725
 40
0.7272729887
 40
0.8434381313
 40
0.9242265911
 40
0.9730275955
 40
1.0
 40
1.0
 40
1.0
 40
1.0
 10
480.6225454804
 20
518.8265536737
 30
0.0
 10
480.6771371091
 20
518.8265536551
 30
0.0
 10
480.7771840717
 20
518.8296418642
 30
0.0
 10
480.8928498136
 20
518.8411511919
 30
0.0
 10
480.9640688578
 20
518.8553302789
 30
0.0
 10
480.996367234
 20
518.8657429185
 30
0.0
 10
481.0158088218
 20
518.8750179876
 30
0.0
 10
481.0225462125
 20
518.8845812993
 30
0.0
 10
481.0225462284
 20
518.8882916244
 30
0.0
  0
SPLINE
  5
468
100
AcDbEntity
  8
0
100
AcDbSpline
 62
7
  6
BYLAYER
 70
0
 71
3
 72
11
 73
7
 74
0
 42
0.0000001
 43
0.0000001
 44
0.0000000001
 40
0.0
 40
0.0
 40
0.0
 40
0.0
 40
0.2523587406
 40
0.5032976709
 40
0.7523102757
 40
1.0
 40
1.0
 40
1.0
 40
1.0
 10
480.6225454804
 20
516.8372583055
 30
0.0
 10
480.6745372007
 20
516.8372585358
 30
0.0
 10
480.7793367462
 20
516.8575236713
 30
0.0
 10
480.912230002
 20
516.9444957671
 30
0.0
 10
481.001588317
 20
517.0747657088
 30
0.0
 10
481.0225456852
 20
517.1782548005
 30
0.0
 10
481.0225454804
 20
517.2292845958
 30
0.0
  0
SPLINE
  5
469
100
AcDbEntity
  8
0
100
AcDbSpline
 62
7
  6
BYLAYER
 70
0
 71
3
 72
11
 73
7
 74
0
 42
0.0000001
 43
0.0000001
 44
0.0000000001
 40
0.0
 40
0.0
 40
0.0
 40
0.0
 40
0.2512719326
 40
0.4976334996
 40
0.7460232534
 40
1.0
 40
1.0
 40
1.0
 40
1.0
 10
480.383926873
 20
540.5781578734
 30
0.0
 10
480.4122730571
 20
540.2903091492
 30
0.0
 10
480.5478176692
 20
539.7251878988
 30
0.0
 10
480.9607451
 20
538.9626578635
 30
0.0
 10
481.5426632383
 20
538.3170526759
 30
0.0
 10
482.0183097637
 20
537.9793509428
 30
0.0
 10
482.2725454804
 20
537.8350061771
 30
0.0
  0
SPLINE
  5
46A
100
AcDbEntity
  8
0
100
AcDbSpline
 62
7
  6
BYLAYER
 70
0
 71
3
 72
9
 73
5
 74
0
 42
0.0000001
 43
0.0000001
 44
0.0000000001
 40
0.0
 40
0.0
 40
0.0
 40
0.0
 40
0.4105077453
 40
1.0
 40
1.0
 40
1.0
 40
1.0
 10
481.0225574179
 20
517.2292803099
 30
0.0
 10
481.0225499144
 20
517.2106894403
 30
0.0
 10
481.0381499045
 20
517.1664590754
 30
0.0
 10
481.0611587901
 20
517.1277503335
 30
0.0
 10
481.0761413778
 20
517.1056543548
 30
0.0
  0
SPLINE
  5
46B
100
AcDbEntity
  8
0
100
AcDbSpline
 62
7
  6
BYLAYER
 70
0
 71
3
 72
9
 73
5
 74
0
 42
0.0000001
 43
0.0000001
 44
0.0000000001
 40
0.0
 40
0.0
 40
0.0
 40
0.0
 40
0.2191796735
 40
1.0
 40
1.0
 40
1.0
 40
1.0
 10
481.0761358611
 20
517.1056472485
 30
0.0
 10
481.0902841529
 20
517.0847889946
 30
0.0
 10
481.1567254388
 20
516.9909711038
 30
0.0
 10
481.2324765999
 20
516.9032751805
 30
0.0
 10
481.2981358418
 20
516.8420312864
 30
0.0
  0
SPLINE
  5
46C
100
AcDbEntity
  8
0
100
AcDbSpline
 62
7
  6
BYLAYER
 70
0
 71
3
 72
9
 73
5
 74
0
 42
0.0000001
 43
0.0000001
 44
0.0000000001
 40
0.0
 40
0.0
 40
0.0
 40
0.0
 40
0.5011986913
 40
1.0
 40
1.0
 40
1.0
 40
1.0
 10
480.6225454804
 20
516.8372583055
 30
0.0
 10
480.5769633529
 20
516.8372908907
 30
0.0
 10
480.4853651233
 20
516.852696502
 30
0.0
 10
480.4040704577
 20
516.8977447723
 30
0.0
 10
480.3686993266
 20
516.9261487371
 30
0.0
  0
SPLINE
  5
46D
100
AcDbEntity
  8
0
100
AcDbSpline
 62
7
  6
BYLAYER
 70
0
 71
3
 72
10
 73
6
 74
0
 42
0.0000001
 43
0.0000001
 44
0.0000000001
 40
0.0
 40
0.0
 40
0.0
 40
0.0
 40
0.1526428855
 40
0.3678266995
 40
1.0
 40
1.0
 40
1.0
 40
1.0
 10
480.3686993266
 20
516.9262605562
 30
0.0
 10
480.3687448755
 20
516.9164553116
 30
0.0
 10
480.3773986052
 20
516.8933280862
 30
0.0
 10
480.4166405921
 20
516.8424025963
 30
0.0
 10
480.459670877
 20
516.8077960755
 30
0.0
 10
480.4923549018
 20
516.7836952773
 30
0.0
  0
SPLINE
  5
46E
100
AcDbEntity
  8
0
100
AcDbSpline
 62
7
  6
BYLAYER
 70
0
 71
3
 72
11
 73
7
 74
0
 42
0.0000001
 43
0.0000001
 44
0.0000000001
 40
0.0
 40
0.0
 40
0.0
 40
0.0
 40
0.2132250487
 40
0.480121499
 40
0.7627953905
 40
1.0
 40
1.0
 40
1.0
 40
1.0
 10
480.4923704927
 20
516.7836941537
 30
0.0
 10
480.5367070037
 20
516.7510051102
 30
0.0
 10
480.6633439654
 20
516.7104663276
 30
0.0
 10
480.8617909212
 20
516.7713604267
 30
0.0
 10
481.0119894501
 20
516.9176751862
 30
0.0
 10
481.0650325386
 20
517.0453859342
 30
0.0
 10
481.0761388185
 20
517.1056504278
 30
0.0
  0
SPLINE
  5
46F
100
AcDbEntity
  8
0
100
AcDbSpline
 62
7
  6
BYLAYER
 70
0
 71
3
 72
12
 73
8
 74
0
 42
0.0000001
 43
0.0000001
 44
0.0000000001
 40
0.0
 40
0.0
 40
0.0
 40
0.0
 40
0.1256403897
 40
0.2344748991
 40
0.3715332375
 40
0.6920029083
 40
1.0
 40
1.0
 40
1.0
 40
1.0
 10
481.0046890915
 20
516.4795095601
 30
0.0
 10
481.0230994011
 20
516.4709234282
 30
0.0
 10
481.0655587374
 20
516.490221457
 30
0.0
 10
481.1079038221
 20
516.5293542772
 30
0.0
 10
481.168666886
 20
516.5995286028
 30
0.0
 10
481.2341321598
 20
516.7045581074
 30
0.0
 10
481.278808037
 20
516.7961369866
 30
0.0
 10
481.2981380098
 20
516.8420305428
 30
0.0
  0
SPLINE
  5
470
100
AcDbEntity
  8
0
100
AcDbSpline
 62
7
  6
BYLAYER
 70
0
 71
3
 72
11
 73
7
 74
0
 42
0.0000001
 43
0.0000001
 44
0.0000000001
 40
0.0
 40
0.0
 40
0.0
 40
0.0
 40
0.2057224304
 40
0.4680399112
 40
0.7541577972
 40
1.0
 40
1.0
 40
1.0
 40
1.0
 10
480.4923768412
 20
542.9929094664
 30
0.0
 10
480.5351583695
 20
543.0244526806
 30
0.0
 10
480.6576110716
 20
543.0653048028
 30
0.0
 10
480.8550462569
 20
543.009399123
 30
0.0
 10
481.0092699393
 20
542.8639524244
 30
0.0
 10
481.0646281575
 20
542.733403991
 30
0.0
 10
481.076139532
 20
542.6709370372
 30
0.0
  0
SPLINE
  5
471
100
AcDbEntity
  8
0
100
AcDbSpline
 62
7
  6
BYLAYER
 70
0
 71
3
 72
16
 73
12
 74
0
 42
0.0000001
 43
0.0000001
 44
0.0000000001
 40
0.0
 40
0.0
 40
0.0
 40
0.0
 40
0.2846723048
 40
0.4664185828
 40
0.6487876804
 40
0.8054624666
 40
0.9172294412
 40
0.9539824952
 40
0.9789094702
 40
0.9935080488
 40
1.0
 40
1.0
 40
1.0
 40
1.0
 10
480.3839334352
 20
540.5781580616
 30
0.0
 10
480.4453920842
 20
540.5868397517
 30
0.0
 10
480.546506979
 20
540.5981135162
 30
0.0
 10
480.6874313093
 20
540.6103012509
 30
0.0
 10
480.8007822516
 20
540.6177144891
 30
0.0
 10
480.8989151456
 20
540.6217285525
 30
0.0
 10
480.9656716643
 20
540.6220722627
 30
0.0
 10
481.0032281601
 20
540.6203020902
 30
0.0
 10
481.0201085952
 20
540.6181637498
 30
0.0
 10
481.0293253675
 20
540.6163715256
 30
0.0
 10
481.034180966
 20
540.6135557554
 30
0.0
 10
481.0343013193
 20
540.6121454022
 30
0.0
  0
SPLINE
  5
472
100
AcDbEntity
  8
0
100
AcDbSpline
 62
7
  6
BYLAYER
 70
0
 71
3
 72
11
 73
7
 74
0
 42
0.0000001
 43
0.0000001
 44
0.0000000001
 40
0.0
 40
0.0
 40
0.0
 40
0.0
 40
0.1429471761
 40
0.3316477769
 40
0.6126971308
 40
1.0
 40
1.0
 40
1.0
 40
1.0
 10
487.9225454804
 20
543.8525764552
 30
0.0
 10
487.922548008
 20
543.858365486
 30
0.0
 10
487.9163028977
 20
543.8720465951
 30
0.0
 10
487.8923520404
 20
543.8821000537
 30
0.0
 10
487.8582610794
 20
543.8875659672
 30
0.0
 10
487.8310509991
 20
543.8882916047
 30
0.0
 10
487.8153661251
 20
543.8882916303
 30
0.0
  0
SPLINE
  5
473
100
AcDbEntity
  8
0
100
AcDbSpline
 62
7
  6
BYLAYER
 70
0
 71
3
 72
11
 73
7
 74
0
 42
0.0000001
 43
0.0000001
 44
0.0000000001
 40
0.0
 40
0.0
 40
0.0
 40
0.0
 40
0.2387674923
 40
0.4980413457
 40
0.7585539171
 40
1.0
 40
1.0
 40
1.0
 40
1.0
 10
487.5225347046
 20
543.4573364339
 30
0.0
 10
487.5225366275
 20
543.5067244428
 30
0.0
 10
487.5425382571
 20
543.6107607167
 30
0.0
 10
487.6320495655
 20
543.7449360879
 30
0.0
 10
487.7677851175
 20
543.832940974
 30
0.0
 10
487.8726034142
 20
543.8525354009
 30
0.0
 10
487.9225454778
 20
543.8525325093
 30
0.0
  0
SPLINE
  5
474
100
AcDbEntity
  8
0
100
AcDbSpline
 62
7
  6
BYLAYER
 70
0
 71
3
 72
11
 73
7
 74
0
 42
0.0000001
 43
0.0000001
 44
0.0000000001
 40
0.0
 40
0.0
 40
0.0
 40
0.0
 40
0.2238783593
 40
0.4766113528
 40
0.7441159034
 40
1.0
 40
1.0
 40
1.0
 40
1.0
 10
487.8153632619
 20
543.8882632813
 30
0.0
 10
487.771841759
 20
543.8882662497
 30
0.0
 10
487.678109628
 20
543.8672352953
 30
0.0
 10
487.5605591903
 20
543.775523297
 30
0.0
 10
487.4854916817
 20
543.6405478555
 30
0.0
 10
487.4689430437
 20
543.5380349843
 30
0.0
 10
487.4689412401
 20
543.4882916304
 30
0.0
  0
SPLINE
  5
475
100
AcDbEntity
  8
0
100
AcDbSpline
 62
7
  6
BYLAYER
 70
0
 71
3
 72
11
 73
7
 74
0
 42
0.0000001
 43
0.0000001
 44
0.0000000001
 40
0.0
 40
0.0
 40
0.0
 40
0.0
 40
0.2059262003
 40
0.4074401021
 40
0.6624627449
 40
1.0
 40
1.0
 40
1.0
 40
1.0
 10
487.5225347062
 20
543.4573315033
 30
0.0
 10
487.5225360488
 20
543.4620900889
 30
0.0
 10
487.5205760896
 20
543.4719391783
 30
0.0
 10
487.5084383287
 20
543.4825682934
 30
0.0
 10
487.4904612834
 20
543.4875146063
 30
0.0
 10
487.4767453527
 20
543.4882873007
 30
0.0
 10
487.4689454711
 20
543.4882882785
 30
0.0
  0
SPLINE
  5
476
100
AcDbEntity
  8
0
100
AcDbSpline
 62
7
  6
BYLAYER
 70
0
 71
3
 72
12
 73
8
 74
0
 42
0.0000001
 43
0.0000001
 44
0.0000000001
 40
0.0
 40
0.0
 40
0.0
 40
0.0
 40
0.1140477002
 40
0.2142400311
 40
0.3447704465
 40
0.6689109959
 40
1.0
 40
1.0
 40
1.0
 40
1.0
 10
481.027048202
 20
293.2970804673
 30
0.0
 10
481.0437716256
 20
293.304879639
 30
0.0
 10
481.0827955097
 20
293.2895294193
 30
0.0
 10
481.123418699
 20
293.254097192
 30
0.0
 10
481.1843279515
 20
293.1866416299
 30
0.0
 10
481.2527136704
 20
293.0792891735
 30
0.0
 10
481.2997043887
 20
292.9839275373
 30
0.0
 10
481.3204986127
 20
292.9345587141
 30
0.0
  0
SPLINE
  5
477
100
AcDbEntity
  8
0
100
AcDbSpline
 62
7
  6
BYLAYER
 70
0
 71
3
 72
9
 73
5
 74
0
 42
0.0000001
 43
0.0000001
 44
0.0000000001
 40
0.0
 40
0.0
 40
0.0
 40
0.0
 40
0.2966377822
 40
1.0
 40
1.0
 40
1.0
 40
1.0
 10
480.6449013089
 20
290.9500292666
 30
0.0
 10
480.6197545927
 20
290.9500292162
 30
0.0
 10
480.5350016584
 20
290.9487285174
 30
0.0
 10
480.4502110619
 20
290.9435010918
 30
0.0
 10
480.3910585301
 20
290.9360038926
 30
0.0
  0
SPLINE
  5
478
100
AcDbEntity
  8
0
100
AcDbSpline
 62
7
  6
BYLAYER
 70
0
 71
3
 72
13
 73
9
 74
0
 42
0.0000001
 43
0.0000001
 44
0.0000000001
 40
0.0
 40
0.0
 40
0.0
 40
0.0
 40
0.0269725314
 40
0.0757739678
 40
0.1565629412
 40
0.2727285561
 40
0.6031450231
 40
1.0
 40
1.0
 40
1.0
 40
1.0
 10
481.0449057174
 20
290.888291673
 30
0.0
 10
481.0449056148
 20
290.8920020462
 30
0.0
 10
481.038167917
 20
290.9015653365
 30
0.0
 10
481.0187260143
 20
290.9108404066
 30
0.0
 10
480.9864271186
 20
290.9212530437
 30
0.0
 10
480.9152073009
 20
290.9354320708
 30
0.0
 10
480.799540725
 20
290.9469412686
 30
0.0
 10
480.6994931473
 20
290.9500293393
 30
0.0
 10
480.6449013089
 20
290.9500292294
 30
0.0
  0
SPLINE
  5
479
100
AcDbEntity
  8
0
100
AcDbSpline
 62
7
  6
BYLAYER
 70
0
 71
3
 72
9
 73
5
 74
0
 42
0.0000001
 43
0.0000001
 44
0.0000000001
 40
0.0
 40
0.0
 40
0.0
 40
0.0
 40
0.5895033168
 40
1.0
 40
1.0
 40
1.0
 40
1.0
 10
481.0984999127
 20
292.6709317377
 30
0.0
 10
481.0835166161
 20
292.6488345521
 30
0.0
 10
481.0605067513
 20
292.6101247781
 30
0.0
 10
481.0449053844
 20
292.565893105
 30
0.0
 10
481.0449129288
 20
292.5473021126
 30
0.0
  0
SPLINE
  5
47A
100
AcDbEntity
  8
0
100
AcDbSpline
 62
7
  6
BYLAYER
 70
0
 71
3
 72
9
 73
5
 74
0
 42
0.0000001
 43
0.0000001
 44
0.0000000001
 40
0.0
 40
0.0
 40
0.0
 40
0.0
 40
0.2704838407
 40
1.0
 40
1.0
 40
1.0
 40
1.0
 10
481.3205093382
 20
292.93454495
 30
0.0
 10
481.2977572286
 20
292.9133211433
 30
0.0
 10
481.2166144061
 20
292.8316670979
 30
0.0
 10
481.1456013338
 20
292.7403823099
 30
0.0
 10
481.0984999827
 20
292.6709293846
 30
0.0
  0
SPLINE
  5
47B
100
AcDbEntity
  8
0
100
AcDbSpline
 62
7
  6
BYLAYER
 70
0
 71
3
 72
11
 73
7
 74
0
 42
0.0000001
 43
0.0000001
 44
0.0000000001
 40
0.0
 40
0.0
 40
0.0
 40
0.0
 40
0.3375389512
 40
0.5925627712
 40
0.7940768015
 40
1.0
 40
1.0
 40
1.0
 40
1.0
 10
487.4913011945
 20
266.2883099262
 30
0.0
 10
487.4991010157
 20
266.2883109164
 30
0.0
 10
487.5128168386
 20
266.2890835963
 30
0.0
 10
487.5307937286
 20
266.2940297335
 30
0.0
 10
487.5429315294
 20
266.3046583592
 30
0.0
 10
487.544891825
 20
266.3145071608
 30
0.0
 10
487.5448906444
 20
266.3192656164
 30
0.0
  0
SPLINE
  5
47C
100
AcDbEntity
  8
0
100
AcDbSpline
 62
7
  6
BYLAYER
 70
0
 71
3
 72
11
 73
7
 74
0
 42
0.0000001
 43
0.0000001
 44
0.0000000001
 40
0.0
 40
0.0
 40
0.0
 40
0.0
 40
0.2523710741
 40
0.503320698
 40
0.7523293402
 40
1.0
 40
1.0
 40
1.0
 40
1.0
 10
480.6449013089
 20
292.9393311014
 30
0.0
 10
480.6968944977
 20
292.9393295527
 30
0.0
 10
480.8016931975
 20
292.9190410336
 30
0.0
 10
480.9345807627
 20
292.832066313
 30
0.0
 10
481.0239411397
 20
292.7018053728
 30
0.0
 10
481.0449014978
 20
292.5983235246
 30
0.0
 10
481.0449013089
 20
292.5472987096
 30
0.0
  0
SPLINE
  5
47D
100
AcDbEntity
  8
0
100
AcDbSpline
 62
7
  6
BYLAYER
 70
0
 71
3
 72
11
 73
7
 74
0
 42
0.0000001
 43
0.0000001
 44
0.0000000001
 40
0.0
 40
0.0
 40
0.0
 40
0.0
 40
0.223878454
 40
0.4766114939
 40
0.7441160033
 40
1.0
 40
1.0
 40
1.0
 40
1.0
 10
487.8377199342
 20
265.8883202555
 30
0.0
 10
487.7941983935
 20
265.8883172443
 30
0.0
 10
487.7004661722
 20
265.9093480969
 30
0.0
 10
487.5829155355
 20
266.0010599831
 30
0.0
 10
487.5078478436
 20
266.1360353889
 30
0.0
 10
487.4912991327
 20
266.2385482731
 30
0.0
 10
487.491297308
 20
266.2882916297
 30
0.0
  0
SPLINE
  5
47E
100
AcDbEntity
  8
0
100
AcDbSpline
 62
7
  6
BYLAYER
 70
0
 71
3
 72
9
 73
5
 74
0
 42
0.0000001
 43
0.0000001
 44
0.0000000001
 40
0.0
 40
0.0
 40
0.0
 40
0.0
 40
0.4989154126
 40
1.0
 40
1.0
 40
1.0
 40
1.0
 10
480.3910551551
 20
292.8503445004
 30
0.0
 10
480.426417409
 20
292.8787901868
 30
0.0
 10
480.5076872504
 20
292.9239273318
 30
0.0
 10
480.5993206693
 20
292.939340326
 30
0.0
 10
480.6449013089
 20
292.9393311015
 30
0.0
  0
SPLINE
  5
47F
100
AcDbEntity
  8
0
100
AcDbSpline
 62
7
  6
BYLAYER
 70
0
 71
3
 72
10
 73
6
 74
0
 42
0.0000001
 43
0.0000001
 44
0.0000000001
 40
0.0
 40
0.0
 40
0.0
 40
0.0
 40
0.6322330962
 40
0.8474161435
 40
1.0
 40
1.0
 40
1.0
 40
1.0
 10
480.5147239191
 20
292.9928977064
 30
0.0
 10
480.4820302155
 20
292.9687895234
 30
0.0
 10
480.4389815363
 20
292.9341715542
 30
0.0
 10
480.3997460831
 20
292.8832376728
 30
0.0
 10
480.3910788028
 20
292.860103285
 30
0.0
 10
480.391055155
 20
292.8502997442
 30
0.0
  0
SPLINE
  5
480
100
AcDbEntity
  8
0
100
AcDbSpline
 62
7
  6
BYLAYER
 70
0
 71
3
 72
11
 73
7
 74
0
 42
0.0000001
 43
0.0000001
 44
0.0000000001
 40
0.0
 40
0.0
 40
0.0
 40
0.0
 40
0.2414461237
 40
0.5019587126
 40
0.7612325544
 40
1.0
 40
1.0
 40
1.0
 40
1.0
 10
487.9449013063
 20
265.9240503627
 30
0.0
 10
487.8949592231
 20
265.9240475116
 30
0.0
 10
487.7901409066
 20
265.9436420384
 30
0.0
 10
487.6544053955
 20
266.0316470672
 30
0.0
 10
487.5648941615
 20
266.1658225128
 30
0.0
 10
487.5448925595
 20
266.269858798
 30
0.0
 10
487.5448906426
 20
266.3192468083
 30
0.0
  0
SPLINE
  5
481
100
AcDbEntity
  8
0
100
AcDbSpline
 62
7
  6
BYLAYER
 70
0
 71
3
 72
11
 73
7
 74
0
 42
0.0000001
 43
0.0000001
 44
0.0000000001
 40
0.0
 40
0.0
 40
0.0
 40
0.0
 40
0.3873031076
 40
0.6683530788
 40
0.8570539417
 40
1.0
 40
1.0
 40
1.0
 40
1.0
 10
487.8377216372
 20
265.8882916303
 30
0.0
 10
487.8534065787
 20
265.8882916482
 30
0.0
 10
487.8806168212
 20
265.8890172672
 30
0.0
 10
487.9147078701
 20
265.8944832323
 30
0.0
 10
487.9386590105
 20
265.9045365411
 30
0.0
 10
487.9449038815
 20
265.9182178015
 30
0.0
 10
487.9449013089
 20
265.9240068083
 30
0.0
  0
SPLINE
  5
482
100
AcDbEntity
  8
0
100
AcDbSpline
 62
7
  6
BYLAYER
 70
0
 71
3
 72
11
 73
7
 74
0
 42
0.0000001
 43
0.0000001
 44
0.0000000001
 40
0.0
 40
0.0
 40
0.0
 40
0.0
 40
0.2539753862
 40
0.5023672
 40
0.7487291455
 40
1.0
 40
1.0
 40
1.0
 40
1.0
 10
482.2949013089
 20
271.9415764952
 30
0.0
 10
482.0406667328
 20
271.7972329084
 30
0.0
 10
481.5650177552
 20
271.4595332393
 30
0.0
 10
480.9830995209
 20
270.8139258621
 30
0.0
 10
480.5701722354
 20
270.0513945328
 30
0.0
 10
480.4346276612
 20
269.4862732923
 30
0.0
 10
480.4062859035
 20
269.1984253872
 30
0.0
  0
SPLINE
  5
483
100
AcDbEntity
  8
0
100
AcDbSpline
 62
7
  6
BYLAYER
 70
0
 71
3
 72
16
 73
12
 74
0
 42
0.0000001
 43
0.0000001
 44
0.0000000001
 40
0.0
 40
0.0
 40
0.0
 40
0.0
 40
0.2838971917
 40
0.4653768133
 40
0.6477535025
 40
0.8047031984
 40
0.9168466336
 40
0.95375835
 40
0.9788056948
 40
0.9934804045
 40
1.0
 40
1.0
 40
1.0
 40
1.0
 10
480.4062845843
 20
269.1984262973
 30
0.0
 10
480.4675761315
 20
269.1897683928
 30
0.0
 10
480.5684646403
 20
269.1785132789
 30
0.0
 10
480.7091635932
 20
269.166331242
 30
0.0
 10
480.8225176045
 20
269.1589032191
 30
0.0
 10
480.9207928738
 20
269.154866893
 30
0.0
 10
480.9877282038
 20
269.154505644
 30
0.0
 10
481.0254252563
 20
269.1562685121
 30
0.0
 10
481.0423886466
 20
269.1584070628
 30
0.0
 10
481.0516460508
 20
269.1602008302
 30
0.0
 10
481.0565356963
 20
269.163021098
 30
0.0
 10
481.0566563082
 20
269.1644374834
 30
0.0
  0
SPLINE
  5
484
100
AcDbEntity
  8
0
100
AcDbSpline
 62
7
  6
BYLAYER
 70
0
 71
3
 72
9
 73
5
 74
0
 42
0.0000001
 43
0.0000001
 44
0.0000000001
 40
0.0
 40
0.0
 40
0.0
 40
0.0
 40
0.1977562152
 40
1.0
 40
1.0
 40
1.0
 40
1.0
 10
480.3910557186
 20
268.8405788544
 30
0.0
 10
480.4076870816
 20
268.8384709584
 30
0.0
 10
480.4920019893
 20
268.8295345959
 30
0.0
 10
480.5768926037
 20
268.8265536943
 30
0.0
 10
480.6449013089
 20
268.8265536712
 30
0.0
  0
SPLINE
  5
485
100
AcDbEntity
  8
0
100
AcDbSpline
 62
7
  6
BYLAYER
 70
0
 71
3
 72
13
 73
9
 74
0
 42
0.0000001
 43
0.0000001
 44
0.0000000001
 40
0.0
 40
0.0
 40
0.0
 40
0.0
 40
0.396856725
 40
0.7272729887
 40
0.8434381313
 40
0.9242265911
 40
0.9730275955
 40
1.0
 40
1.0
 40
1.0
 40
1.0
 10
480.6449013089
 20
268.8265536737
 30
0.0
 10
480.6994929375
 20
268.8265536551
 30
0.0
 10
480.7995399002
 20
268.8296418642
 30
0.0
 10
480.915205642
 20
268.8411511919
 30
0.0
 10
480.9864246863
 20
268.8553302789
 30
0.0
 10
481.0187230624
 20
268.8657429185
 30
0.0
 10
481.0381646503
 20
268.8750179876
 30
0.0
 10
481.044902041
 20
268.8845812993
 30
0.0
 10
481.0449020569
 20
268.8882916244
 30
0.0
  0
SPLINE
  5
486
100
AcDbEntity
  8
0
100
AcDbSpline
 62
7
  6
BYLAYER
 70
0
 71
3
 72
11
 73
7
 74
0
 42
0.0000001
 43
0.0000001
 44
0.0000000001
 40
0.0
 40
0.0
 40
0.0
 40
0.0
 40
0.2523587406
 40
0.5032976709
 40
0.7523102757
 40
1.0
 40
1.0
 40
1.0
 40
1.0
 10
480.6449013089
 20
266.8372583055
 30
0.0
 10
480.6968930292
 20
266.8372585358
 30
0.0
 10
480.8016925746
 20
266.8575236713
 30
0.0
 10
480.9345858304
 20
266.9444957671
 30
0.0
 10
481.0239441454
 20
267.0747657088
 30
0.0
 10
481.0449015137
 20
267.1782548005
 30
0.0
 10
481.0449013089
 20
267.2292845958
 30
0.0
  0
SPLINE
  5
487
100
AcDbEntity
  8
0
100
AcDbSpline
 62
7
  6
BYLAYER
 70
0
 71
3
 72
11
 73
7
 74
0
 42
0.0000001
 43
0.0000001
 44
0.0000000001
 40
0.0
 40
0.0
 40
0.0
 40
0.0
 40
0.2512719326
 40
0.4976334996
 40
0.7460232534
 40
1.0
 40
1.0
 40
1.0
 40
1.0
 10
480.4062827015
 20
290.5781578734
 30
0.0
 10
480.4346288855
 20
290.2903091492
 30
0.0
 10
480.5701734977
 20
289.7251878988
 30
0.0
 10
480.9831009285
 20
288.9626578635
 30
0.0
 10
481.5650190667
 20
288.3170526759
 30
0.0
 10
482.0406655921
 20
287.9793509428
 30
0.0
 10
482.2949013089
 20
287.8350061771
 30
0.0
  0
SPLINE
  5
488
100
AcDbEntity
  8
0
100
AcDbSpline
 62
7
  6
BYLAYER
 70
0
 71
3
 72
9
 73
5
 74
0
 42
0.0000001
 43
0.0000001
 44
0.0000000001
 40
0.0
 40
0.0
 40
0.0
 40
0.0
 40
0.4105077453
 40
1.0
 40
1.0
 40
1.0
 40
1.0
 10
481.0449132464
 20
267.2292803099
 30
0.0
 10
481.0449057429
 20
267.2106894403
 30
0.0
 10
481.0605057329
 20
267.1664590754
 30
0.0
 10
481.0835146186
 20
267.1277503335
 30
0.0
 10
481.0984972062
 20
267.1056543548
 30
0.0
  0
SPLINE
  5
489
100
AcDbEntity
  8
0
100
AcDbSpline
 62
7
  6
BYLAYER
 70
0
 71
3
 72
9
 73
5
 74
0
 42
0.0000001
 43
0.0000001
 44
0.0000000001
 40
0.0
 40
0.0
 40
0.0
 40
0.0
 40
0.2191796735
 40
1.0
 40
1.0
 40
1.0
 40
1.0
 10
481.0984916896
 20
267.1056472485
 30
0.0
 10
481.1126399813
 20
267.0847889946
 30
0.0
 10
481.1790812673
 20
266.9909711038
 30
0.0
 10
481.2548324284
 20
266.9032751804
 30
0.0
 10
481.3204916704
 20
266.8420312863
 30
0.0
  0
SPLINE
  5
48A
100
AcDbEntity
  8
0
100
AcDbSpline
 62
7
  6
BYLAYER
 70
0
 71
3
 72
9
 73
5
 74
0
 42
0.0000001
 43
0.0000001
 44
0.0000000001
 40
0.0
 40
0.0
 40
0.0
 40
0.0
 40
0.5011986913
 40
1.0
 40
1.0
 40
1.0
 40
1.0
 10
480.6449013089
 20
266.8372583055
 30
0.0
 10
480.5993191814
 20
266.8372908907
 30
0.0
 10
480.5077209518
 20
266.852696502
 30
0.0
 10
480.4264262862
 20
266.8977447723
 30
0.0
 10
480.3910551551
 20
266.9261487371
 30
0.0
  0
SPLINE
  5
48B
100
AcDbEntity
  8
0
100
AcDbSpline
 62
7
  6
BYLAYER
 70
0
 71
3
 72
10
 73
6
 74
0
 42
0.0000001
 43
0.0000001
 44
0.0000000001
 40
0.0
 40
0.0
 40
0.0
 40
0.0
 40
0.1526428855
 40
0.3678266995
 40
1.0
 40
1.0
 40
1.0
 40
1.0
 10
480.391055155
 20
266.9262605562
 30
0.0
 10
480.3911007039
 20
266.9164553116
 30
0.0
 10
480.3997544337
 20
266.8933280862
 30
0.0
 10
480.4389964206
 20
266.8424025963
 30
0.0
 10
480.4820267054
 20
266.8077960755
 30
0.0
 10
480.5147107303
 20
266.7836952773
 30
0.0
  0
SPLINE
  5
48C
100
AcDbEntity
  8
0
100
AcDbSpline
 62
7
  6
BYLAYER
 70
0
 71
3
 72
11
 73
7
 74
0
 42
0.0000001
 43
0.0000001
 44
0.0000000001
 40
0.0
 40
0.0
 40
0.0
 40
0.0
 40
0.2132250487
 40
0.480121499
 40
0.7627953905
 40
1.0
 40
1.0
 40
1.0
 40
1.0
 10
480.5147263212
 20
266.7836941537
 30
0.0
 10
480.5590628322
 20
266.7510051102
 30
0.0
 10
480.6856997938
 20
266.7104663276
 30
0.0
 10
480.8841467497
 20
266.7713604267
 30
0.0
 10
481.0343452786
 20
266.9176751862
 30
0.0
 10
481.087388367
 20
267.0453859342
 30
0.0
 10
481.0984946469
 20
267.1056504278
 30
0.0
  0
SPLINE
  5
48D
100
AcDbEntity
  8
0
100
AcDbSpline
 62
7
  6
BYLAYER
 70
0
 71
3
 72
12
 73
8
 74
0
 42
0.0000001
 43
0.0000001
 44
0.0000000001
 40
0.0
 40
0.0
 40
0.0
 40
0.0
 40
0.1256403897
 40
0.2344748991
 40
0.3715332375
 40
0.6920029083
 40
1.0
 40
1.0
 40
1.0
 40
1.0
 10
481.02704492
 20
266.4795095601
 30
0.0
 10
481.0454552296
 20
266.4709234282
 30
0.0
 10
481.0879145658
 20
266.490221457
 30
0.0
 10
481.1302596506
 20
266.5293542772
 30
0.0
 10
481.1910227145
 20
266.5995286028
 30
0.0
 10
481.2564879883
 20
266.7045581074
 30
0.0
 10
481.3011638654
 20
266.7961369866
 30
0.0
 10
481.3204938383
 20
266.8420305428
 30
0.0
  0
SPLINE
  5
48E
100
AcDbEntity
  8
0
100
AcDbSpline
 62
7
  6
BYLAYER
 70
0
 71
3
 72
11
 73
7
 74
0
 42
0.0000001
 43
0.0000001
 44
0.0000000001
 40
0.0
 40
0.0
 40
0.0
 40
0.0
 40
0.2057224304
 40
0.4680399112
 40
0.7541577972
 40
1.0
 40
1.0
 40
1.0
 40
1.0
 10
480.5147326696
 20
292.9929094664
 30
0.0
 10
480.5575141979
 20
293.0244526806
 30
0.0
 10
480.6799669
 20
293.0653048028
 30
0.0
 10
480.8774020854
 20
293.009399123
 30
0.0
 10
481.0316257678
 20
292.8639524244
 30
0.0
 10
481.086983986
 20
292.733403991
 30
0.0
 10
481.0984953605
 20
292.6709370372
 30
0.0
  0
SPLINE
  5
48F
100
AcDbEntity
  8
0
100
AcDbSpline
 62
7
  6
BYLAYER
 70
0
 71
3
 72
16
 73
12
 74
0
 42
0.0000001
 43
0.0000001
 44
0.0000000001
 40
0.0
 40
0.0
 40
0.0
 40
0.0
 40
0.2846723048
 40
0.4664185828
 40
0.6487876804
 40
0.8054624666
 40
0.9172294412
 40
0.9539824952
 40
0.9789094702
 40
0.9935080488
 40
1.0
 40
1.0
 40
1.0
 40
1.0
 10
480.4062892637
 20
290.5781580616
 30
0.0
 10
480.4677479127
 20
290.5868397517
 30
0.0
 10
480.5688628075
 20
290.5981135162
 30
0.0
 10
480.7097871378
 20
290.6103012509
 30
0.0
 10
480.82313808
 20
290.6177144891
 30
0.0
 10
480.9212709741
 20
290.6217285525
 30
0.0
 10
480.9880274928
 20
290.6220722627
 30
0.0
 10
481.0255839885
 20
290.6203020902
 30
0.0
 10
481.0424644236
 20
290.6181637498
 30
0.0
 10
481.051681196
 20
290.6163715256
 30
0.0
 10
481.0565367944
 20
290.6135557554
 30
0.0
 10
481.0566571478
 20
290.6121454022
 30
0.0
  0
SPLINE
  5
490
100
AcDbEntity
  8
0
100
AcDbSpline
 62
7
  6
BYLAYER
 70
0
 71
3
 72
11
 73
7
 74
0
 42
0.0000001
 43
0.0000001
 44
0.0000000001
 40
0.0
 40
0.0
 40
0.0
 40
0.0
 40
0.1429471761
 40
0.3316477769
 40
0.6126971308
 40
1.0
 40
1.0
 40
1.0
 40
1.0
 10
487.9449013089
 20
293.8525764552
 30
0.0
 10
487.9449038365
 20
293.858365486
 30
0.0
 10
487.9386587262
 20
293.8720465951
 30
0.0
 10
487.9147078689
 20
293.8821000537
 30
0.0
 10
487.8806169078
 20
293.8875659672
 30
0.0
 10
487.8534068275
 20
293.8882916047
 30
0.0
 10
487.8377219536
 20
293.8882916303
 30
0.0
  0
SPLINE
  5
491
100
AcDbEntity
  8
0
100
AcDbSpline
 62
7
  6
BYLAYER
 70
0
 71
3
 72
11
 73
7
 74
0
 42
0.0000001
 43
0.0000001
 44
0.0000000001
 40
0.0
 40
0.0
 40
0.0
 40
0.0
 40
0.2387674923
 40
0.4980413457
 40
0.7585539171
 40
1.0
 40
1.0
 40
1.0
 40
1.0
 10
487.544890533
 20
293.4573364339
 30
0.0
 10
487.544892456
 20
293.5067244428
 30
0.0
 10
487.5648940855
 20
293.6107607167
 30
0.0
 10
487.654405394
 20
293.7449360879
 30
0.0
 10
487.790140946
 20
293.832940974
 30
0.0
 10
487.8949592427
 20
293.8525354009
 30
0.0
 10
487.9449013063
 20
293.8525325093
 30
0.0
  0
SPLINE
  5
492
100
AcDbEntity
  8
0
100
AcDbSpline
 62
7
  6
BYLAYER
 70
0
 71
3
 72
11
 73
7
 74
0
 42
0.0000001
 43
0.0000001
 44
0.0000000001
 40
0.0
 40
0.0
 40
0.0
 40
0.0
 40
0.2238783593
 40
0.4766113528
 40
0.7441159034
 40
1.0
 40
1.0
 40
1.0
 40
1.0
 10
487.8377190903
 20
293.8882632813
 30
0.0
 10
487.7941975875
 20
293.8882662497
 30
0.0
 10
487.7004654565
 20
293.8672352953
 30
0.0
 10
487.5829150188
 20
293.775523297
 30
0.0
 10
487.5078475102
 20
293.6405478555
 30
0.0
 10
487.4912988722
 20
293.5380349843
 30
0.0
 10
487.4912970686
 20
293.4882916304
 30
0.0
  0
SPLINE
  5
493
100
AcDbEntity
  8
0
100
AcDbSpline
 62
7
  6
BYLAYER
 70
0
 71
3
 72
11
 73
7
 74
0
 42
0.0000001
 43
0.0000001
 44
0.0000000001
 40
0.0
 40
0.0
 40
0.0
 40
0.0
 40
0.2059262005
 40
0.4074401022
 40
0.6624627449
 40
1.0
 40
1.0
 40
1.0
 40
1.0
 10
487.5448905347
 20
293.4573315033
 30
0.0
 10
487.5448918773
 20
293.4620900889
 30
0.0
 10
487.542931918
 20
293.4719391783
 30
0.0
 10
487.5307941572
 20
293.4825682934
 30
0.0
 10
487.5128171119
 20
293.4875146063
 30
0.0
 10
487.4991011811
 20
293.4882873007
 30
0.0
 10
487.4913012996
 20
293.4882882785
 30
0.0
  0
SPLINE
  5
494
100
AcDbEntity
  8
0
100
AcDbSpline
 62
7
  6
BYLAYER
 70
0
 71
3
 72
12
 73
8
 74
0
 42
0.0000001
 43
0.0000001
 44
0.0000000001
 40
0.0
 40
0.0
 40
0.0
 40
0.0
 40
0.1140477002
 40
0.2142400311
 40
0.3447704465
 40
0.6689109959
 40
1.0
 40
1.0
 40
1.0
 40
1.0
 10
93.1658612851
 20
516.5326981662
 30
0.0
 10
93.1491378614
 20
516.5248989945
 30
0.0
 10
93.1101139774
 20
516.5402492143
 30
0.0
 10
93.0694907881
 20
516.5756814416
 30
0.0
 10
93.0085815355
 20
516.6431370036
 30
0.0
 10
92.9401958166
 20
516.75048946
 30
0.0
 10
92.8932050983
 20
516.8458510963
 30
0.0
 10
92.8724108743
 20
516.8952199194
 30
0.0
  0
SPLINE
  5
495
100
AcDbEntity
  8
0
100
AcDbSpline
 62
7
  6
BYLAYER
 70
0
 71
3
 72
9
 73
5
 74
0
 42
0.0000001
 43
0.0000001
 44
0.0000000001
 40
0.0
 40
0.0
 40
0.0
 40
0.0
 40
0.2966377822
 40
1.0
 40
1.0
 40
1.0
 40
1.0
 10
93.5480081781
 20
518.8797493669
 30
0.0
 10
93.5731548944
 20
518.8797494173
 30
0.0
 10
93.6579078287
 20
518.8810501162
 30
0.0
 10
93.7426984251
 20
518.8862775418
 30
0.0
 10
93.801850957
 20
518.8937747409
 30
0.0
  0
SPLINE
  5
496
100
AcDbEntity
  8
0
100
AcDbSpline
 62
7
  6
BYLAYER
 70
0
 71
3
 72
13
 73
9
 74
0
 42
0.0000001
 43
0.0000001
 44
0.0000000001
 40
0.0
 40
0.0
 40
0.0
 40
0.0
 40
0.0269725314
 40
0.0757739678
 40
0.1565629412
 40
0.2727285561
 40
0.6031450231
 40
1.0
 40
1.0
 40
1.0
 40
1.0
 10
93.1480037696
 20
518.9414869606
 30
0.0
 10
93.1480038722
 20
518.9377765874
 30
0.0
 10
93.1547415701
 20
518.928213297
 30
0.0
 10
93.1741834728
 20
518.9189382269
 30
0.0
 10
93.2064823684
 20
518.9085255899
 30
0.0
 10
93.2777021861
 20
518.8943465627
 30
0.0
 10
93.3933687621
 20
518.8828373649
 30
0.0
 10
93.4934163397
 20
518.8797492942
 30
0.0
 10
93.5480081781
 20
518.8797494042
 30
0.0
  0
SPLINE
  5
497
100
AcDbEntity
  8
0
100
AcDbSpline
 62
7
  6
BYLAYER
 70
0
 71
3
 72
9
 73
5
 74
0
 42
0.0000001
 43
0.0000001
 44
0.0000000001
 40
0.0
 40
0.0
 40
0.0
 40
0.0
 40
0.5895033168
 40
1.0
 40
1.0
 40
1.0
 40
1.0
 10
93.0944095744
 20
517.1588468959
 30
0.0
 10
93.109392871
 20
517.1809440814
 30
0.0
 10
93.1324027357
 20
517.2196538554
 30
0.0
 10
93.1480041026
 20
517.2638855285
 30
0.0
 10
93.1479965583
 20
517.2824765209
 30
0.0
  0
SPLINE
  5
498
100
AcDbEntity
  8
0
100
AcDbSpline
 62
7
  6
BYLAYER
 70
0
 71
3
 72
9
 73
5
 74
0
 42
0.0000001
 43
0.0000001
 44
0.0000000001
 40
0.0
 40
0.0
 40
0.0
 40
0.0
 40
0.2704838407
 40
1.0
 40
1.0
 40
1.0
 40
1.0
 10
92.8724001492
 20
516.8952336839
 30
0.0
 10
92.8951522588
 20
516.9164574905
 30
0.0
 10
92.9762950812
 20
516.9981115359
 30
0.0
 10
93.0473081533
 20
517.0893963237
 30
0.0
 10
93.0944095044
 20
517.158849249
 30
0.0
  0
SPLINE
  5
499
100
AcDbEntity
  8
0
100
AcDbSpline
 62
7
  6
BYLAYER
 70
0
 71
3
 72
11
 73
7
 74
0
 42
0.0000001
 43
0.0000001
 44
0.0000000001
 40
0.0
 40
0.0
 40
0.0
 40
0.0
 40
0.3375389512
 40
0.5925627711
 40
0.7940768015
 40
1.0
 40
1.0
 40
1.0
 40
1.0
 10
86.7016082925
 20
543.5414687074
 30
0.0
 10
86.6938084713
 20
543.5414677171
 30
0.0
 10
86.6800926485
 20
543.5406950373
 30
0.0
 10
86.6621157585
 20
543.5357489
 30
0.0
 10
86.6499779576
 20
543.5251202744
 30
0.0
 10
86.6480176621
 20
543.5152714727
 30
0.0
 10
86.6480188426
 20
543.5105130172
 30
0.0
  0
SPLINE
  5
49A
100
AcDbEntity
  8
0
100
AcDbSpline
 62
7
  6
BYLAYER
 70
0
 71
3
 72
11
 73
7
 74
0
 42
0.0000001
 43
0.0000001
 44
0.0000000001
 40
0.0
 40
0.0
 40
0.0
 40
0.0
 40
0.2523710741
 40
0.503320698
 40
0.7523293402
 40
1.0
 40
1.0
 40
1.0
 40
1.0
 10
93.5480081781
 20
516.8904475321
 30
0.0
 10
93.4960149894
 20
516.8904490808
 30
0.0
 10
93.3912162896
 20
516.9107375999
 30
0.0
 10
93.2583287244
 20
516.9977123205
 30
0.0
 10
93.1689683473
 20
517.1279732607
 30
0.0
 10
93.1480079892
 20
517.231455109
 30
0.0
 10
93.1480081781
 20
517.282479924
 30
0.0
  0
SPLINE
  5
49B
100
AcDbEntity
  8
0
100
AcDbSpline
 62
7
  6
BYLAYER
 70
0
 71
3
 72
11
 73
7
 74
0
 42
0.0000001
 43
0.0000001
 44
0.0000000001
 40
0.0
 40
0.0
 40
0.0
 40
0.0
 40
0.223878454
 40
0.4766114939
 40
0.7441160033
 40
1.0
 40
1.0
 40
1.0
 40
1.0
 10
86.3551895529
 20
543.9414583781
 30
0.0
 10
86.3987110935
 20
543.9414613892
 30
0.0
 10
86.4924433148
 20
543.9204305366
 30
0.0
 10
86.6099939515
 20
543.8287186504
 30
0.0
 10
86.6850616434
 20
543.6937432446
 30
0.0
 10
86.7016103543
 20
543.5912303604
 30
0.0
 10
86.7016121791
 20
543.5414870038
 30
0.0
  0
SPLINE
  5
49C
100
AcDbEntity
  8
0
100
AcDbSpline
 62
7
  6
BYLAYER
 70
0
 71
3
 72
9
 73
5
 74
0
 42
0.0000001
 43
0.0000001
 44
0.0000000001
 40
0.0
 40
0.0
 40
0.0
 40
0.0
 40
0.4989154126
 40
1.0
 40
1.0
 40
1.0
 40
1.0
 10
93.801854332
 20
516.9794341332
 30
0.0
 10
93.766492078
 20
516.9509884467
 30
0.0
 10
93.6852222366
 20
516.9058513018
 30
0.0
 10
93.5935888178
 20
516.8904383076
 30
0.0
 10
93.5480081781
 20
516.8904475321
 30
0.0
  0
SPLINE
  5
49D
100
AcDbEntity
  8
0
100
AcDbSpline
 62
7
  6
BYLAYER
 70
0
 71
3
 72
10
 73
6
 74
0
 42
0.0000001
 43
0.0000001
 44
0.0000000001
 40
0.0
 40
0.0
 40
0.0
 40
0.0
 40
0.6322330962
 40
0.8474161435
 40
1.0
 40
1.0
 40
1.0
 40
1.0
 10
93.6781855679
 20
516.8368809272
 30
0.0
 10
93.7108792716
 20
516.8609891101
 30
0.0
 10
93.7539279508
 20
516.8956070793
 30
0.0
 10
93.793163404
 20
516.9465409607
 30
0.0
 10
93.8018306842
 20
516.9696753485
 30
0.0
 10
93.801854332
 20
516.9794788893
 30
0.0
  0
SPLINE
  5
49E
100
AcDbEntity
  8
0
100
AcDbSpline
 62
7
  6
BYLAYER
 70
0
 71
3
 72
11
 73
7
 74
0
 42
0.0000001
 43
0.0000001
 44
0.0000000001
 40
0.0
 40
0.0
 40
0.0
 40
0.0
 40
0.2414461237
 40
0.5019587126
 40
0.7612325544
 40
1.0
 40
1.0
 40
1.0
 40
1.0
 10
86.2480081807
 20
543.9057282708
 30
0.0
 10
86.2979502639
 20
543.905731122
 30
0.0
 10
86.4027685805
 20
543.8861365951
 30
0.0
 10
86.5385040916
 20
543.7981315663
 30
0.0
 10
86.6280153255
 20
543.6639561207
 30
0.0
 10
86.6480169275
 20
543.5599198356
 30
0.0
 10
86.6480188444
 20
543.5105318252
 30
0.0
  0
SPLINE
  5
49F
100
AcDbEntity
  8
0
100
AcDbSpline
 62
7
  6
BYLAYER
 70
0
 71
3
 72
11
 73
7
 74
0
 42
0.0000001
 43
0.0000001
 44
0.0000000001
 40
0.0
 40
0.0
 40
0.0
 40
0.0
 40
0.3873031076
 40
0.6683530788
 40
0.8570539417
 40
1.0
 40
1.0
 40
1.0
 40
1.0
 10
86.3551878498
 20
543.9414870032
 30
0.0
 10
86.3395029084
 20
543.9414869853
 30
0.0
 10
86.3122926658
 20
543.9407613663
 30
0.0
 10
86.278201617
 20
543.9352954013
 30
0.0
 10
86.2542504765
 20
543.9252420924
 30
0.0
 10
86.2480056055
 20
543.9115608321
 30
0.0
 10
86.2480081781
 20
543.9057718252
 30
0.0
  0
SPLINE
  5
4A0
100
AcDbEntity
  8
0
100
AcDbSpline
 62
7
  6
BYLAYER
 70
0
 71
3
 72
11
 73
7
 74
0
 42
0.0000001
 43
0.0000001
 44
0.0000000001
 40
0.0
 40
0.0
 40
0.0
 40
0.0
 40
0.2539753862
 40
0.5023672
 40
0.7487291455
 40
1.0
 40
1.0
 40
1.0
 40
1.0
 10
91.8980081781
 20
537.8882021383
 30
0.0
 10
92.1522427543
 20
538.0325457252
 30
0.0
 10
92.6278917319
 20
538.3702453943
 30
0.0
 10
93.2098099661
 20
539.0158527715
 30
0.0
 10
93.6227372517
 20
539.7783841008
 30
0.0
 10
93.7582818258
 20
540.3435053413
 30
0.0
 10
93.7866235836
 20
540.6313532464
 30
0.0
  0
SPLINE
  5
4A1
100
AcDbEntity
  8
0
100
AcDbSpline
 62
7
  6
BYLAYER
 70
0
 71
3
 72
16
 73
12
 74
0
 42
0.0000001
 43
0.0000001
 44
0.0000000001
 40
0.0
 40
0.0
 40
0.0
 40
0.0
 40
0.2838971917
 40
0.4653768133
 40
0.6477535025
 40
0.8047031984
 40
0.9168466336
 40
0.95375835
 40
0.9788056948
 40
0.9934804045
 40
1.0
 40
1.0
 40
1.0
 40
1.0
 10
93.7866249028
 20
540.6313523363
 30
0.0
 10
93.7253333556
 20
540.6400102407
 30
0.0
 10
93.6244448468
 20
540.6512653546
 30
0.0
 10
93.4837458939
 20
540.6634473915
 30
0.0
 10
93.3703918825
 20
540.6708754145
 30
0.0
 10
93.2721166133
 20
540.6749117405
 30
0.0
 10
93.2051812832
 20
540.6752729895
 30
0.0
 10
93.1674842307
 20
540.6735101214
 30
0.0
 10
93.1505208405
 20
540.6713715708
 30
0.0
 10
93.1412634362
 20
540.6695778033
 30
0.0
 10
93.1363737908
 20
540.6667575356
 30
0.0
 10
93.1362531789
 20
540.6653411501
 30
0.0
  0
SPLINE
  5
4A2
100
AcDbEntity
  8
0
100
AcDbSpline
 62
7
  6
BYLAYER
 70
0
 71
3
 72
9
 73
5
 74
0
 42
0.0000001
 43
0.0000001
 44
0.0000000001
 40
0.0
 40
0.0
 40
0.0
 40
0.0
 40
0.1977562152
 40
1.0
 40
1.0
 40
1.0
 40
1.0
 10
93.8018537685
 20
540.9891997791
 30
0.0
 10
93.7852224055
 20
540.9913076751
 30
0.0
 10
93.7009074978
 20
541.0002440376
 30
0.0
 10
93.6160168834
 20
541.0032249392
 30
0.0
 10
93.5480081781
 20
541.0032249623
 30
0.0
  0
SPLINE
  5
4A3
100
AcDbEntity
  8
0
100
AcDbSpline
 62
7
  6
BYLAYER
 70
0
 71
3
 72
13
 73
9
 74
0
 42
0.0000001
 43
0.0000001
 44
0.0000000001
 40
0.0
 40
0.0
 40
0.0
 40
0.0
 40
0.396856725
 40
0.7272729887
 40
0.8434381313
 40
0.9242265911
 40
0.9730275955
 40
1.0
 40
1.0
 40
1.0
 40
1.0
 10
93.5480081781
 20
541.0032249598
 30
0.0
 10
93.4934165495
 20
541.0032249784
 30
0.0
 10
93.3933695868
 20
541.0001367693
 30
0.0
 10
93.277703845
 20
540.9886274417
 30
0.0
 10
93.2064848008
 20
540.9744483546
 30
0.0
 10
93.1741864246
 20
540.9640357151
 30
0.0
 10
93.1547448368
 20
540.9547606459
 30
0.0
 10
93.148007446
 20
540.9451973342
 30
0.0
 10
93.1480074302
 20
540.9414870091
 30
0.0
  0
SPLINE
  5
4A4
100
AcDbEntity
  8
0
100
AcDbSpline
 62
7
  6
BYLAYER
 70
0
 71
3
 72
11
 73
7
 74
0
 42
0.0000001
 43
0.0000001
 44
0.0000000001
 40
0.0
 40
0.0
 40
0.0
 40
0.0
 40
0.2523587406
 40
0.5032976709
 40
0.7523102757
 40
1.0
 40
1.0
 40
1.0
 40
1.0
 10
93.5480081781
 20
542.992520328
 30
0.0
 10
93.4960164578
 20
542.9925200978
 30
0.0
 10
93.3912169124
 20
542.9722549622
 30
0.0
 10
93.2583236566
 20
542.8852828664
 30
0.0
 10
93.1689653416
 20
542.7550129247
 30
0.0
 10
93.1480079734
 20
542.651523833
 30
0.0
 10
93.1480081781
 20
542.6004940378
 30
0.0
  0
SPLINE
  5
4A5
100
AcDbEntity
  8
0
100
AcDbSpline
 62
7
  6
BYLAYER
 70
0
 71
3
 72
11
 73
7
 74
0
 42
0.0000001
 43
0.0000001
 44
0.0000000001
 40
0.0
 40
0.0
 40
0.0
 40
0.0
 40
0.2512719326
 40
0.4976334996
 40
0.7460232534
 40
1.0
 40
1.0
 40
1.0
 40
1.0
 10
93.7866267856
 20
519.2516207601
 30
0.0
 10
93.7582806015
 20
519.5394694844
 30
0.0
 10
93.6227359894
 20
520.1045907347
 30
0.0
 10
93.2098085585
 20
520.86712077
 30
0.0
 10
92.6278904203
 20
521.5127259577
 30
0.0
 10
92.1522438949
 20
521.8504276907
 30
0.0
 10
91.8980081781
 20
521.9947724564
 30
0.0
  0
SPLINE
  5
4A6
100
AcDbEntity
  8
0
100
AcDbSpline
 62
7
  6
BYLAYER
 70
0
 71
3
 72
9
 73
5
 74
0
 42
0.0000001
 43
0.0000001
 44
0.0000000001
 40
0.0
 40
0.0
 40
0.0
 40
0.0
 40
0.4105077453
 40
1.0
 40
1.0
 40
1.0
 40
1.0
 10
93.1479962407
 20
542.6004983236
 30
0.0
 10
93.1480037442
 20
542.6190891933
 30
0.0
 10
93.1324037541
 20
542.6633195581
 30
0.0
 10
93.1093948685
 20
542.7020283
 30
0.0
 10
93.0944122809
 20
542.7241242787
 30
0.0
  0
SPLINE
  5
4A7
100
AcDbEntity
  8
0
100
AcDbSpline
 62
7
  6
BYLAYER
 70
0
 71
3
 72
9
 73
5
 74
0
 42
0.0000001
 43
0.0000001
 44
0.0000000001
 40
0.0
 40
0.0
 40
0.0
 40
0.0
 40
0.2191796735
 40
1.0
 40
1.0
 40
1.0
 40
1.0
 10
93.0944177975
 20
542.7241313849
 30
0.0
 10
93.0802695058
 20
542.7449896389
 30
0.0
 10
93.0138282197
 20
542.8388075299
 30
0.0
 10
92.9380770584
 20
542.9265034534
 30
0.0
 10
92.8724178163
 20
542.9877473475
 30
0.0
  0
SPLINE
  5
4A8
100
AcDbEntity
  8
0
100
AcDbSpline
 62
7
  6
BYLAYER
 70
0
 71
3
 72
9
 73
5
 74
0
 42
0.0000001
 43
0.0000001
 44
0.0000000001
 40
0.0
 40
0.0
 40
0.0
 40
0.0
 40
0.5011986913
 40
1.0
 40
1.0
 40
1.0
 40
1.0
 10
93.5480081781
 20
542.992520328
 30
0.0
 10
93.5935903057
 20
542.9924877429
 30
0.0
 10
93.6851885353
 20
542.9770821315
 30
0.0
 10
93.7664832009
 20
542.9320338612
 30
0.0
 10
93.801854332
 20
542.9036298964
 30
0.0
  0
SPLINE
  5
4A9
100
AcDbEntity
  8
0
100
AcDbSpline
 62
7
  6
BYLAYER
 70
0
 71
3
 72
10
 73
6
 74
0
 42
0.0000001
 43
0.0000001
 44
0.0000000001
 40
0.0
 40
0.0
 40
0.0
 40
0.0
 40
0.1526428855
 40
0.3678266995
 40
1.0
 40
1.0
 40
1.0
 40
1.0
 10
93.801854332
 20
542.9035180773
 30
0.0
 10
93.8018087831
 20
542.9133233219
 30
0.0
 10
93.7931550534
 20
542.9364505474
 30
0.0
 10
93.7539130665
 20
542.9873760372
 30
0.0
 10
93.7108827816
 20
543.021982558
 30
0.0
 10
93.6781987568
 20
543.0460833563
 30
0.0
  0
SPLINE
  5
4AA
100
AcDbEntity
  8
0
100
AcDbSpline
 62
7
  6
BYLAYER
 70
0
 71
3
 72
11
 73
7
 74
0
 42
0.0000001
 43
0.0000001
 44
0.0000000001
 40
0.0
 40
0.0
 40
0.0
 40
0.0
 40
0.2132250487
 40
0.480121499
 40
0.7627953905
 40
1.0
 40
1.0
 40
1.0
 40
1.0
 10
93.6781831658
 20
543.0460844798
 30
0.0
 10
93.6338466548
 20
543.0787735234
 30
0.0
 10
93.5072096932
 20
543.1193123059
 30
0.0
 10
93.3087627374
 20
543.0584182068
 30
0.0
 10
93.1585642085
 20
542.9121034474
 30
0.0
 10
93.10552112
 20
542.7843926993
 30
0.0
 10
93.0944148401
 20
542.7241282058
 30
0.0
  0
SPLINE
  5
4AB
100
AcDbEntity
  8
0
100
AcDbSpline
 62
7
  6
BYLAYER
 70
0
 71
3
 72
12
 73
8
 74
0
 42
0.0000001
 43
0.0000001
 44
0.0000000001
 40
0.0
 40
0.0
 40
0.0
 40
0.0
 40
0.1256403897
 40
0.2344748991
 40
0.3715332375
 40
0.6920029083
 40
1.0
 40
1.0
 40
1.0
 40
1.0
 10
93.1658645671
 20
543.3502690735
 30
0.0
 10
93.1474542575
 20
543.3588552053
 30
0.0
 10
93.1049949212
 20
543.3395571765
 30
0.0
 10
93.0626498365
 20
543.3004243564
 30
0.0
 10
93.0018867726
 20
543.2302500307
 30
0.0
 10
92.9364214987
 20
543.1252205261
 30
0.0
 10
92.8917456216
 20
543.0336416469
 30
0.0
 10
92.8724156488
 20
542.9877480907
 30
0.0
  0
SPLINE
  5
4AC
100
AcDbEntity
  8
0
100
AcDbSpline
 62
7
  6
BYLAYER
 70
0
 71
3
 72
11
 73
7
 74
0
 42
0.0000001
 43
0.0000001
 44
0.0000000001
 40
0.0
 40
0.0
 40
0.0
 40
0.0
 40
0.2057224304
 40
0.4680399112
 40
0.7541577972
 40
1.0
 40
1.0
 40
1.0
 40
1.0
 10
93.6781768174
 20
516.8368691671
 30
0.0
 10
93.6353952891
 20
516.8053259529
 30
0.0
 10
93.512942587
 20
516.7644738307
 30
0.0
 10
93.3155074017
 20
516.8203795105
 30
0.0
 10
93.1612837193
 20
516.9658262091
 30
0.0
 10
93.1059255011
 20
517.0963746425
 30
0.0
 10
93.0944141266
 20
517.1588415964
 30
0.0
  0
SPLINE
  5
4AD
100
AcDbEntity
  8
0
100
AcDbSpline
 62
7
  6
BYLAYER
 70
0
 71
3
 72
16
 73
12
 74
0
 42
0.0000001
 43
0.0000001
 44
0.0000000001
 40
0.0
 40
0.0
 40
0.0
 40
0.0
 40
0.2846723048
 40
0.4664185828
 40
0.6487876804
 40
0.8054624666
 40
0.9172294412
 40
0.9539824952
 40
0.9789094702
 40
0.9935080488
 40
1.0
 40
1.0
 40
1.0
 40
1.0
 10
93.7866202234
 20
519.251620572
 30
0.0
 10
93.7251615744
 20
519.2429388818
 30
0.0
 10
93.6240466795
 20
519.2316651174
 30
0.0
 10
93.4831223493
 20
519.2194773827
 30
0.0
 10
93.369771407
 20
519.2120641444
 30
0.0
 10
93.271638513
 20
519.208050081
 30
0.0
 10
93.2048819943
 20
519.2077063708
 30
0.0
 10
93.1673254985
 20
519.2094765433
 30
0.0
 10
93.1504450634
 20
519.2116148837
 30
0.0
 10
93.1412282911
 20
519.213407108
 30
0.0
 10
93.1363726926
 20
519.2162228781
 30
0.0
 10
93.1362523392
 20
519.2176332313
 30
0.0
  0
SPLINE
  5
4AE
100
AcDbEntity
  8
0
100
AcDbSpline
 62
7
  6
BYLAYER
 70
0
 71
3
 72
11
 73
7
 74
0
 42
0.0000001
 43
0.0000001
 44
0.0000000001
 40
0.0
 40
0.0
 40
0.0
 40
0.0
 40
0.1429471761
 40
0.3316477769
 40
0.6126971308
 40
1.0
 40
1.0
 40
1.0
 40
1.0
 10
86.2480081781
 20
515.9772021783
 30
0.0
 10
86.2480056506
 20
515.9714131476
 30
0.0
 10
86.2542507609
 20
515.9577320384
 30
0.0
 10
86.2782016181
 20
515.9476785799
 30
0.0
 10
86.3122925792
 20
515.9422126663
 30
0.0
 10
86.3395026595
 20
515.9414870288
 30
0.0
 10
86.3551875335
 20
515.9414870032
 30
0.0
  0
SPLINE
  5
4AF
100
AcDbEntity
  8
0
100
AcDbSpline
 62
7
  6
BYLAYER
 70
0
 71
3
 72
11
 73
7
 74
0
 42
0.0000001
 43
0.0000001
 44
0.0000000001
 40
0.0
 40
0.0
 40
0.0
 40
0.0
 40
0.2387674923
 40
0.4980413457
 40
0.7585539171
 40
1.0
 40
1.0
 40
1.0
 40
1.0
 10
86.648018954
 20
516.3724421996
 30
0.0
 10
86.6480170311
 20
516.3230541908
 30
0.0
 10
86.6280154015
 20
516.2190179168
 30
0.0
 10
86.5385040931
 20
516.0848425456
 30
0.0
 10
86.402768541
 20
515.9968376596
 30
0.0
 10
86.2979502444
 20
515.9772432326
 30
0.0
 10
86.2480081808
 20
515.9772461242
 30
0.0
  0
SPLINE
  5
4B0
100
AcDbEntity
  8
0
100
AcDbSpline
 62
7
  6
BYLAYER
 70
0
 71
3
 72
11
 73
7
 74
0
 42
0.0000001
 43
0.0000001
 44
0.0000000001
 40
0.0
 40
0.0
 40
0.0
 40
0.0
 40
0.2238783593
 40
0.4766113528
 40
0.7441159034
 40
1.0
 40
1.0
 40
1.0
 40
1.0
 10
86.3551903967
 20
515.9415153522
 30
0.0
 10
86.3987118996
 20
515.9415123838
 30
0.0
 10
86.4924440306
 20
515.9625433383
 30
0.0
 10
86.6099944683
 20
516.0542553366
 30
0.0
 10
86.6850619769
 20
516.1892307781
 30
0.0
 10
86.7016106149
 20
516.2917436492
 30
0.0
 10
86.7016124185
 20
516.3414870031
 30
0.0
  0
SPLINE
  5
4B1
100
AcDbEntity
  8
0
100
AcDbSpline
 62
7
  6
BYLAYER
 70
0
 71
3
 72
11
 73
7
 74
0
 42
0.0000001
 43
0.0000001
 44
0.0000000001
 40
0.0
 40
0.0
 40
0.0
 40
0.0
 40
0.2059262003
 40
0.407440102
 40
0.6624627448
 40
1.0
 40
1.0
 40
1.0
 40
1.0
 10
86.6480189524
 20
516.3724471303
 30
0.0
 10
86.6480176097
 20
516.3676885447
 30
0.0
 10
86.649977569
 20
516.3578394552
 30
0.0
 10
86.6621153299
 20
516.3472103402
 30
0.0
 10
86.6800923753
 20
516.3422640272
 30
0.0
 10
86.693808306
 20
516.3414913329
 30
0.0
 10
86.7016081876
 20
516.341490355
 30
0.0
  0
SPLINE
  5
4B2
100
AcDbEntity
  8
0
100
AcDbSpline
 62
7
  6
BYLAYER
 70
0
 71
3
 72
12
 73
8
 74
0
 42
0.0000001
 43
0.0000001
 44
0.0000000001
 40
0.0
 40
0.0
 40
0.0
 40
0.0
 40
0.1140477002
 40
0.2142400311
 40
0.3447704465
 40
0.6689109959
 40
1.0
 40
1.0
 40
1.0
 40
1.0
 10
93.1882171136
 20
266.5326981662
 30
0.0
 10
93.1714936899
 20
266.5248989945
 30
0.0
 10
93.1324698059
 20
266.5402492143
 30
0.0
 10
93.0918466166
 20
266.5756814416
 30
0.0
 10
93.030937364
 20
266.6431370036
 30
0.0
 10
92.9625516451
 20
266.75048946
 30
0.0
 10
92.9155609268
 20
266.8458510963
 30
0.0
 10
92.8947667028
 20
266.8952199194
 30
0.0
  0
SPLINE
  5
4B3
100
AcDbEntity
  8
0
100
AcDbSpline
 62
7
  6
BYLAYER
 70
0
 71
3
 72
9
 73
5
 74
0
 42
0.0000001
 43
0.0000001
 44
0.0000000001
 40
0.0
 40
0.0
 40
0.0
 40
0.0
 40
0.2966377822
 40
1.0
 40
1.0
 40
1.0
 40
1.0
 10
93.5703640066
 20
268.8797493669
 30
0.0
 10
93.5955107228
 20
268.8797494173
 30
0.0
 10
93.6802636571
 20
268.8810501162
 30
0.0
 10
93.7650542536
 20
268.8862775418
 30
0.0
 10
93.8242067854
 20
268.8937747409
 30
0.0
  0
SPLINE
  5
4B4
100
AcDbEntity
  8
0
100
AcDbSpline
 62
7
  6
BYLAYER
 70
0
 71
3
 72
13
 73
9
 74
0
 42
0.0000001
 43
0.0000001
 44
0.0000000001
 40
0.0
 40
0.0
 40
0.0
 40
0.0
 40
0.0269725314
 40
0.0757739678
 40
0.1565629412
 40
0.2727285561
 40
0.6031450231
 40
1.0
 40
1.0
 40
1.0
 40
1.0
 10
93.1703595981
 20
268.9414869606
 30
0.0
 10
93.1703597007
 20
268.9377765874
 30
0.0
 10
93.1770973985
 20
268.928213297
 30
0.0
 10
93.1965393013
 20
268.9189382269
 30
0.0
 10
93.2288381969
 20
268.9085255899
 30
0.0
 10
93.3000580146
 20
268.8943465627
 30
0.0
 10
93.4157245906
 20
268.8828373649
 30
0.0
 10
93.5157721682
 20
268.8797492942
 30
0.0
 10
93.5703640066
 20
268.8797494042
 30
0.0
  0
SPLINE
  5
4B5
100
AcDbEntity
  8
0
100
AcDbSpline
 62
7
  6
BYLAYER
 70
0
 71
3
 72
9
 73
5
 74
0
 42
0.0000001
 43
0.0000001
 44
0.0000000001
 40
0.0
 40
0.0
 40
0.0
 40
0.0
 40
0.5895033168
 40
1.0
 40
1.0
 40
1.0
 40
1.0
 10
93.1167654028
 20
267.1588468959
 30
0.0
 10
93.1317486995
 20
267.1809440814
 30
0.0
 10
93.1547585642
 20
267.2196538554
 30
0.0
 10
93.1703599311
 20
267.2638855285
 30
0.0
 10
93.1703523867
 20
267.2824765209
 30
0.0
  0
SPLINE
  5
4B6
100
AcDbEntity
  8
0
100
AcDbSpline
 62
7
  6
BYLAYER
 70
0
 71
3
 72
9
 73
5
 74
0
 42
0.0000001
 43
0.0000001
 44
0.0000000001
 40
0.0
 40
0.0
 40
0.0
 40
0.0
 40
0.2704838407
 40
1.0
 40
1.0
 40
1.0
 40
1.0
 10
92.8947559773
 20
266.8952336836
 30
0.0
 10
92.917508087
 20
266.9164574902
 30
0.0
 10
92.9986509095
 20
266.9981115356
 30
0.0
 10
93.0696639817
 20
267.0893963236
 30
0.0
 10
93.1167653328
 20
267.1588492489
 30
0.0
  0
SPLINE
  5
4B7
100
AcDbEntity
  8
0
100
AcDbSpline
 62
7
  6
BYLAYER
 70
0
 71
3
 72
11
 73
7
 74
0
 42
0.0000001
 43
0.0000001
 44
0.0000000001
 40
0.0
 40
0.0
 40
0.0
 40
0.0
 40
0.3375389512
 40
0.5925627711
 40
0.7940768015
 40
1.0
 40
1.0
 40
1.0
 40
1.0
 10
86.723964121
 20
293.5414687074
 30
0.0
 10
86.7161642998
 20
293.5414677171
 30
0.0
 10
86.7024484769
 20
293.5406950373
 30
0.0
 10
86.6844715869
 20
293.5357489
 30
0.0
 10
86.6723337861
 20
293.5251202744
 30
0.0
 10
86.6703734905
 20
293.5152714727
 30
0.0
 10
86.6703746711
 20
293.5105130172
 30
0.0
  0
SPLINE
  5
4B8
100
AcDbEntity
  8
0
100
AcDbSpline
 62
7
  6
BYLAYER
 70
0
 71
3
 72
11
 73
7
 74
0
 42
0.0000001
 43
0.0000001
 44
0.0000000001
 40
0.0
 40
0.0
 40
0.0
 40
0.0
 40
0.2523710741
 40
0.503320698
 40
0.7523293402
 40
1.0
 40
1.0
 40
1.0
 40
1.0
 10
93.5703640066
 20
266.8904475321
 30
0.0
 10
93.5183708179
 20
266.8904490808
 30
0.0
 10
93.413572118
 20
266.9107375999
 30
0.0
 10
93.2806845529
 20
266.9977123205
 30
0.0
 10
93.1913241758
 20
267.1279732607
 30
0.0
 10
93.1703638177
 20
267.231455109
 30
0.0
 10
93.1703640066
 20
267.282479924
 30
0.0
  0
SPLINE
  5
4B9
100
AcDbEntity
  8
0
100
AcDbSpline
 62
7
  6
BYLAYER
 70
0
 71
3
 72
11
 73
7
 74
0
 42
0.0000001
 43
0.0000001
 44
0.0000000001
 40
0.0
 40
0.0
 40
0.0
 40
0.0
 40
0.223878454
 40
0.4766114939
 40
0.7441160033
 40
1.0
 40
1.0
 40
1.0
 40
1.0
 10
86.3775453813
 20
293.9414583781
 30
0.0
 10
86.421066922
 20
293.9414613892
 30
0.0
 10
86.5147991433
 20
293.9204305366
 30
0.0
 10
86.63234978
 20
293.8287186504
 30
0.0
 10
86.7074174719
 20
293.6937432446
 30
0.0
 10
86.7239661828
 20
293.5912303604
 30
0.0
 10
86.7239680075
 20
293.5414870038
 30
0.0
  0
SPLINE
  5
4BA
100
AcDbEntity
  8
0
100
AcDbSpline
 62
7
  6
BYLAYER
 70
0
 71
3
 72
9
 73
5
 74
0
 42
0.0000001
 43
0.0000001
 44
0.0000000001
 40
0.0
 40
0.0
 40
0.0
 40
0.0
 40
0.4989154126
 40
1.0
 40
1.0
 40
1.0
 40
1.0
 10
93.8242101605
 20
266.9794341332
 30
0.0
 10
93.7888479065
 20
266.9509884467
 30
0.0
 10
93.7075780651
 20
266.9058513018
 30
0.0
 10
93.6159446463
 20
266.8904383076
 30
0.0
 10
93.5703640066
 20
266.8904475321
 30
0.0
  0
SPLINE
  5
4BB
100
AcDbEntity
  8
0
100
AcDbSpline
 62
7
  6
BYLAYER
 70
0
 71
3
 72
10
 73
6
 74
0
 42
0.0000001
 43
0.0000001
 44
0.0000000001
 40
0.0
 40
0.0
 40
0.0
 40
0.0
 40
0.6322330962
 40
0.8474161435
 40
1.0
 40
1.0
 40
1.0
 40
1.0
 10
93.7005413964
 20
266.8368809272
 30
0.0
 10
93.7332351
 20
266.8609891101
 30
0.0
 10
93.7762837792
 20
266.8956070793
 30
0.0
 10
93.8155192324
 20
266.9465409607
 30
0.0
 10
93.8241865127
 20
266.9696753485
 30
0.0
 10
93.8242101605
 20
266.9794788893
 30
0.0
  0
SPLINE
  5
4BC
100
AcDbEntity
  8
0
100
AcDbSpline
 62
7
  6
BYLAYER
 70
0
 71
3
 72
11
 73
7
 74
0
 42
0.0000001
 43
0.0000001
 44
0.0000000001
 40
0.0
 40
0.0
 40
0.0
 40
0.0
 40
0.2414461237
 40
0.5019587126
 40
0.7612325544
 40
1.0
 40
1.0
 40
1.0
 40
1.0
 10
86.2703640092
 20
293.9057282708
 30
0.0
 10
86.3203060924
 20
293.905731122
 30
0.0
 10
86.4251244089
 20
293.8861365951
 30
0.0
 10
86.5608599201
 20
293.7981315663
 30
0.0
 10
86.650371154
 20
293.6639561207
 30
0.0
 10
86.670372756
 20
293.5599198356
 30
0.0
 10
86.6703746729
 20
293.5105318252
 30
0.0
  0
SPLINE
  5
4BD
100
AcDbEntity
  8
0
100
AcDbSpline
 62
7
  6
BYLAYER
 70
0
 71
3
 72
11
 73
7
 74
0
 42
0.0000001
 43
0.0000001
 44
0.0000000001
 40
0.0
 40
0.0
 40
0.0
 40
0.0
 40
0.3873031076
 40
0.6683530788
 40
0.8570539417
 40
1.0
 40
1.0
 40
1.0
 40
1.0
 10
86.3775436783
 20
293.9414870032
 30
0.0
 10
86.3618587369
 20
293.9414869853
 30
0.0
 10
86.3346484943
 20
293.9407613663
 30
0.0
 10
86.3005574454
 20
293.9352954013
 30
0.0
 10
86.276606305
 20
293.9252420924
 30
0.0
 10
86.270361434
 20
293.9115608321
 30
0.0
 10
86.2703640066
 20
293.9057718252
 30
0.0
  0
SPLINE
  5
4BE
100
AcDbEntity
  8
0
100
AcDbSpline
 62
7
  6
BYLAYER
 70
0
 71
3
 72
11
 73
7
 74
0
 42
0.0000001
 43
0.0000001
 44
0.0000000001
 40
0.0
 40
0.0
 40
0.0
 40
0.0
 40
0.2539753862
 40
0.5023672
 40
0.7487291455
 40
1.0
 40
1.0
 40
1.0
 40
1.0
 10
91.9203640066
 20
287.8882021383
 30
0.0
 10
92.1745985827
 20
288.0325457252
 30
0.0
 10
92.6502475603
 20
288.3702453943
 30
0.0
 10
93.2321657946
 20
289.0158527715
 30
0.0
 10
93.6450930802
 20
289.7783841008
 30
0.0
 10
93.7806376543
 20
290.3435053413
 30
0.0
 10
93.808979412
 20
290.6313532464
 30
0.0
  0
SPLINE
  5
4BF
100
AcDbEntity
  8
0
100
AcDbSpline
 62
7
  6
BYLAYER
 70
0
 71
3
 72
16
 73
12
 74
0
 42
0.0000001
 43
0.0000001
 44
0.0000000001
 40
0.0
 40
0.0
 40
0.0
 40
0.0
 40
0.2838971917
 40
0.4653768133
 40
0.6477535025
 40
0.8047031984
 40
0.9168466336
 40
0.95375835
 40
0.9788056948
 40
0.9934804045
 40
1.0
 40
1.0
 40
1.0
 40
1.0
 10
93.8089807312
 20
290.6313523363
 30
0.0
 10
93.747689184
 20
290.6400102407
 30
0.0
 10
93.6468006752
 20
290.6512653546
 30
0.0
 10
93.5061017223
 20
290.6634473915
 30
0.0
 10
93.392747711
 20
290.6708754145
 30
0.0
 10
93.2944724417
 20
290.6749117405
 30
0.0
 10
93.2275371117
 20
290.6752729895
 30
0.0
 10
93.1898400592
 20
290.6735101214
 30
0.0
 10
93.1728766689
 20
290.6713715708
 30
0.0
 10
93.1636192647
 20
290.6695778033
 30
0.0
 10
93.1587296192
 20
290.6667575356
 30
0.0
 10
93.1586090073
 20
290.6653411501
 30
0.0
  0
SPLINE
  5
4C0
100
AcDbEntity
  8
0
100
AcDbSpline
 62
7
  6
BYLAYER
 70
0
 71
3
 72
9
 73
5
 74
0
 42
0.0000001
 43
0.0000001
 44
0.0000000001
 40
0.0
 40
0.0
 40
0.0
 40
0.0
 40
0.1977562152
 40
1.0
 40
1.0
 40
1.0
 40
1.0
 10
93.8242095969
 20
290.9891997791
 30
0.0
 10
93.8075782339
 20
290.9913076751
 30
0.0
 10
93.7232633262
 20
291.0002440376
 30
0.0
 10
93.6383727118
 20
291.0032249392
 30
0.0
 10
93.5703640066
 20
291.0032249623
 30
0.0
  0
SPLINE
  5
4C1
100
AcDbEntity
  8
0
100
AcDbSpline
 62
7
  6
BYLAYER
 70
0
 71
3
 72
13
 73
9
 74
0
 42
0.0000001
 43
0.0000001
 44
0.0000000001
 40
0.0
 40
0.0
 40
0.0
 40
0.0
 40
0.396856725
 40
0.7272729887
 40
0.8434381313
 40
0.9242265911
 40
0.9730275955
 40
1.0
 40
1.0
 40
1.0
 40
1.0
 10
93.5703640066
 20
291.0032249598
 30
0.0
 10
93.515772378
 20
291.0032249784
 30
0.0
 10
93.4157254153
 20
291.0001367693
 30
0.0
 10
93.3000596735
 20
290.9886274417
 30
0.0
 10
93.2288406292
 20
290.9744483546
 30
0.0
 10
93.1965422531
 20
290.9640357151
 30
0.0
 10
93.1771006652
 20
290.9547606459
 30
0.0
 10
93.1703632745
 20
290.9451973342
 30
0.0
 10
93.1703632586
 20
290.9414870091
 30
0.0
  0
SPLINE
  5
4C2
100
AcDbEntity
  8
0
100
AcDbSpline
 62
7
  6
BYLAYER
 70
0
 71
3
 72
11
 73
7
 74
0
 42
0.0000001
 43
0.0000001
 44
0.0000000001
 40
0.0
 40
0.0
 40
0.0
 40
0.0
 40
0.2523587406
 40
0.5032976709
 40
0.7523102757
 40
1.0
 40
1.0
 40
1.0
 40
1.0
 10
93.5703640066
 20
292.992520328
 30
0.0
 10
93.5183722863
 20
292.9925200978
 30
0.0
 10
93.4135727409
 20
292.9722549622
 30
0.0
 10
93.2806794851
 20
292.8852828664
 30
0.0
 10
93.1913211701
 20
292.7550129247
 30
0.0
 10
93.1703638019
 20
292.651523833
 30
0.0
 10
93.1703640066
 20
292.6004940378
 30
0.0
  0
SPLINE
  5
4C3
100
AcDbEntity
  8
0
100
AcDbSpline
 62
7
  6
BYLAYER
 70
0
 71
3
 72
11
 73
7
 74
0
 42
0.0000001
 43
0.0000001
 44
0.0000000001
 40
0.0
 40
0.0
 40
0.0
 40
0.0
 40
0.2512719326
 40
0.4976334996
 40
0.7460232534
 40
1.0
 40
1.0
 40
1.0
 40
1.0
 10
93.808982614
 20
269.2516207601
 30
0.0
 10
93.78063643
 20
269.5394694844
 30
0.0
 10
93.6450918178
 20
270.1045907347
 30
0.0
 10
93.232164387
 20
270.86712077
 30
0.0
 10
92.6502462488
 20
271.5127259577
 30
0.0
 10
92.1745997234
 20
271.8504276907
 30
0.0
 10
91.9203640066
 20
271.9947724564
 30
0.0
  0
SPLINE
  5
4C4
100
AcDbEntity
  8
0
100
AcDbSpline
 62
7
  6
BYLAYER
 70
0
 71
3
 72
9
 73
5
 74
0
 42
0.0000001
 43
0.0000001
 44
0.0000000001
 40
0.0
 40
0.0
 40
0.0
 40
0.0
 40
0.4105077453
 40
1.0
 40
1.0
 40
1.0
 40
1.0
 10
93.1703520692
 20
292.6004983236
 30
0.0
 10
93.1703595726
 20
292.6190891933
 30
0.0
 10
93.1547595826
 20
292.6633195581
 30
0.0
 10
93.1317506969
 20
292.7020283
 30
0.0
 10
93.1167681093
 20
292.7241242787
 30
0.0
  0
SPLINE
  5
4C5
100
AcDbEntity
  8
0
100
AcDbSpline
 62
7
  6
BYLAYER
 70
0
 71
3
 72
9
 73
5
 74
0
 42
0.0000001
 43
0.0000001
 44
0.0000000001
 40
0.0
 40
0.0
 40
0.0
 40
0.0
 40
0.2191796735
 40
1.0
 40
1.0
 40
1.0
 40
1.0
 10
93.1167736259
 20
292.724131385
 30
0.0
 10
93.1026253342
 20
292.7449896389
 30
0.0
 10
93.0361840482
 20
292.8388075298
 30
0.0
 10
92.9604328871
 20
292.9265034531
 30
0.0
 10
92.8947736452
 20
292.9877473472
 30
0.0
  0
SPLINE
  5
4C6
100
AcDbEntity
  8
0
100
AcDbSpline
 62
7
  6
BYLAYER
 70
0
 71
3
 72
9
 73
5
 74
0
 42
0.0000001
 43
0.0000001
 44
0.0000000001
 40
0.0
 40
0.0
 40
0.0
 40
0.0
 40
0.5011986913
 40
1.0
 40
1.0
 40
1.0
 40
1.0
 10
93.5703640066
 20
292.992520328
 30
0.0
 10
93.6159461341
 20
292.9924877429
 30
0.0
 10
93.7075443638
 20
292.9770821315
 30
0.0
 10
93.7888390293
 20
292.9320338612
 30
0.0
 10
93.8242101605
 20
292.9036298964
 30
0.0
  0
SPLINE
  5
4C7
100
AcDbEntity
  8
0
100
AcDbSpline
 62
7
  6
BYLAYER
 70
0
 71
3
 72
10
 73
6
 74
0
 42
0.0000001
 43
0.0000001
 44
0.0000000001
 40
0.0
 40
0.0
 40
0.0
 40
0.0
 40
0.1526428855
 40
0.3678266995
 40
1.0
 40
1.0
 40
1.0
 40
1.0
 10
93.8242101605
 20
292.9035180773
 30
0.0
 10
93.8241646116
 20
292.9133233219
 30
0.0
 10
93.8155108818
 20
292.9364505474
 30
0.0
 10
93.7762688949
 20
292.9873760372
 30
0.0
 10
93.7332386101
 20
293.021982558
 30
0.0
 10
93.7005545852
 20
293.0460833563
 30
0.0
  0
SPLINE
  5
4C8
100
AcDbEntity
  8
0
100
AcDbSpline
 62
7
  6
BYLAYER
 70
0
 71
3
 72
11
 73
7
 74
0
 42
0.0000001
 43
0.0000001
 44
0.0000000001
 40
0.0
 40
0.0
 40
0.0
 40
0.0
 40
0.2132250487
 40
0.480121499
 40
0.7627953905
 40
1.0
 40
1.0
 40
1.0
 40
1.0
 10
93.7005389943
 20
293.0460844798
 30
0.0
 10
93.6562024833
 20
293.0787735234
 30
0.0
 10
93.5295655217
 20
293.1193123059
 30
0.0
 10
93.3311185658
 20
293.0584182068
 30
0.0
 10
93.1809200369
 20
292.9121034474
 30
0.0
 10
93.1278769485
 20
292.7843926993
 30
0.0
 10
93.1167706686
 20
292.7241282058
 30
0.0
  0
SPLINE
  5
4C9
100
AcDbEntity
  8
0
100
AcDbSpline
 62
7
  6
BYLAYER
 70
0
 71
3
 72
12
 73
8
 74
0
 42
0.0000001
 43
0.0000001
 44
0.0000000001
 40
0.0
 40
0.0
 40
0.0
 40
0.0
 40
0.1256403897
 40
0.2344748991
 40
0.3715332375
 40
0.6920029083
 40
1.0
 40
1.0
 40
1.0
 40
1.0
 10
93.1882203956
 20
293.3502690735
 30
0.0
 10
93.169810086
 20
293.3588552053
 30
0.0
 10
93.1273507497
 20
293.3395571765
 30
0.0
 10
93.0850056649
 20
293.3004243564
 30
0.0
 10
93.024242601
 20
293.2302500307
 30
0.0
 10
92.9587773272
 20
293.1252205261
 30
0.0
 10
92.9141014501
 20
293.0336416469
 30
0.0
 10
92.8947714772
 20
292.9877480907
 30
0.0
  0
SPLINE
  5
4CA
100
AcDbEntity
  8
0
100
AcDbSpline
 62
7
  6
BYLAYER
 70
0
 71
3
 72
11
 73
7
 74
0
 42
0.0000001
 43
0.0000001
 44
0.0000000001
 40
0.0
 40
0.0
 40
0.0
 40
0.0
 40
0.2057224304
 40
0.4680399112
 40
0.7541577972
 40
1.0
 40
1.0
 40
1.0
 40
1.0
 10
93.7005326459
 20
266.8368691671
 30
0.0
 10
93.6577511176
 20
266.8053259529
 30
0.0
 10
93.5352984155
 20
266.7644738307
 30
0.0
 10
93.3378632302
 20
266.8203795105
 30
0.0
 10
93.1836395478
 20
266.9658262091
 30
0.0
 10
93.1282813296
 20
267.0963746425
 30
0.0
 10
93.116769955
 20
267.1588415964
 30
0.0
  0
SPLINE
  5
4CB
100
AcDbEntity
  8
0
100
AcDbSpline
 62
7
  6
BYLAYER
 70
0
 71
3
 72
16
 73
12
 74
0
 42
0.0000001
 43
0.0000001
 44
0.0000000001
 40
0.0
 40
0.0
 40
0.0
 40
0.0
 40
0.2846723048
 40
0.4664185828
 40
0.6487876804
 40
0.8054624666
 40
0.9172294412
 40
0.9539824952
 40
0.9789094702
 40
0.9935080488
 40
1.0
 40
1.0
 40
1.0
 40
1.0
 10
93.8089760519
 20
269.251620572
 30
0.0
 10
93.7475174028
 20
269.2429388818
 30
0.0
 10
93.646402508
 20
269.2316651174
 30
0.0
 10
93.5054781778
 20
269.2194773827
 30
0.0
 10
93.3921272355
 20
269.2120641444
 30
0.0
 10
93.2939943415
 20
269.208050081
 30
0.0
 10
93.2272378227
 20
269.2077063708
 30
0.0
 10
93.189681327
 20
269.2094765433
 30
0.0
 10
93.1728008919
 20
269.2116148837
 30
0.0
 10
93.1635841195
 20
269.213407108
 30
0.0
 10
93.1587285211
 20
269.2162228781
 30
0.0
 10
93.1586081677
 20
269.2176332313
 30
0.0
  0
SPLINE
  5
4CC
100
AcDbEntity
  8
0
100
AcDbSpline
 62
7
  6
BYLAYER
 70
0
 71
3
 72
11
 73
7
 74
0
 42
0.0000001
 43
0.0000001
 44
0.0000000001
 40
0.0
 40
0.0
 40
0.0
 40
0.0
 40
0.1429471761
 40
0.3316477769
 40
0.6126971307
 40
1.0
 40
1.0
 40
1.0
 40
1.0
 10
86.2703640066
 20
265.9772021783
 30
0.0
 10
86.270361479
 20
265.9714131476
 30
0.0
 10
86.2766065893
 20
265.9577320384
 30
0.0
 10
86.3005574466
 20
265.9476785799
 30
0.0
 10
86.3346484077
 20
265.9422126663
 30
0.0
 10
86.361858488
 20
265.9414870288
 30
0.0
 10
86.3775433619
 20
265.9414870032
 30
0.0
  0
SPLINE
  5
4CD
100
AcDbEntity
  8
0
100
AcDbSpline
 62
7
  6
BYLAYER
 70
0
 71
3
 72
11
 73
7
 74
0
 42
0.0000001
 43
0.0000001
 44
0.0000000001
 40
0.0
 40
0.0
 40
0.0
 40
0.0
 40
0.2387674923
 40
0.4980413457
 40
0.758553917
 40
1.0
 40
1.0
 40
1.0
 40
1.0
 10
86.6703747825
 20
266.3724421996
 30
0.0
 10
86.6703728595
 20
266.3230541908
 30
0.0
 10
86.65037123
 20
266.2190179168
 30
0.0
 10
86.5608599215
 20
266.0848425456
 30
0.0
 10
86.4251243695
 20
265.9968376596
 30
0.0
 10
86.3203060728
 20
265.9772432326
 30
0.0
 10
86.2703640092
 20
265.9772461243
 30
0.0
  0
SPLINE
  5
4CE
100
AcDbEntity
  8
0
100
AcDbSpline
 62
7
  6
BYLAYER
 70
0
 71
3
 72
11
 73
7
 74
0
 42
0.0000001
 43
0.0000001
 44
0.0000000001
 40
0.0
 40
0.0
 40
0.0
 40
0.0
 40
0.2238783593
 40
0.4766113528
 40
0.7441159034
 40
1.0
 40
1.0
 40
1.0
 40
1.0
 10
86.3775462252
 20
265.9415153522
 30
0.0
 10
86.421067728
 20
265.9415123838
 30
0.0
 10
86.5147998591
 20
265.9625433383
 30
0.0
 10
86.6323502967
 20
266.0542553366
 30
0.0
 10
86.7074178053
 20
266.1892307781
 30
0.0
 10
86.7239664433
 20
266.2917436492
 30
0.0
 10
86.7239682469
 20
266.3414870031
 30
0.0
  0
SPLINE
  5
4CF
100
AcDbEntity
  8
0
100
AcDbSpline
 62
7
  6
BYLAYER
 70
0
 71
3
 72
11
 73
7
 74
0
 42
0.0000001
 43
0.0000001
 44
0.0000000001
 40
0.0
 40
0.0
 40
0.0
 40
0.0
 40
0.2059262005
 40
0.4074401022
 40
0.6624627449
 40
1.0
 40
1.0
 40
1.0
 40
1.0
 10
86.6703747808
 20
266.3724471303
 30
0.0
 10
86.6703734382
 20
266.3676885447
 30
0.0
 10
86.6723333975
 20
266.3578394552
 30
0.0
 10
86.6844711583
 20
266.3472103402
 30
0.0
 10
86.7024482037
 20
266.3422640272
 30
0.0
 10
86.7161641344
 20
266.3414913329
 30
0.0
 10
86.723964016
 20
266.341490355
 30
0.0
  0
ENDSEC
  0
SECTION
  2
OBJECTS
  0
DICTIONARY
  5
C
100
AcDbDictionary
280
0
281
1
  3
ACAD_GROUP
350
D
  3
ACAD_MLINESTYLE
350
17
  3
ACAD_LAYOUT
350
1A
  3
ACAD_PLOTSETTINGS
350
19
  3
ACAD_PLOTSTYLENAME
350
E
  0
DICTIONARY
  5
D
102
{ACAD_REACTORS
330
C
102
}
100
AcDbDictionary
280
0
281
1
  0
ACDBDICTIONARYWDFLT
  5
E
102
{ACAD_REACTORS
330
C
102
}
100
AcDbDictionary
281
1
  3
Normal
350
F
100
AcDbDictionaryWithDefault
340
F
  0
DICTIONARY
  5
17
102
{ACAD_REACTORS
330
C
102
}
100
AcDbDictionary
280
0
281
1
  3
Standard
350
18
  0
DICTIONARY
  5
19
102
{ACAD_REACTORS
330
C
102
}
100
AcDbDictionary
281
1
  0
DICTIONARY
  5
1A
102
{ACAD_REACTORS
330
C
102
}
100
AcDbDictionary
281
1
  3
Model
350
4D0
  3
Layout1
350
4D1
  0
ACDBPLACEHOLDER
  5
F
102
{ACAD_REACTORS
330
E
102
}
  0
MLINESTYLE
  5
18
102
{ACAD_REACTORS
330
17
102
}
100
AcDbMlineStyle
  2
STANDARD
 70
0
  3

 62
256
 51
90.0
 52
90.0
 71
2
 49
0.5
 62
256
  6
BYLAYER
 49
-0.5
 62
256
  6
BYLAYER
  0
LAYOUT
  5
4D0
102
{ACAD_REACTORS
330
1A
102
}
100
AcDbPlotSettings
  1

  2
none_device
  4

  6

 40
0.0
 41
0.0
 42
0.0
 43
0.0
 44
210.0
 45
297.0
 46
0.0
 47
0.0
 48
0.0
 49
0.0
140
0.0
141
0.0
142
1.0
143
1.0
 70
1024
 72
1
 73
0
 74
0
  7

 75
0
147
1.0
148
0.0
149
0.0
100
AcDbLayout
  1
Model
 70
0
 71
0
 10
0.0
 20
0.0
 11
210.0
 21
297.0
 12
0.0
 22
0.0
 32
0.0
 14
0.0
 24
0.0
 34
0.0
 15
0.0
 25
0.0
 35
0.0
146
0.0
 13
0.0
 23
0.0
 33
0.0
 16
1.0
 26
0.0
 36
0.0
 17
0.0
 27
1.0
 37
0.0
 76
0
330
210
345
0
346
0
  0
LAYOUT
  5
4D1
102
{ACAD_REACTORS
330
1A
102
}
100
AcDbPlotSettings
  1

  2
none_device
  4

  6

 40
0.0
 41
0.0
 42
0.0
 43
0.0
 44
210.0
 45
297.0
 46
0.0
 47
0.0
 48
0.0
 49
0.0
140
0.0
141
0.0
142
1.0
143
1.0
 70
0
 72
1
 73
0
 74
0
  7

 75
0
147
1.0
148
0.0
149
0.0
100
AcDbLayout
  1
Layout1
 70
0
 71
1
 10
0.0
 20
0.0
 11
210.0
 21
297.0
 12
0.0
 22
0.0
 32
0.0
 14
0.0
 24
0.0
 34
0.0
 15
0.0
 25
0.0
 35
0.0
146
0.0
 13
0.0
 23
0.0
 33
0.0
 16
1.0
 26
0.0
 36
0.0
 17
0.0
 27
1.0
 37
0.0
 76
0
330
211
345
0
346
0
  0
ENDSEC
  0
EOF
