999
DXF file: C:\Users\SESA654545\Desktop\sachin babu tesys\Gen2D (4)\Gen2D\CAD\SB115116_3D-CAD\drw0001_6.dxf
999
Pro/ENGINEER 2019471 by Parametric Technology Corporation
  0
SECTION
  2
HEADER
  9
$ACADVER
  1
AC1024
  9
$DWGCODEPAGE
  3
ANSI_1252
  9
$EXTMAX
 10
76.8547500294
 20
108.6945750416
 30
0.0
  9
$EXTMIN
 10
0.0
 20
0.0
 30
0.0
  9
$LIMMIN
 10
0.0
 20
0.0
  9
$LIMMAX
 10
76.8547500294
 20
108.6945750416
  9
$VIEWCTR
 10
38.4273750147
 20
54.3472875208
  9
$VIEWSIZE
 40
108.6945750416
  9
$CLAYER
  8
0
  9
$LTSCALE
 40
7.0852760027
  9
$CELTYPE
  6
BYLAYER
  9
$DIMSCALE
 40
1.0
  9
$DIMASZ
 40
0.9149375004
  9
$DIMEXO
 40
1.0
  9
$DIMDLI
 40
4.8952816019
  9
$DIMEXE
 40
1.0
  9
$DIMCEN
 40
1.1594088004
  9
$DIMLFAC
 40
1.0
  9
$DIMBLK
  1
_FILLED
  9
$DIMALT
 70
0
  9
$DIMALTF
 40
0.0393700787
  9
$DIMTXT
 40
1.2809125005
  9
$DIMTOL
 70
1
  9
$DIMLIM
 70
0
  9
$DIMTFAC
 40
1.0
  9
$DIMTP
 40
0.01
  9
$DIMTM
 40
0.01
  9
$DIMGAP
 40
0.625
  9
$DIMDSEP
 70
46
  9
$AUNITS
 70
0
  9
$PDMODE
 70
3
  9
$PDSIZE
 40
0.3125
  9
$HANDSEED
  5
24F
  9
$TILEMODE
 70
1
  9
$MEASUREMENT
 70
1
  9
$INSUNITS
 70
4
  0
ENDSEC
  0
SECTION
  2
CLASSES
  0
CLASS
  1
ACDBDICTIONARYWDFLT
  2
AcDbDictionaryWithDefault
  3
AutoCAD 2000
 90
0
 91
1
280
0
281
0
  0
CLASS
  1
ACDBPLACEHOLDER
  2
AcDbPlaceHolder
  3
AutoCAD 2000
 90
0
 91
1
280
0
281
0
  0
CLASS
  1
LAYOUT
  2
AcDbLayout
  3
AutoCAD 2000
 90
0
 91
0
280
0
281
0
  0
ENDSEC
  0
SECTION
  2
TABLES
  0
TABLE
  2
VPORT
  5
8
100
AcDbSymbolTable
 70
2
  0
VPORT
  5
1F4
100
AcDbSymbolTableRecord
100
AcDbViewportTableRecord
  2
*ACTIVE
 70
0
 10
0.0
 20
0.0
 11
1.0
 21
1.0
 12
38.4273750147
 22
54.3472875208
 13
0.0
 23
0.0
 14
1.0
 24
1.0
 15
0.0
 25
0.0
 16
0.0
 26
0.0
 36
1.0
 17
0.0
 27
0.0
 37
0.0
 40
108.6945750416
 41
0.7070707071
 42
50.0
 43
0.0
 44
0.0
 50
0.0
 51
0.0
 71
0
 72
100
 73
1
 74
1
 75
0
 76
0
 77
0
 78
0
  0
ENDTAB
  0
TABLE
  2
LTYPE
  5
5
100
AcDbSymbolTable
 70
6
  0
LTYPE
  5
14
100
AcDbSymbolTableRecord
100
AcDbLinetypeTableRecord
  2
BYBLOCK
 70
0
  3

 72
65
 73
0
 40
0.0
  0
LTYPE
  5
15
100
AcDbSymbolTableRecord
100
AcDbLinetypeTableRecord
  2
BYLAYER
 70
0
  3

 72
65
 73
0
 40
0.0
  0
LTYPE
  5
16
100
AcDbSymbolTableRecord
100
AcDbLinetypeTableRecord
  2
CONTINUOUS
 70
64
  3
Solid line
 72
65
 73
0
 40
0.0
  0
LTYPE
  5
1F5
100
AcDbSymbolTableRecord
100
AcDbLinetypeTableRecord
  2
CENTER
 70
64
  3
____ _ ____ _ ____ _ ____ _ ____ _ ____ _ ____
 72
65
 73
4
 40
0.6
 49
0.375
 74
0
 49
-0.075
 74
0
 49
0.075
 74
0
 49
-0.075
 74
0
  0
LTYPE
  5
1F6
100
AcDbSymbolTableRecord
100
AcDbLinetypeTableRecord
  2
HIDDEN
 70
64
  3
- - - - - - - - - - - - - - - - - - - -
 72
65
 73
2
 40
0.2
 49
0.1
 74
0
 49
-0.1
 74
0
  0
LTYPE
  5
1F7
100
AcDbSymbolTableRecord
100
AcDbLinetypeTableRecord
  2
PHANTOM
 70
64
  3
_____ _ _ _____ _ _ _____ _ _ _____
 72
65
 73
6
 40
0.8
 49
0.45
 74
0
 49
-0.05
 74
0
 49
0.1
 74
0
 49
-0.05
 74
0
 49
0.1
 74
0
 49
-0.05
 74
0
  0
LTYPE
  5
1F8
100
AcDbSymbolTableRecord
100
AcDbLinetypeTableRecord
  2
DOT
 70
64
  3
. . . . . . . . . . . . . . . . . . . .
 72
65
 73
2
 40
0.2
 49
0.1
 74
0
 49
-0.1
 74
0
  0
LTYPE
  5
1F9
100
AcDbSymbolTableRecord
100
AcDbLinetypeTableRecord
  2
DASHED
 70
64
  3
- - - - - - - - - - - - - - - - - - - -
 72
65
 73
2
 40
0.2
 49
0.1
 74
0
 49
-0.1
 74
0
  0
ENDTAB
  0
TABLE
  2
LAYER
  5
2
100
AcDbSymbolTable
 70
36
  0
LAYER
  5
10
100
AcDbSymbolTableRecord
100
AcDbLayerTableRecord
  2
0
 70
0
 62
7
  6
CONTINUOUS
370
-3
390
F
  0
LAYER
  5
1FA
100
AcDbSymbolTableRecord
100
AcDbLayerTableRecord
  2
DEFAULT_1
 70
0
 62
7
  6
CENTER
370
-3
390
F
  0
LAYER
  5
1FB
100
AcDbSymbolTableRecord
100
AcDbLayerTableRecord
  2
DEFAULT_2
 70
0
 62
8
  6
HIDDEN
370
-3
390
F
  0
LAYER
  5
1FC
100
AcDbSymbolTableRecord
100
AcDbLayerTableRecord
  2
DEFAULT_3
 70
0
 62
7
  6
PHANTOM
370
-3
390
F
  0
LAYER
  5
1FD
100
AcDbSymbolTableRecord
100
AcDbLayerTableRecord
  2
00_COMPONENTS
 70
0
 62
7
  6
CONTINUOUS
370
-3
390
F
  0
LAYER
  5
1FE
100
AcDbSymbolTableRecord
100
AcDbLayerTableRecord
  2
01_1_DEFAULT_DATUMS
 70
0
 62
7
  6
CONTINUOUS
370
-3
390
F
  0
LAYER
  5
1FF
100
AcDbSymbolTableRecord
100
AcDbLayerTableRecord
  2
01_PLANES
 70
0
 62
7
  6
CONTINUOUS
370
-3
390
F
  0
LAYER
  5
200
100
AcDbSymbolTableRecord
100
AcDbLayerTableRecord
  2
02_COORD_SYS
 70
0
 62
7
  6
CONTINUOUS
370
-3
390
F
  0
LAYER
  5
201
100
AcDbSymbolTableRecord
100
AcDbLayerTableRecord
  2
03_AXES
 70
0
 62
7
  6
CONTINUOUS
370
-3
390
F
  0
LAYER
  5
202
100
AcDbSymbolTableRecord
100
AcDbLayerTableRecord
  2
04_POINTS
 70
0
 62
7
  6
CONTINUOUS
370
-3
390
F
  0
LAYER
  5
203
100
AcDbSymbolTableRecord
100
AcDbLayerTableRecord
  2
05_CURVES
 70
0
 62
7
  6
CONTINUOUS
370
-3
390
F
  0
LAYER
  5
204
100
AcDbSymbolTableRecord
100
AcDbLayerTableRecord
  2
06_SURFS
 70
0
 62
7
  6
CONTINUOUS
370
-3
390
F
  0
LAYER
  5
205
100
AcDbSymbolTableRecord
100
AcDbLayerTableRecord
  2
07_COSMETICS
 70
0
 62
7
  6
CONTINUOUS
370
-3
390
F
  0
LAYER
  5
206
100
AcDbSymbolTableRecord
100
AcDbLayerTableRecord
  2
10_NOTES
 70
0
 62
7
  6
CONTINUOUS
370
-3
390
F
  0
LAYER
  5
207
100
AcDbSymbolTableRecord
100
AcDbLayerTableRecord
  2
11_NOTES_PUB
 70
0
 62
7
  6
CONTINUOUS
370
-3
390
F
  0
LAYER
  5
208
100
AcDbSymbolTableRecord
100
AcDbLayerTableRecord
  2
13_REF_GTOL
 70
0
 62
7
  6
CONTINUOUS
370
-3
390
F
  0
LAYER
  5
209
100
AcDbSymbolTableRecord
100
AcDbLayerTableRecord
  2
16_MISC
 70
0
 62
7
  6
CONTINUOUS
370
-3
390
F
  0
LAYER
  5
20A
100
AcDbSymbolTableRecord
100
AcDbLayerTableRecord
  2
17_NO_PRINT
 70
0
 62
7
  6
CONTINUOUS
370
-3
390
F
  0
LAYER
  5
20B
100
AcDbSymbolTableRecord
100
AcDbLayerTableRecord
  2
18_DATUM_CAMS_JOINTS
 70
0
 62
7
  6
CONTINUOUS
370
-3
390
F
  0
LAYER
  5
20C
100
AcDbSymbolTableRecord
100
AcDbLayerTableRecord
  2
19_DATUM_FUNCTIONAL
 70
0
 62
7
  6
CONTINUOUS
370
-3
390
F
  0
LAYER
  5
20D
100
AcDbSymbolTableRecord
100
AcDbLayerTableRecord
  2
20_DATUM_KINEMATIC_SCHEME
 70
0
 62
7
  6
CONTINUOUS
370
-3
390
F
  0
ENDTAB
  0
TABLE
  2
STYLE
  5
3
100
AcDbSymbolTable
 70
1
  0
STYLE
  5
11
100
AcDbSymbolTableRecord
100
AcDbTextStyleTableRecord
  2
STANDARD
 70
0
 40
0.0
 41
0.8
 50
0.0
 71
0
 42
0.2
  3
txt
  4

  0
STYLE
  5
20E
100
AcDbSymbolTableRecord
100
AcDbTextStyleTableRecord
  2
TEXTSTYLE_1
 70
0
 40
0.0
 41
0.8
 50
0.0
 71
0
 42
0.2
  3
gdt
  4

  0
ENDTAB
  0
TABLE
  2
VIEW
  5
6
100
AcDbSymbolTable
 70
0
  0
ENDTAB
  0
TABLE
  2
UCS
  5
7
100
AcDbSymbolTable
 70
0
  0
ENDTAB
  0
TABLE
  2
APPID
  5
9
100
AcDbSymbolTable
 70
1
  0
APPID
  5
20F
100
AcDbSymbolTableRecord
100
AcDbRegAppTableRecord
  2
ACAD
 70
0
  0
ENDTAB
  0
TABLE
  2
BLOCK_RECORD
  5
1
100
AcDbSymbolTable
 70
0
  0
BLOCK_RECORD
  5
210
100
AcDbSymbolTableRecord
100
AcDbBlockTableRecord
  2
*Model_Space
  0
BLOCK_RECORD
  5
211
100
AcDbSymbolTableRecord
100
AcDbBlockTableRecord
  2
*Paper_Space
  0
BLOCK_RECORD
  5
212
100
AcDbSymbolTableRecord
100
AcDbBlockTableRecord
  2
_FILLED
  0
ENDTAB
  0
TABLE
  2
DIMSTYLE
  5
A
100
AcDbSymbolTable
 70
1
100
AcDbDimStyleTable
 71
0
  0
DIMSTYLE
105
213
100
AcDbSymbolTableRecord
100
AcDbDimStyleTableRecord
  2
STANDARD
 70
0
  3

  4

 40
1.0
 41
0.9149375004
 42
1.0
 43
0.38
 44
1.0
 45
0.0
 46
0.0
 47
0.01
 48
0.01
140
1.2809125005
141
0.09
142
0.0
143
25.4
144
1.0
145
0.0
146
1.0
147
0.625
 71
1
 72
0
 73
0
 74
0
 75
0
 76
0
 77
1
 78
8
 79
2
170
0
171
1
172
0
173
0
174
0
175
0
176
0
177
0
178
0
270
2
179
2
271
2
272
2
273
2
274
2
275
0
280
0
281
0
282
0
283
1
284
8
285
0
286
0
287
3
288
0
340
11
278
46
341
212
342
212
343
212
344
212
  0
ENDTAB
  0
ENDSEC
  0
SECTION
  2
BLOCKS
  0
BLOCK
  5
20
100
AcDbEntity
  8
0
100
AcDbBlockBegin
  2
*Model_Space
 70
0
 10
0.0
 20
0.0
 30
0.0
  3
*Model_Space
  1

  0
ENDBLK
  5
21
100
AcDbEntity
  8
0
100
AcDbBlockEnd
  0
BLOCK
  5
1C
100
AcDbEntity
  8
0
100
AcDbBlockBegin
  2
*Paper_Space
 70
0
 10
0.0
 20
0.0
 30
0.0
  3
*Paper_Space
  1

  0
ENDBLK
  5
1D
100
AcDbEntity
  8
0
100
AcDbBlockEnd
  0
BLOCK
  5
214
100
AcDbEntity
  8
0
100
AcDbBlockBegin
  2
_FILLED
 70
64
 10
0.0
 20
0.0
  3
_FILLED
  1

  0
SOLID
  5
215
100
AcDbEntity
  8
0
  6
BYBLOCK
 62
0
100
AcDbTrace
 10
0.0
 20
0.0
 11
-1.0
 21
0.25
 12
-1.0
 22
-0.25
 13
-1.0
 23
-0.25
  0
ENDBLK
  5
216
100
AcDbEntity
  8
0
  6
BYBLOCK
 62
0
100
AcDbBlockEnd
  0
ENDSEC
  0
SECTION
  2
ENTITIES
  0
LINE
  5
217
100
AcDbEntity
  8
0
100
AcDbLine
 62
7
  6
CONTINUOUS
 10
8.6924708191
 20
48.4342320361
 11
8.6924708191
 21
51.9345797541
  0
LINE
  5
218
100
AcDbEntity
  8
0
100
AcDbLine
 62
7
  6
CONTINUOUS
 10
8.6924708191
 20
57.2340841047
 11
8.6924708191
 21
62.3342320361
  0
LINE
  5
219
100
AcDbEntity
  8
0
100
AcDbLine
 62
7
  6
CONTINUOUS
 10
8.7276318984
 20
48.4342320361
 11
8.7276318984
 21
47.3342320361
  0
LINE
  5
21A
100
AcDbEntity
  8
0
100
AcDbLine
 62
7
  6
CONTINUOUS
 10
8.7681192197
 20
47.3342320361
 11
8.7681184874
 21
48.4342320361
  0
LINE
  5
21B
100
AcDbEntity
  8
0
100
AcDbLine
 62
7
  6
CONTINUOUS
 10
8.798140481
 20
47.3342320361
 11
8.798140204
 21
48.4342320361
  0
LINE
  5
21C
100
AcDbEntity
  8
0
100
AcDbLine
 62
7
  6
CONTINUOUS
 10
8.9924708191
 20
47.3342320361
 11
8.9924708191
 21
46.2599174811
  0
LINE
  5
21D
100
AcDbEntity
  8
0
100
AcDbLine
 62
7
  6
CONTINUOUS
 10
9.3141367117
 20
47.3342320361
 11
9.3141367117
 21
48.4342320361
  0
LINE
  5
21E
100
AcDbEntity
  8
0
100
AcDbLine
 62
7
  6
CONTINUOUS
 10
9.3958094332
 20
48.4342320361
 11
9.3958094332
 21
47.3342320361
  0
LINE
  5
21F
100
AcDbEntity
  8
0
100
AcDbLine
 62
7
  6
CONTINUOUS
 10
10.3924708191
 20
46.2599172864
 11
10.3924708191
 21
47.3342320361
  0
LINE
  5
220
100
AcDbEntity
  8
0
100
AcDbLine
 62
7
  6
CONTINUOUS
 10
10.6499779844
 20
62.3342320361
 11
10.6499779844
 21
48.4342320361
  0
LINE
  5
221
100
AcDbEntity
  8
0
100
AcDbLine
 62
7
  6
CONTINUOUS
 10
13.5654484948
 20
62.4342320361
 11
13.5654484948
 21
62.3342320361
  0
LINE
  5
222
100
AcDbEntity
  8
0
100
AcDbLine
 62
7
  6
CONTINUOUS
 10
25.1924708191
 20
47.3342320361
 11
25.1924708191
 21
48.4342320361
  0
LINE
  5
223
100
AcDbEntity
  8
0
100
AcDbLine
 62
7
  6
CONTINUOUS
 10
30.1924708191
 20
48.4342320361
 11
30.1924708191
 21
62.3342320361
  0
LINE
  5
224
100
AcDbEntity
  8
0
100
AcDbLine
 62
7
  6
CONTINUOUS
 10
30.8924708191
 20
52.5842320361
 11
30.8924708191
 21
54.0842320361
  0
LINE
  5
225
100
AcDbEntity
  8
0
100
AcDbLine
 62
7
  6
CONTINUOUS
 10
31.1924708191
 20
62.4342320361
 11
31.1924708191
 21
62.3342320361
  0
LINE
  5
226
100
AcDbEntity
  8
0
100
AcDbLine
 62
7
  6
CONTINUOUS
 10
32.3924708191
 20
54.0842320361
 11
32.3924708191
 21
52.5842320361
  0
LINE
  5
227
100
AcDbEntity
  8
0
100
AcDbLine
 62
7
  6
CONTINUOUS
 10
10.3924708191
 20
46.2598813205
 11
8.9924708191
 21
46.2598813205
  0
LINE
  5
228
100
AcDbEntity
  8
0
100
AcDbLine
 62
7
  6
CONTINUOUS
 10
10.3924708191
 20
46.3341210078
 11
8.9924708191
 21
46.3341210078
  0
LINE
  5
229
100
AcDbEntity
  8
0
100
AcDbLine
 62
7
  6
CONTINUOUS
 10
8.7276318984
 20
47.3342320361
 11
25.1924708191
 21
47.3342320361
  0
LINE
  5
22A
100
AcDbEntity
  8
0
100
AcDbLine
 62
7
  6
CONTINUOUS
 10
8.6924710189
 20
48.4342320361
 11
9.3141367117
 21
48.4342320361
  0
LINE
  5
22B
100
AcDbEntity
  8
0
100
AcDbLine
 62
7
  6
CONTINUOUS
 10
9.3958094332
 20
48.4342320361
 11
30.1924708191
 21
48.4342320361
  0
LINE
  5
22C
100
AcDbEntity
  8
0
100
AcDbLine
 62
7
  6
CONTINUOUS
 10
55.7655169457
 20
50.7842320361
 11
57.2499524138
 21
50.7842320361
  0
LINE
  5
22D
100
AcDbEntity
  8
0
100
AcDbLine
 62
7
  6
CONTINUOUS
 10
45.530438242
 20
51.4342320361
 11
54.3924708191
 21
51.4342320361
  0
LINE
  5
22E
100
AcDbEntity
  8
0
100
AcDbLine
 62
7
  6
CONTINUOUS
 10
30.1924708191
 20
51.6342320361
 11
67.1924708191
 21
51.6342320361
  0
LINE
  5
22F
100
AcDbEntity
  8
0
100
AcDbLine
 62
7
  6
CONTINUOUS
 10
30.8924708191
 20
52.5842320361
 11
67.1924708191
 21
52.5842320361
  0
LINE
  5
230
100
AcDbEntity
  8
0
100
AcDbLine
 62
7
  6
CONTINUOUS
 10
67.1924708191
 20
53.8842320361
 11
47.0924708191
 21
53.8842320361
  0
LINE
  5
231
100
AcDbEntity
  8
0
100
AcDbLine
 62
7
  6
CONTINUOUS
 10
30.8924708191
 20
54.0842320361
 11
47.0924708191
 21
54.0842320361
  0
LINE
  5
232
100
AcDbEntity
  8
0
100
AcDbLine
 62
7
  6
CONTINUOUS
 10
67.1924708191
 20
55.3842320361
 11
68.9924708191
 21
55.3842320361
  0
LINE
  5
233
100
AcDbEntity
  8
0
100
AcDbLine
 62
7
  6
CONTINUOUS
 10
43.2924708191
 20
50.8842320361
 11
43.2924708191
 21
51.6342320361
  0
LINE
  5
234
100
AcDbEntity
  8
0
100
AcDbLine
 62
7
  6
CONTINUOUS
 10
45.2924708191
 20
52.5842320361
 11
45.2924708191
 21
51.6342320361
  0
LINE
  5
235
100
AcDbEntity
  8
0
100
AcDbLine
 62
7
  6
CONTINUOUS
 10
47.0924708191
 20
54.0842320361
 11
47.0924708191
 21
51.6342320361
  0
LINE
  5
236
100
AcDbEntity
  8
0
100
AcDbLine
 62
7
  6
CONTINUOUS
 10
69.4924708191
 20
62.3342320361
 11
8.6925281324
 21
62.3342320361
  0
LINE
  5
237
100
AcDbEntity
  8
0
100
AcDbLine
 62
7
  6
CONTINUOUS
 10
31.1924708191
 20
62.4342320361
 11
13.5654484948
 21
62.4342320361
  0
LINE
  5
238
100
AcDbEntity
  8
0
100
AcDbLine
 62
7
  6
CONTINUOUS
 10
58.4638782195
 20
51.6342320361
 11
57.2499524138
 21
50.7842320361
  0
LINE
  5
239
100
AcDbEntity
  8
0
100
AcDbLine
 62
7
  6
CONTINUOUS
 10
55.7655169457
 20
50.7842320361
 11
55.3691554362
 21
51.6342320361
  0
LINE
  5
23A
100
AcDbEntity
  8
0
100
AcDbLine
 62
7
  6
CONTINUOUS
 10
54.3924708191
 20
51.4342320361
 11
54.3924708191
 21
51.6342320361
  0
LINE
  5
23B
100
AcDbEntity
  8
0
100
AcDbLine
 62
7
  6
CONTINUOUS
 10
69.4924708191
 20
55.8842320361
 11
68.9924708191
 21
55.3842320361
  0
LINE
  5
23C
100
AcDbEntity
  8
0
100
AcDbLine
 62
7
  6
CONTINUOUS
 10
67.1924708191
 20
51.6342320361
 11
67.1924708191
 21
55.3842320361
  0
LINE
  5
23D
100
AcDbEntity
  8
0
100
AcDbLine
 62
7
  6
CONTINUOUS
 10
69.4924708191
 20
62.3342320361
 11
69.4924708191
 21
55.8842320361
  0
ARC
  5
23E
100
AcDbEntity
  8
0
100
AcDbCircle
 62
7
  6
CONTINUOUS
 10
-6.6536243883
 20
54.5841175602
 40
16.878955207
100
AcDbArc
 50
0.0003885896
 51
0.7530697664
  0
ARC
  5
23F
100
AcDbEntity
  8
0
100
AcDbCircle
 62
7
  6
CONTINUOUS
 10
43.2924708191
 20
55.8842320361
 40
5.0
100
AcDbArc
 50
270.0
 51
300.6834171087
  0
ARC
  5
240
100
AcDbEntity
  8
0
100
AcDbCircle
 62
7
  6
CONTINUOUS
 10
45.7108340384
 20
51.8085575533
 40
0.2608436246
100
AcDbArc
 50
300.6834171054
 51
318.0629075192
  0
SPLINE
  5
241
100
AcDbEntity
  8
0
100
AcDbSpline
 62
7
  6
CONTINUOUS
 70
0
 71
3
 72
21
 73
17
 74
0
 42
0.0000001
 43
0.0000001
 44
0.0000000001
 40
0.0
 40
0.0
 40
0.0
 40
0.0
 40
0.0083542168
 40
0.0152488457
 40
0.0242683202
 40
0.0354782311
 40
0.0488979076
 40
0.0645265306
 40
0.0823516142
 40
0.124436438
 40
0.1747716973
 40
0.2983690007
 40
0.4488027214
 40
0.6203524241
 40
0.8064998256
 40
1.0
 40
1.0
 40
1.0
 40
1.0
 10
9.0022616414
 20
51.9341293844
 30
0.0
 10
9.0097108236
 20
51.9341401292
 30
0.0
 10
9.0210577357
 20
51.9458042489
 30
0.0
 10
9.0309876096
 20
51.9641814913
 30
0.0
 10
9.0403555006
 20
51.9868104179
 30
0.0
 10
9.0495341975
 20
52.0152922664
 30
0.0
 10
9.0588632232
 20
52.0500017122
 30
0.0
 10
9.0681675123
 20
52.0907447453
 30
0.0
 10
9.0812825747
 20
52.1568225304
 30
0.0
 10
9.097052005
 20
52.2538755948
 30
0.0
 10
9.1223131359
 20
52.4448454971
 30
0.0
 10
9.1503153532
 20
52.7327900493
 30
0.0
 10
9.177585869
 20
53.1291939246
 30
0.0
 10
9.1984862164
 20
53.5818317247
 30
0.0
 10
9.2116592171
 20
54.0731659995
 30
0.0
 10
9.2146394131
 20
54.4116940734
 30
0.0
 10
9.2146394131
 20
54.5842320375
 30
0.0
  0
SPLINE
  5
242
100
AcDbEntity
  8
0
100
AcDbSpline
 62
7
  6
CONTINUOUS
 70
0
 71
3
 72
21
 73
17
 74
0
 42
0.0000001
 43
0.0000001
 44
0.0000000001
 40
0.0
 40
0.0
 40
0.0
 40
0.0
 40
0.0083523788
 40
0.0152376827
 40
0.0242400627
 40
0.0354372756
 40
0.0488516353
 40
0.0644728906
 40
0.082279728
 40
0.1243341523
 40
0.1746792113
 40
0.2983397122
 40
0.448755679
 40
0.6202711229
 40
0.8064373756
 40
1.0
 40
1.0
 40
1.0
 40
1.0
 10
9.0022517371
 20
57.2342315846
 30
0.0
 10
9.0096990588
 20
57.2342355931
 30
0.0
 10
9.0210387341
 20
57.222565783
 30
0.0
 10
9.0309800357
 20
57.204229948
 30
0.0
 10
9.0403553194
 20
57.1816404868
 30
0.0
 10
9.0495356194
 20
57.1531934785
 30
0.0
 10
9.0588633212
 20
57.1185079344
 30
0.0
 10
9.0681674937
 20
57.0777946287
 30
0.0
 10
9.0812898763
 20
57.0117712988
 30
0.0
 10
9.0970657639
 20
56.9147572011
 30
0.0
 10
9.1223260186
 20
56.7237545958
 30
0.0
 10
9.150285506
 20
56.4357653149
 30
0.0
 10
9.1775778573
 20
56.0393658314
 30
0.0
 10
9.1984958971
 20
55.5867719881
 30
0.0
 10
9.2116605884
 20
55.095410561
 30
0.0
 10
9.214639413
 20
54.7568203957
 30
0.0
 10
9.214639413
 20
54.5842320361
 30
0.0
  0
SPLINE
  5
243
100
AcDbEntity
  8
0
100
AcDbSpline
 62
7
  6
CONTINUOUS
 70
0
 71
3
 72
29
 73
25
 74
0
 42
0.0000001
 43
0.0000001
 44
0.0000000001
 40
0.0
 40
0.0
 40
0.0
 40
0.0
 40
0.1950041255
 40
0.3825991643
 40
0.4712926794
 40
0.5554742344
 40
0.6343167081
 40
0.7070036065
 40
0.772852831
 40
0.8312783881
 40
0.8817288571
 40
0.9038146034
 40
0.9237302254
 40
0.9414181456
 40
0.9568321398
 40
0.9699415147
 40
0.9807167633
 40
0.9891285313
 40
0.9924390535
 40
0.9951483024
 40
0.9972559347
 40
0.9987631737
 40
0.9996727489
 40
1.0
 40
1.0
 40
1.0
 40
1.0
 10
8.7363162192
 20
54.5842320393
 30
0.0
 10
8.7363162192
 20
54.7565272092
 30
0.0
 10
8.7354526309
 20
55.0945718873
 30
0.0
 10
8.7322814
 20
55.5109705374
 30
0.0
 10
8.7286504694
 20
55.8294421486
 30
0.0
 10
8.7255624195
 20
56.0518250413
 30
0.0
 10
8.7221635386
 20
56.2600590243
 30
0.0
 10
8.7185523271
 20
56.4520893246
 30
0.0
 10
8.7148407905
 20
56.6260746915
 30
0.0
 10
8.7111490786
 20
56.7804085647
 30
0.0
 10
8.7080617972
 20
56.8960783407
 30
0.0
 10
8.7056719006
 20
56.977728922
 30
0.0
 10
8.7040299118
 20
57.0304415554
 30
0.0
 10
8.7024701381
 20
57.0772593328
 30
0.0
 10
8.7010028718
 20
57.1180620351
 30
0.0
 10
8.6996390449
 20
57.1527598038
 30
0.0
 10
8.6983838
 20
57.1812612078
 30
0.0
 10
8.6973830045
 20
57.2011286772
 30
0.0
 10
8.6966127081
 20
57.2138339686
 30
0.0
 10
8.6961317251
 20
57.2210459458
 30
0.0
 10
8.6956456558
 20
57.2264916758
 30
0.0
 10
8.6953005502
 20
57.2307483756
 30
0.0
 10
8.6948239162
 20
57.2326503278
 30
0.0
 10
8.694675837
 20
57.2342484195
 30
0.0
 10
8.6943868756
 20
57.2342382171
 30
0.0
  0
SPLINE
  5
244
100
AcDbEntity
  8
0
100
AcDbSpline
 62
7
  6
CONTINUOUS
 70
0
 71
3
 72
12
 73
8
 74
0
 42
0.0000001
 43
0.0000001
 44
0.0000000001
 40
0.0
 40
0.0
 40
0.0
 40
0.0
 40
0.331910389
 40
0.6289208293
 40
0.8595900682
 40
0.9423166451
 40
1.0
 40
1.0
 40
1.0
 40
1.0
 10
8.7073251967
 20
54.5842320361
 30
0.0
 10
8.7073251967
 20
54.3014426464
 30
0.0
 10
8.7059915875
 20
53.7655979391
 30
0.0
 10
8.7010100125
 20
53.033238174
 30
0.0
 10
8.6959280087
 20
52.5131930404
 30
0.0
 10
8.6931856295
 20
52.1970441739
 30
0.0
 10
8.6924719506
 20
52.0774150802
 30
0.0
 10
8.692472773
 20
52.0282685597
 30
0.0
  0
SPLINE
  5
245
100
AcDbEntity
  8
0
100
AcDbSpline
 62
7
  6
CONTINUOUS
 70
0
 71
3
 72
29
 73
25
 74
0
 42
0.0000001
 43
0.0000001
 44
0.0000000001
 40
0.0
 40
0.0
 40
0.0
 40
0.0
 40
0.0003268474
 40
0.0012343789
 40
0.0027377599
 40
0.0048395347
 40
0.0075407437
 40
0.0108414116
 40
0.0192306136
 40
0.0299828405
 40
0.0430727642
 40
0.0584749043
 40
0.0761623591
 40
0.0960883972
 40
0.1181912481
 40
0.1686787564
 40
0.2271207033
 40
0.2929668877
 40
0.3656459495
 40
0.4444828648
 40
0.5286643593
 40
0.6173657044
 40
0.8049834778
 40
1.0
 40
1.0
 40
1.0
 40
1.0
 10
8.6943868056
 20
51.9343518046
 30
0.0
 10
8.6946754178
 20
51.9343422259
 30
0.0
 10
8.6948242907
 20
51.9359351602
 30
0.0
 10
8.6953002594
 20
51.9378343286
 30
0.0
 10
8.6956458435
 20
51.9420785992
 30
0.0
 10
8.6961316955
 20
51.9475091535
 30
0.0
 10
8.6966127271
 20
51.9546994273
 30
0.0
 10
8.6973830586
 20
51.967368455
 30
0.0
 10
8.6983841392
 20
51.9871858295
 30
0.0
 10
8.6996396396
 20
52.0156283923
 30
0.0
 10
8.7010037021
 20
52.0502764634
 30
0.0
 10
8.7024710811
 20
52.091049146
 30
0.0
 10
8.7040305343
 20
52.1378630353
 30
0.0
 10
8.7056719539
 20
52.1905971068
 30
0.0
 10
8.7080609873
 20
52.2723009123
 30
0.0
 10
8.7111466777
 20
52.3880275941
 30
0.0
 10
8.7148383574
 20
52.5423986942
 30
0.0
 10
8.7185503844
 20
52.7163806902
 30
0.0
 10
8.7221623015
 20
52.9083873691
 30
0.0
 10
8.7255623527
 20
53.1165995931
 30
0.0
 10
8.7286511447
 20
53.3389739111
 30
0.0
 10
8.7322815862
 20
53.6574574183
 30
0.0
 10
8.7354517458
 20
54.0738743381
 30
0.0
 10
8.7363162192
 20
54.411934065
 30
0.0
 10
8.7363162192
 20
54.5842320393
 30
0.0
  0
SPLINE
  5
246
100
AcDbEntity
  8
0
100
AcDbSpline
 62
7
  6
CONTINUOUS
 70
0
 71
3
 72
20
 73
16
 74
0
 42
0.0000001
 43
0.0000001
 44
0.0000000001
 40
0.0
 40
0.0
 40
0.0
 40
0.0
 40
0.0318734056
 40
0.0441226129
 40
0.0583212875
 40
0.0927278421
 40
0.1351772028
 40
0.1854353233
 40
0.2431693588
 40
0.3079311805
 40
0.3792194739
 40
0.4564306681
 40
0.6255950134
 40
0.8091530765
 40
1.0
 40
1.0
 40
1.0
 40
1.0
 10
9.8398416377
 20
51.9341372337
 30
0.0
 10
9.8687594063
 20
51.9341609537
 30
0.0
 10
9.9023316735
 20
51.9701178981
 30
0.0
 10
9.9291051143
 20
52.0141529853
 30
0.0
 10
9.9541689078
 20
52.06384157
 30
0.0
 10
9.9837173297
 20
52.1409122427
 30
0.0
 10
10.0168302797
 20
52.2515400088
 30
0.0
 10
10.0487456963
 20
52.3842721477
 30
0.0
 10
10.079150057
 20
52.53807197
 30
0.0
 10
10.1076089455
 20
52.7115911302
 30
0.0
 10
10.1337173391
 20
52.9033288604
 30
0.0
 10
10.165882234
 20
53.1897560051
 30
0.0
 10
10.1972482624
 20
53.5786625031
 30
0.0
 10
10.2201630021
 20
54.0713701719
 30
0.0
 10
10.2253308183
 20
54.4110823848
 30
0.0
 10
10.2253308183
 20
54.5842320348
 30
0.0
  0
SPLINE
  5
247
100
AcDbEntity
  8
0
100
AcDbSpline
 62
7
  6
CONTINUOUS
 70
0
 71
3
 72
19
 73
15
 74
0
 42
0.0000001
 43
0.0000001
 44
0.0000000001
 40
0.0
 40
0.0
 40
0.0
 40
0.0
 40
0.0322534327
 40
0.0443989272
 40
0.0584349305
 40
0.0923355139
 40
0.1340890954
 40
0.1835749566
 40
0.2404864703
 40
0.3044513905
 40
0.4515626977
 40
0.620332647
 40
0.8051973267
 40
1.0
 40
1.0
 40
1.0
 40
1.0
 10
9.8398321518
 20
57.2342316917
 30
0.0
 10
9.8667141203
 20
57.234238453
 30
0.0
 10
9.8986319759
 20
57.2026130422
 30
0.0
 10
9.9243471753
 20
57.1625949731
 30
0.0
 10
9.9480869618
 20
57.1180876733
 30
0.0
 10
9.9762138597
 20
57.0488617387
 30
0.0
 10
10.0078515357
 20
56.9493384996
 30
0.0
 10
10.0384635109
 20
56.8296852171
 30
0.0
 10
10.0678512159
 20
56.6907297382
 30
0.0
 10
10.106650738
 20
56.4707372278
 30
0.0
 10
10.1483462713
 20
56.1567687025
 30
0.0
 10
10.1866093122
 20
55.7410926664
 30
0.0
 10
10.21305953
 20
55.2846792871
 30
0.0
 10
10.2217400443
 20
54.9683068802
 30
0.0
 10
10.223872896
 20
54.8059605125
 30
0.0
  0
SPLINE
  5
248
100
AcDbEntity
  8
0
100
AcDbSpline
 62
7
  6
CONTINUOUS
 70
0
 71
3
 72
12
 73
8
 74
0
 42
0.0000001
 43
0.0000001
 44
0.0000000001
 40
0.0
 40
0.0
 40
0.0
 40
0.0
 40
0.0576921309
 40
0.1403924812
 40
0.3710764623
 40
0.6680879073
 40
1.0
 40
1.0
 40
1.0
 40
1.0
 10
8.692472654
 20
57.1401715527
 30
0.0
 10
8.6924719904
 20
57.0910180158
 30
0.0
 10
8.693185106
 20
56.9714049095
 30
0.0
 10
8.6959293081
 20
56.6552613273
 30
0.0
 10
8.7010089905
 20
56.1352299793
 30
0.0
 10
8.7059921005
 20
55.402862222
 30
0.0
 10
8.7073251967
 20
54.8670202268
 30
0.0
 10
8.7073251967
 20
54.5842320361
 30
0.0
  0
SPLINE
  5
249
100
AcDbEntity
  8
0
100
AcDbSpline
 62
7
  6
CONTINUOUS
 70
0
 71
3
 72
21
 73
17
 74
0
 42
0.0000001
 43
0.0000001
 44
0.0000000001
 40
0.0
 40
0.0
 40
0.0
 40
0.0
 40
0.1938331208
 40
0.3802565911
 40
0.5520095897
 40
0.7025954175
 40
0.8262710319
 40
0.8765370386
 40
0.9184660544
 40
0.936195286
 40
0.9517293439
 40
0.9650473087
 40
0.9761394336
 40
0.9850292357
 40
0.9918014755
 40
1.0
 40
1.0
 40
1.0
 40
1.0
 10
8.8451497678
 20
54.5842320361
 30
0.0
 10
8.8451497678
 20
54.7566998696
 30
0.0
 10
8.8467393
 20
55.095045347
 30
0.0
 10
8.8539750921
 20
55.5861641848
 30
0.0
 10
8.8659947676
 20
56.0387053989
 30
0.0
 10
8.8828575598
 20
56.4352127759
 30
0.0
 10
8.9015723644
 20
56.7234191263
 30
0.0
 10
8.9199863822
 20
56.9146257774
 30
0.0
 10
8.9321174477
 20
57.0117011065
 30
0.0
 10
8.9426969964
 20
57.0777749164
 30
0.0
 10
8.9503997457
 20
57.1184958953
 30
0.0
 10
8.9583425251
 20
57.1531836539
 30
0.0
 10
8.9663524484
 20
57.1816279088
 30
0.0
 10
8.9748122355
 20
57.2042077151
 30
0.0
 10
8.983910312
 20
57.2225531387
 30
0.0
 10
8.9949568973
 20
57.2342276581
 30
0.0
 10
9.0022517371
 20
57.2342315846
 30
0.0
  0
SPLINE
  5
24A
100
AcDbEntity
  8
0
100
AcDbSpline
 62
7
  6
CONTINUOUS
 70
0
 71
3
 72
22
 73
18
 74
0
 42
0.0000001
 43
0.0000001
 44
0.0000000001
 40
0.0
 40
0.0
 40
0.0
 40
0.0
 40
0.1911691878
 40
0.3749947667
 40
0.5443367563
 40
0.621588291
 40
0.692906656
 40
0.7576678449
 40
0.815293569
 40
0.865344697
 40
0.9074764051
 40
0.9415153805
 40
0.9675419772
 40
0.9777323961
 40
0.9862681441
 40
0.9934990692
 40
1.0
 40
1.0
 40
1.0
 40
1.0
 10
9.5107209491
 20
54.5842320361
 30
0.0
 10
9.5107209491
 20
54.7572139198
 30
0.0
 10
9.5144481306
 20
55.0965470524
 30
0.0
 10
9.5312382144
 20
55.5888529534
 30
0.0
 10
9.5547817675
 20
55.977679141
 30
0.0
 10
9.579699602
 20
56.2642801521
 30
0.0
 10
9.6003457599
 20
56.45622451
 30
0.0
 10
9.6233111469
 20
56.6300102227
 30
0.0
 10
9.6484338056
 20
56.7840410598
 30
0.0
 10
9.6754994691
 20
56.9169042732
 30
0.0
 10
9.7043121421
 20
57.0275324047
 30
0.0
 10
9.7346190539
 20
57.1149649094
 30
0.0
 10
9.7626239411
 20
57.1724781743
 30
0.0
 10
9.7867671601
 20
57.2051484883
 30
0.0
 10
9.80380071
 20
57.2215426444
 30
0.0
 10
9.8214418071
 20
57.2318093925
 30
0.0
 10
9.8339497016
 20
57.2342302122
 30
0.0
 10
9.8398321518
 20
57.2342316917
 30
0.0
  0
SPLINE
  5
24B
100
AcDbEntity
  8
0
100
AcDbSpline
 62
7
  6
CONTINUOUS
 70
0
 71
3
 72
22
 73
18
 74
0
 42
0.0000001
 43
0.0000001
 44
0.0000000001
 40
0.0
 40
0.0
 40
0.0
 40
0.0
 40
0.1911337539
 40
0.3749634412
 40
0.5443362893
 40
0.6216044948
 40
0.6929003037
 40
0.7576075173
 40
0.8152074633
 40
0.8652490655
 40
0.9074081546
 40
0.941467696
 40
0.9675143801
 40
0.9777210459
 40
0.9862643096
 40
0.9934964271
 40
1.0
 40
1.0
 40
1.0
 40
1.0
 10
9.5107209491
 20
54.5842320361
 30
0.0
 10
9.5107209491
 20
54.4112749012
 30
0.0
 10
9.514459962
 20
54.0719558973
 30
0.0
 10
9.5312511822
 20
53.5796296318
 30
0.0
 10
9.5547989231
 20
53.1907406174
 30
0.0
 10
9.5796918088
 20
52.9041027387
 30
0.0
 10
9.6003132563
 20
52.7122016973
 30
0.0
 10
9.6232946628
 20
52.5385039
 30
0.0
 10
9.6484356414
 20
52.3845507569
 30
0.0
 10
9.6755565263
 20
52.2517006284
 30
0.0
 10
9.7043400122
 20
52.1410267026
 30
0.0
 10
9.7346028413
 20
52.0535076648
 30
0.0
 10
9.762606027
 20
51.9959360453
 30
0.0
 10
9.7867299418
 20
51.9632006254
 30
0.0
 10
9.8037728683
 20
51.9467781359
 30
0.0
 10
9.8214409703
 20
51.936529101
 30
0.0
 10
9.8339565498
 20
51.9341324064
 30
0.0
 10
9.8398416377
 20
51.9341372337
 30
0.0
  0
SPLINE
  5
24C
100
AcDbEntity
  8
0
100
AcDbSpline
 62
7
  6
CONTINUOUS
 70
0
 71
3
 72
21
 73
17
 74
0
 42
0.0000001
 43
0.0000001
 44
0.0000000001
 40
0.0
 40
0.0
 40
0.0
 40
0.0
 40
0.1937971342
 40
0.3802243345
 40
0.5520066015
 40
0.7025864513
 40
0.8261756635
 40
0.8764299303
 40
0.9183879395
 40
0.9361345347
 40
0.9516776755
 40
0.9650043352
 40
0.9761128446
 40
0.9850229339
 40
0.9918043512
 40
1.0
 40
1.0
 40
1.0
 40
1.0
 10
8.8451497678
 20
54.5842320361
 30
0.0
 10
8.8451497678
 20
54.4117880173
 30
0.0
 10
8.846745056
 20
54.0734551908
 30
0.0
 10
8.8539778572
 20
53.5823155434
 30
0.0
 10
8.8660072933
 20
53.1297291095
 30
0.0
 10
8.8828338951
 20
52.7332576459
 30
0.0
 10
8.9015627178
 20
52.4451303893
 30
0.0
 10
8.920017887
 20
52.2539804794
 30
0.0
 10
8.932137067
 20
52.1568685551
 30
0.0
 10
8.9426929961
 20
52.0907378259
 30
0.0
 10
8.9503869479
 20
52.0499812179
 30
0.0
 10
8.9583254865
 20
52.0152597906
 30
0.0
 10
8.9663322796
 20
51.9867709219
 30
0.0
 10
8.9747891082
 20
51.9641464653
 30
0.0
 10
8.9838806509
 20
51.9457659876
 30
0.0
 10
8.9949690199
 20
51.9341188653
 30
0.0
 10
9.0022616414
 20
51.9341293844
 30
0.0
  0
ENDSEC
  0
SECTION
  2
OBJECTS
  0
DICTIONARY
  5
C
100
AcDbDictionary
280
0
281
1
  3
ACAD_GROUP
350
D
  3
ACAD_MLINESTYLE
350
17
  3
ACAD_LAYOUT
350
1A
  3
ACAD_PLOTSETTINGS
350
19
  3
ACAD_PLOTSTYLENAME
350
E
  0
DICTIONARY
  5
D
102
{ACAD_REACTORS
330
C
102
}
100
AcDbDictionary
280
0
281
1
  0
ACDBDICTIONARYWDFLT
  5
E
102
{ACAD_REACTORS
330
C
102
}
100
AcDbDictionary
281
1
  3
Normal
350
F
100
AcDbDictionaryWithDefault
340
F
  0
DICTIONARY
  5
17
102
{ACAD_REACTORS
330
C
102
}
100
AcDbDictionary
280
0
281
1
  3
Standard
350
18
  0
DICTIONARY
  5
19
102
{ACAD_REACTORS
330
C
102
}
100
AcDbDictionary
281
1
  0
DICTIONARY
  5
1A
102
{ACAD_REACTORS
330
C
102
}
100
AcDbDictionary
281
1
  3
Model
350
24D
  3
Layout1
350
24E
  0
ACDBPLACEHOLDER
  5
F
102
{ACAD_REACTORS
330
E
102
}
  0
MLINESTYLE
  5
18
102
{ACAD_REACTORS
330
17
102
}
100
AcDbMlineStyle
  2
STANDARD
 70
0
  3

 62
256
 51
90.0
 52
90.0
 71
2
 49
0.5
 62
256
  6
BYLAYER
 49
-0.5
 62
256
  6
BYLAYER
  0
LAYOUT
  5
24D
102
{ACAD_REACTORS
330
1A
102
}
100
AcDbPlotSettings
  1

  2
none_device
  4

  6

 40
0.0
 41
0.0
 42
0.0
 43
0.0
 44
210.0
 45
297.0
 46
0.0
 47
0.0
 48
0.0
 49
0.0
140
0.0
141
0.0
142
1.0
143
1.0
 70
1024
 72
1
 73
0
 74
0
  7

 75
0
147
1.0
148
0.0
149
0.0
100
AcDbLayout
  1
Model
 70
0
 71
0
 10
0.0
 20
0.0
 11
210.0
 21
297.0
 12
0.0
 22
0.0
 32
0.0
 14
0.0
 24
0.0
 34
0.0
 15
0.0
 25
0.0
 35
0.0
146
0.0
 13
0.0
 23
0.0
 33
0.0
 16
1.0
 26
0.0
 36
0.0
 17
0.0
 27
1.0
 37
0.0
 76
0
330
210
345
0
346
0
  0
LAYOUT
  5
24E
102
{ACAD_REACTORS
330
1A
102
}
100
AcDbPlotSettings
  1

  2
none_device
  4

  6

 40
0.0
 41
0.0
 42
0.0
 43
0.0
 44
210.0
 45
297.0
 46
0.0
 47
0.0
 48
0.0
 49
0.0
140
0.0
141
0.0
142
1.0
143
1.0
 70
0
 72
1
 73
0
 74
0
  7

 75
0
147
1.0
148
0.0
149
0.0
100
AcDbLayout
  1
Layout1
 70
0
 71
1
 10
0.0
 20
0.0
 11
210.0
 21
297.0
 12
0.0
 22
0.0
 32
0.0
 14
0.0
 24
0.0
 34
0.0
 15
0.0
 25
0.0
 35
0.0
146
0.0
 13
0.0
 23
0.0
 33
0.0
 16
1.0
 26
0.0
 36
0.0
 17
0.0
 27
1.0
 37
0.0
 76
0
330
211
345
0
346
0
  0
ENDSEC
  0
EOF
