999
DXF file: C:\Users\sesa63760\Dev\_Creo\CAD\MCADID0005771_3D-CAD\mcadid0005771_3d-simplified_2.dxf
999
Pro/ENGINEER 2019471 by Parametric Technology Corporation
  0
SECTION
  2
HEADER
  9
$ACADVER
  1
AC1024
  9
$DWGCODEPAGE
  3
ANSI_1252
  9
$EXTMAX
 10
40.4365078143
 20
57.1887753374
 30
0.0
  9
$EXTMIN
 10
0.0
 20
0.0
 30
0.0
  9
$LIMMIN
 10
0.0
 20
0.0
  9
$LIMMAX
 10
40.4365078143
 20
57.1887753374
  9
$VIEWCTR
 10
20.2182539071
 20
28.5943876687
  9
$VIEWSIZE
 40
57.1887753374
  9
$CLAYER
  8
0
  9
$LTSCALE
 40
3.7278609109
  9
$CELTYPE
  6
BYLAYER
  9
$DIMSCALE
 40
1.0
  9
$DIMASZ
 40
0.4813869978
  9
$DIMEXO
 40
1.0
  9
$DIMDLI
 40
2.575612993
  9
$DIMEXE
 40
1.0
  9
$DIMCEN
 40
0.6100136036
  9
$DIMLFAC
 40
1.0
  9
$DIMBLK
  1
_FILLED
  9
$DIMALT
 70
0
  9
$DIMALTF
 40
0.0393700787
  9
$DIMTXT
 40
0.6739417969
  9
$DIMTOL
 70
1
  9
$DIMLIM
 70
0
  9
$DIMTFAC
 40
1.0
  9
$DIMTP
 40
0.01
  9
$DIMTM
 40
0.01
  9
$DIMGAP
 40
0.625
  9
$DIMDSEP
 70
46
  9
$AUNITS
 70
0
  9
$PDMODE
 70
3
  9
$PDSIZE
 40
0.3125
  9
$HANDSEED
  5
3C0
  9
$TILEMODE
 70
1
  9
$MEASUREMENT
 70
1
  9
$INSUNITS
 70
4
  0
ENDSEC
  0
SECTION
  2
CLASSES
  0
CLASS
  1
ACDBDICTIONARYWDFLT
  2
AcDbDictionaryWithDefault
  3
AutoCAD 2000
 90
0
 91
1
280
0
281
0
  0
CLASS
  1
ACDBPLACEHOLDER
  2
AcDbPlaceHolder
  3
AutoCAD 2000
 90
0
 91
1
280
0
281
0
  0
CLASS
  1
LAYOUT
  2
AcDbLayout
  3
AutoCAD 2000
 90
0
 91
0
280
0
281
0
  0
ENDSEC
  0
SECTION
  2
TABLES
  0
TABLE
  2
VPORT
  5
8
100
AcDbSymbolTable
 70
2
  0
VPORT
  5
1F4
100
AcDbSymbolTableRecord
100
AcDbViewportTableRecord
  2
*ACTIVE
 70
0
 10
0.0
 20
0.0
 11
1.0
 21
1.0
 12
20.2182539071
 22
28.5943876687
 13
0.0
 23
0.0
 14
1.0
 24
1.0
 15
0.0
 25
0.0
 16
0.0
 26
0.0
 36
1.0
 17
0.0
 27
0.0
 37
0.0
 40
57.1887753374
 41
0.7070707071
 42
50.0
 43
0.0
 44
0.0
 50
0.0
 51
0.0
 71
0
 72
100
 73
1
 74
1
 75
0
 76
0
 77
0
 78
0
  0
ENDTAB
  0
TABLE
  2
LTYPE
  5
5
100
AcDbSymbolTable
 70
6
  0
LTYPE
  5
14
100
AcDbSymbolTableRecord
100
AcDbLinetypeTableRecord
  2
BYBLOCK
 70
0
  3

 72
65
 73
0
 40
0.0
  0
LTYPE
  5
15
100
AcDbSymbolTableRecord
100
AcDbLinetypeTableRecord
  2
BYLAYER
 70
0
  3

 72
65
 73
0
 40
0.0
  0
LTYPE
  5
16
100
AcDbSymbolTableRecord
100
AcDbLinetypeTableRecord
  2
CONTINUOUS
 70
64
  3
Solid line
 72
65
 73
0
 40
0.0
  0
LTYPE
  5
1F5
100
AcDbSymbolTableRecord
100
AcDbLinetypeTableRecord
  2
CENTER
 70
64
  3
____ _ ____ _ ____ _ ____ _ ____ _ ____ _ ____
 72
65
 73
4
 40
0.6
 49
0.375
 74
0
 49
-0.075
 74
0
 49
0.075
 74
0
 49
-0.075
 74
0
  0
LTYPE
  5
1F6
100
AcDbSymbolTableRecord
100
AcDbLinetypeTableRecord
  2
HIDDEN
 70
64
  3
- - - - - - - - - - - - - - - - - - - -
 72
65
 73
2
 40
0.2
 49
0.1
 74
0
 49
-0.1
 74
0
  0
LTYPE
  5
1F7
100
AcDbSymbolTableRecord
100
AcDbLinetypeTableRecord
  2
PHANTOM
 70
64
  3
_____ _ _ _____ _ _ _____ _ _ _____
 72
65
 73
6
 40
0.8
 49
0.45
 74
0
 49
-0.05
 74
0
 49
0.1
 74
0
 49
-0.05
 74
0
 49
0.1
 74
0
 49
-0.05
 74
0
  0
LTYPE
  5
1F8
100
AcDbSymbolTableRecord
100
AcDbLinetypeTableRecord
  2
DOT
 70
64
  3
. . . . . . . . . . . . . . . . . . . .
 72
65
 73
2
 40
0.2
 49
0.1
 74
0
 49
-0.1
 74
0
  0
LTYPE
  5
1F9
100
AcDbSymbolTableRecord
100
AcDbLinetypeTableRecord
  2
DASHED
 70
64
  3
- - - - - - - - - - - - - - - - - - - -
 72
65
 73
2
 40
0.2
 49
0.1
 74
0
 49
-0.1
 74
0
  0
ENDTAB
  0
TABLE
  2
LAYER
  5
2
100
AcDbSymbolTable
 70
36
  0
LAYER
  5
10
100
AcDbSymbolTableRecord
100
AcDbLayerTableRecord
  2
0
 70
0
 62
7
  6
CONTINUOUS
370
-3
390
F
  0
LAYER
  5
1FA
100
AcDbSymbolTableRecord
100
AcDbLayerTableRecord
  2
DEFAULT_1
 70
0
 62
7
  6
CENTER
370
-3
390
F
  0
LAYER
  5
1FB
100
AcDbSymbolTableRecord
100
AcDbLayerTableRecord
  2
DEFAULT_2
 70
0
 62
7
  6
HIDDEN
370
-3
390
F
  0
LAYER
  5
1FC
100
AcDbSymbolTableRecord
100
AcDbLayerTableRecord
  2
DEFAULT_3
 70
0
 62
7
  6
PHANTOM
370
-3
390
F
  0
LAYER
  5
1FD
100
AcDbSymbolTableRecord
100
AcDbLayerTableRecord
  2
00_COMPONENTS
 70
0
 62
7
  6
CONTINUOUS
370
-3
390
F
  0
LAYER
  5
1FE
100
AcDbSymbolTableRecord
100
AcDbLayerTableRecord
  2
01_1_DEFAULT_DATUMS
 70
0
 62
7
  6
CONTINUOUS
370
-3
390
F
  0
LAYER
  5
1FF
100
AcDbSymbolTableRecord
100
AcDbLayerTableRecord
  2
01_PLANES
 70
0
 62
7
  6
CONTINUOUS
370
-3
390
F
  0
LAYER
  5
200
100
AcDbSymbolTableRecord
100
AcDbLayerTableRecord
  2
02_COORD_SYS
 70
0
 62
7
  6
CONTINUOUS
370
-3
390
F
  0
LAYER
  5
201
100
AcDbSymbolTableRecord
100
AcDbLayerTableRecord
  2
03_AXES
 70
0
 62
7
  6
CONTINUOUS
370
-3
390
F
  0
LAYER
  5
202
100
AcDbSymbolTableRecord
100
AcDbLayerTableRecord
  2
04_POINTS
 70
0
 62
7
  6
CONTINUOUS
370
-3
390
F
  0
LAYER
  5
203
100
AcDbSymbolTableRecord
100
AcDbLayerTableRecord
  2
05_CURVES
 70
0
 62
7
  6
CONTINUOUS
370
-3
390
F
  0
LAYER
  5
204
100
AcDbSymbolTableRecord
100
AcDbLayerTableRecord
  2
06_SURFS
 70
0
 62
7
  6
CONTINUOUS
370
-3
390
F
  0
LAYER
  5
205
100
AcDbSymbolTableRecord
100
AcDbLayerTableRecord
  2
07_COSMETICS
 70
0
 62
7
  6
CONTINUOUS
370
-3
390
F
  0
LAYER
  5
206
100
AcDbSymbolTableRecord
100
AcDbLayerTableRecord
  2
10_NOTES
 70
0
 62
7
  6
CONTINUOUS
370
-3
390
F
  0
LAYER
  5
207
100
AcDbSymbolTableRecord
100
AcDbLayerTableRecord
  2
11_NOTES_PUB
 70
0
 62
7
  6
CONTINUOUS
370
-3
390
F
  0
LAYER
  5
208
100
AcDbSymbolTableRecord
100
AcDbLayerTableRecord
  2
13_REF_GTOL
 70
0
 62
7
  6
CONTINUOUS
370
-3
390
F
  0
LAYER
  5
209
100
AcDbSymbolTableRecord
100
AcDbLayerTableRecord
  2
16_MISC
 70
0
 62
7
  6
CONTINUOUS
370
-3
390
F
  0
LAYER
  5
20A
100
AcDbSymbolTableRecord
100
AcDbLayerTableRecord
  2
17_NO_PRINT
 70
0
 62
7
  6
CONTINUOUS
370
-3
390
F
  0
LAYER
  5
20B
100
AcDbSymbolTableRecord
100
AcDbLayerTableRecord
  2
18_DATUM_CAMS_JOINTS
 70
0
 62
7
  6
CONTINUOUS
370
-3
390
F
  0
LAYER
  5
20C
100
AcDbSymbolTableRecord
100
AcDbLayerTableRecord
  2
19_DATUM_FUNCTIONAL
 70
0
 62
7
  6
CONTINUOUS
370
-3
390
F
  0
LAYER
  5
20D
100
AcDbSymbolTableRecord
100
AcDbLayerTableRecord
  2
20_DATUM_KINEMATIC_SCHEME
 70
0
 62
7
  6
CONTINUOUS
370
-3
390
F
  0
ENDTAB
  0
TABLE
  2
STYLE
  5
3
100
AcDbSymbolTable
 70
1
  0
STYLE
  5
11
100
AcDbSymbolTableRecord
100
AcDbTextStyleTableRecord
  2
STANDARD
 70
0
 40
0.0
 41
1.0
 50
0.0
 71
0
 42
0.2
  3
ARIAL.TTF
  4

  0
STYLE
  5
20E
100
AcDbSymbolTableRecord
100
AcDbTextStyleTableRecord
  2
TEXTSTYLE_1
 70
0
 40
0.0
 41
0.8
 50
0.0
 71
0
 42
0.2
  3
gdt
  4

  0
ENDTAB
  0
TABLE
  2
VIEW
  5
6
100
AcDbSymbolTable
 70
0
  0
ENDTAB
  0
TABLE
  2
UCS
  5
7
100
AcDbSymbolTable
 70
0
  0
ENDTAB
  0
TABLE
  2
APPID
  5
9
100
AcDbSymbolTable
 70
1
  0
APPID
  5
20F
100
AcDbSymbolTableRecord
100
AcDbRegAppTableRecord
  2
ACAD
 70
0
  0
ENDTAB
  0
TABLE
  2
BLOCK_RECORD
  5
1
100
AcDbSymbolTable
 70
0
  0
BLOCK_RECORD
  5
210
100
AcDbSymbolTableRecord
100
AcDbBlockTableRecord
  2
*Model_Space
  0
BLOCK_RECORD
  5
211
100
AcDbSymbolTableRecord
100
AcDbBlockTableRecord
  2
*Paper_Space
  0
BLOCK_RECORD
  5
212
100
AcDbSymbolTableRecord
100
AcDbBlockTableRecord
  2
_FILLED
  0
ENDTAB
  0
TABLE
  2
DIMSTYLE
  5
A
100
AcDbSymbolTable
 70
1
100
AcDbDimStyleTable
 71
0
  0
DIMSTYLE
105
213
100
AcDbSymbolTableRecord
100
AcDbDimStyleTableRecord
  2
STANDARD
 70
0
  3

  4

 40
1.0
 41
0.4813869978
 42
1.0
 43
0.38
 44
1.0
 45
0.0
 46
0.0
 47
0.01
 48
0.01
140
0.6739417969
141
0.09
142
0.0
143
25.4
144
1.0
145
0.0
146
1.0
147
0.625
 71
1
 72
0
 73
0
 74
0
 75
0
 76
0
 77
1
 78
8
 79
2
170
0
171
1
172
0
173
0
174
0
175
0
176
0
177
0
178
0
270
2
179
2
271
2
272
2
273
2
274
2
275
0
280
0
281
0
282
0
283
1
284
8
285
0
286
0
287
3
288
0
340
11
278
46
341
212
342
212
343
212
344
212
  0
ENDTAB
  0
ENDSEC
  0
SECTION
  2
BLOCKS
  0
BLOCK
  5
20
100
AcDbEntity
  8
0
100
AcDbBlockBegin
  2
*Model_Space
 70
0
 10
0.0
 20
0.0
 30
0.0
  3
*Model_Space
  1

  0
ENDBLK
  5
21
100
AcDbEntity
  8
0
100
AcDbBlockEnd
  0
BLOCK
  5
1C
100
AcDbEntity
  8
0
100
AcDbBlockBegin
  2
*Paper_Space
 70
0
 10
0.0
 20
0.0
 30
0.0
  3
*Paper_Space
  1

  0
ENDBLK
  5
1D
100
AcDbEntity
  8
0
100
AcDbBlockEnd
  0
BLOCK
  5
214
100
AcDbEntity
  8
0
100
AcDbBlockBegin
  2
_FILLED
 70
64
 10
0.0
 20
0.0
  3
_FILLED
  1

  0
SOLID
  5
215
100
AcDbEntity
  8
0
  6
BYBLOCK
 62
0
100
AcDbTrace
 10
0.0
 20
0.0
 11
-1.0
 21
0.25
 12
-1.0
 22
-0.25
 13
-1.0
 23
-0.25
  0
ENDBLK
  5
216
100
AcDbEntity
  8
0
  6
BYBLOCK
 62
0
100
AcDbBlockEnd
  0
ENDSEC
  0
SECTION
  2
ENTITIES
  0
LINE
  5
217
100
AcDbEntity
  8
0
100
AcDbLine
 62
7
  6
BYLAYER
 10
34.0215885812
 20
6.5038590639
 11
24.9982479112
 21
4.6773341712
  0
LINE
  5
218
100
AcDbEntity
  8
0
100
AcDbLine
 62
7
  6
BYLAYER
 10
13.7666978544
 20
5.1893899655
 11
27.2482480863
 21
5.1893899655
  0
LINE
  5
219
100
AcDbEntity
  8
0
100
AcDbLine
 62
7
  6
BYLAYER
 10
15.9982479112
 20
4.6773341712
 11
6.9749072413
 21
6.5038590639
  0
LINE
  5
21A
100
AcDbEntity
  8
0
100
AcDbLine
 62
7
  6
BYLAYER
 10
24.7482480989
 20
7.6993898612
 11
21.9399430003
 21
7.6993898612
  0
LINE
  5
21B
100
AcDbEntity
  8
0
100
AcDbLine
 62
7
  6
BYLAYER
 10
19.0565331072
 20
7.6993898612
 11
16.2482476803
 21
7.6993898612
  0
LINE
  5
21C
100
AcDbEntity
  8
0
100
AcDbLine
 62
7
  6
BYLAYER
 10
21.9399430003
 20
7.6993898612
 11
19.0565331072
 21
7.6993898612
  0
LWPOLYLINE
  5
21D
100
AcDbEntity
  8
0
100
AcDbPolyline
 62
7
  6
BYLAYER
 90
3
 70
0
 10
20.4982479112
 20
7.4490578325
 10
19.8603619923
 20
7.5397054454
 10
18.7950725904
 20
8.2136449783
  0
LINE
  5
21E
100
AcDbEntity
  8
0
100
AcDbLine
 62
7
  6
BYLAYER
 10
18.3082151702
 20
8.4223155862
 11
13.8482480319
 21
10.4893897658
  0
LINE
  5
21F
100
AcDbEntity
  8
0
100
AcDbLine
 62
7
  6
BYLAYER
 10
21.4982479234
 20
10.2893899178
 11
19.4982479013
 21
10.2893899178
  0
LINE
  5
220
100
AcDbEntity
  8
0
100
AcDbLine
 62
7
  6
BYLAYER
 10
13.8482480319
 20
10.4893897658
 11
11.8482477041
 21
10.4893897658
  0
LWPOLYLINE
  5
221
100
AcDbEntity
  8
0
100
AcDbPolyline
 62
7
  6
BYLAYER
 90
4
 70
0
 10
8.3083353129
 20
38.1926015057
 10
8.7573993279
 20
39.1761819983
 10
9.8489901906
 20
39.8736517969
 10
10.4982479112
 20
39.9661996722
  0
LINE
  5
222
100
AcDbEntity
  8
0
100
AcDbLine
 62
7
  6
BYLAYER
 10
13.4982472241
 20
45.0393890396
 11
8.6625669111
 21
40.1544483836
  0
LINE
  5
223
100
AcDbEntity
  8
0
100
AcDbLine
 62
7
  6
BYLAYER
 10
29.1482481184
 20
11.4893899297
 11
27.1482477905
 21
11.4893899297
  0
LINE
  5
224
100
AcDbEntity
  8
0
100
AcDbLine
 62
7
  6
BYLAYER
 10
35.3982479112
 20
11.9893890804
 11
29.1482481184
 21
11.9893890804
  0
LINE
  5
225
100
AcDbEntity
  8
0
100
AcDbLine
 62
7
  6
BYLAYER
 10
5.5982479112
 20
11.9893890804
 11
11.8482477041
 21
11.9893890804
  0
LINE
  5
226
100
AcDbEntity
  8
0
100
AcDbLine
 62
7
  6
BYLAYER
 10
35.3982479112
 20
12.4893887406
 11
33.9982479112
 21
12.4893887406
  0
LINE
  5
227
100
AcDbEntity
  8
0
100
AcDbLine
 62
7
  6
BYLAYER
 10
26.9982479112
 20
12.4893887406
 11
23.7982479112
 21
12.4893887406
  0
LINE
  5
228
100
AcDbEntity
  8
0
100
AcDbLine
 62
7
  6
BYLAYER
 10
16.7982479112
 20
12.4893887406
 11
13.9982479112
 21
12.4893887406
  0
LINE
  5
229
100
AcDbEntity
  8
0
100
AcDbLine
 62
7
  6
BYLAYER
 10
16.9982479112
 20
12.4893887406
 11
16.7982479112
 21
12.4893887406
  0
LINE
  5
22A
100
AcDbEntity
  8
0
100
AcDbLine
 62
7
  6
BYLAYER
 10
6.9982479112
 20
12.4893887406
 11
5.5982479112
 21
12.4893887406
  0
LINE
  5
22B
100
AcDbEntity
  8
0
100
AcDbLine
 62
7
  6
BYLAYER
 10
26.9982479112
 20
12.4949303102
 11
33.9982479112
 21
12.4949303102
  0
LINE
  5
22C
100
AcDbEntity
  8
0
100
AcDbLine
 62
7
  6
BYLAYER
 10
6.9982479112
 20
12.4949316357
 11
13.9982479112
 21
12.4949316357
  0
LINE
  5
22D
100
AcDbEntity
  8
0
100
AcDbLine
 62
7
  6
BYLAYER
 10
16.7982479112
 20
12.4949316357
 11
23.7982479112
 21
12.4949316357
  0
LINE
  5
22E
100
AcDbEntity
  8
0
100
AcDbLine
 62
7
  6
BYLAYER
 10
23.7982479112
 20
12.4949316357
 11
23.9982479112
 21
12.4949303102
  0
LINE
  5
22F
100
AcDbEntity
  8
0
100
AcDbLine
 62
7
  6
BYLAYER
 10
20.1873545571
 20
12.57968394
 11
20.8091412646
 21
12.57968394
  0
LINE
  5
230
100
AcDbEntity
  8
0
100
AcDbLine
 62
7
  6
BYLAYER
 10
35.3982479112
 20
13.0693894317
 11
5.5982479112
 21
13.0693894317
  0
LINE
  5
231
100
AcDbEntity
  8
0
100
AcDbLine
 62
7
  6
BYLAYER
 10
33.9982479112
 20
13.3427798385
 11
26.9982479112
 21
13.3427798385
  0
LINE
  5
232
100
AcDbEntity
  8
0
100
AcDbLine
 62
7
  6
BYLAYER
 10
23.7982479112
 20
13.3427796669
 11
16.7982479112
 21
13.3427796669
  0
LINE
  5
233
100
AcDbEntity
  8
0
100
AcDbLine
 62
7
  6
BYLAYER
 10
23.9982479112
 20
13.3427798385
 11
23.7982479112
 21
13.3427796669
  0
LINE
  5
234
100
AcDbEntity
  8
0
100
AcDbLine
 62
7
  6
BYLAYER
 10
13.9982479112
 20
13.3427796669
 11
6.9982479112
 21
13.3427796669
  0
LWPOLYLINE
  5
235
100
AcDbEntity
  8
0
100
AcDbPolyline
 62
7
  6
BYLAYER
 90
5
 70
0
 10
20.4982479112
 20
11.8932575096
 10
21.1361338302
 20
11.8026098967
 10
22.2014232321
 20
11.1286703638
 10
22.7304686663
 20
9.9953352887
 10
22.7330490617
 20
9.3647121808
  0
LWPOLYLINE
  5
236
100
AcDbEntity
  8
0
100
AcDbPolyline
 62
7
  6
BYLAYER
 90
4
 70
0
 10
21.5174405402
 20
12.4949316357
 10
21.862576592
 20
12.4038747042
 10
22.8618153204
 20
11.4209233594
 10
23.2299758369
 20
10.0780851551
  0
LINE
  5
237
100
AcDbEntity
  8
0
100
AcDbLine
 62
7
  6
BYLAYER
 10
6.9749072413
 20
6.5038590639
 11
6.8388651718
 21
11.9893890804
  0
LINE
  5
238
100
AcDbEntity
  8
0
100
AcDbLine
 62
7
  6
BYLAYER
 10
6.8388651718
 20
11.9893890804
 11
6.5482483255
 21
23.7077306148
  0
LINE
  5
239
100
AcDbEntity
  8
0
100
AcDbLine
 62
7
  6
BYLAYER
 10
5.5982479112
 20
11.9893890804
 11
5.5982479112
 21
46.9893897488
  0
LINE
  5
23A
100
AcDbEntity
  8
0
100
AcDbLine
 62
7
  6
BYLAYER
 10
5.7482478294
 20
9.3758400968
 11
5.7482478314
 21
11.9893890804
  0
LINE
  5
23B
100
AcDbEntity
  8
0
100
AcDbLine
 62
7
  6
BYLAYER
 10
5.7482478588
 20
46.989389739
 11
5.7482478592
 21
47.6029339817
  0
LINE
  5
23C
100
AcDbEntity
  8
0
100
AcDbLine
 62
7
  6
BYLAYER
 10
5.7482478314
 20
11.9893890804
 11
5.7482478588
 21
46.989389739
  0
LINE
  5
23D
100
AcDbEntity
  8
0
100
AcDbLine
 62
7
  6
BYLAYER
 10
5.8136239865
 20
48.4089166131
 11
5.8136239899
 21
8.569862791
  0
LINE
  5
23E
100
AcDbEntity
  8
0
100
AcDbLine
 62
7
  6
BYLAYER
 10
5.8332477706
 20
51.3893895006
 11
5.8332477899
 21
46.9893897403
  0
LINE
  5
23F
100
AcDbEntity
  8
0
100
AcDbLine
 62
7
  6
BYLAYER
 10
5.8332477899
 20
46.9893897403
 11
5.8332478936
 21
15.4893900584
  0
LINE
  5
240
100
AcDbEntity
  8
0
100
AcDbLine
 62
7
  6
BYLAYER
 10
6.1136239863
 20
49.4791752518
 11
6.1136239899
 21
7.4996045141
  0
LINE
  5
241
100
AcDbEntity
  8
0
100
AcDbLine
 62
7
  6
BYLAYER
 10
6.4982479112
 20
44.4893902605
 11
6.4982479112
 21
40.7893889585
  0
LINE
  5
242
100
AcDbEntity
  8
0
100
AcDbLine
 62
7
  6
BYLAYER
 10
6.5482483255
 20
50.4085555153
 11
6.5482483255
 21
23.7077306148
  0
LINE
  5
243
100
AcDbEntity
  8
0
100
AcDbLine
 62
7
  6
BYLAYER
 10
6.5982479112
 20
16.4540886128
 11
6.5982479112
 21
24.2893908645
  0
LINE
  5
244
100
AcDbEntity
  8
0
100
AcDbLine
 62
7
  6
BYLAYER
 10
6.9982479112
 20
12.4893887406
 11
6.9982479112
 21
13.3427796669
  0
LINE
  5
245
100
AcDbEntity
  8
0
100
AcDbLine
 62
7
  6
BYLAYER
 10
6.9982479112
 20
13.3427796669
 11
6.9982479112
 21
17.4863676598
  0
LINE
  5
246
100
AcDbEntity
  8
0
100
AcDbLine
 62
7
  6
BYLAYER
 10
7.2950060489
 20
9.329024232
 11
7.2950060489
 21
47.6497556038
  0
LINE
  5
247
100
AcDbEntity
  8
0
100
AcDbLine
 62
7
  6
BYLAYER
 10
35.3982479112
 20
13.9893899788
 11
5.5982479112
 21
13.9893899178
  0
LINE
  5
248
100
AcDbEntity
  8
0
100
AcDbLine
 62
7
  6
BYLAYER
 10
6.9982479112
 20
14.0348710499
 11
13.9982479112
 21
14.0348710499
  0
LINE
  5
249
100
AcDbEntity
  8
0
100
AcDbLine
 62
7
  6
BYLAYER
 10
16.7982479112
 20
14.0348710499
 11
23.9982479112
 21
14.0348710499
  0
LINE
  5
24A
100
AcDbEntity
  8
0
100
AcDbLine
 62
7
  6
BYLAYER
 10
26.9982479112
 20
14.0348710499
 11
33.9982479112
 21
14.0348710499
  0
LINE
  5
24B
100
AcDbEntity
  8
0
100
AcDbLine
 62
7
  6
BYLAYER
 10
33.9982479112
 20
14.6752655128
 11
26.9982479112
 21
14.6752655128
  0
LINE
  5
24C
100
AcDbEntity
  8
0
100
AcDbLine
 62
7
  6
BYLAYER
 10
23.9982479112
 20
14.6752655128
 11
16.7982479112
 21
14.6752655128
  0
LINE
  5
24D
100
AcDbEntity
  8
0
100
AcDbLine
 62
7
  6
BYLAYER
 10
13.9982479112
 20
14.6752655128
 11
6.9982479112
 21
14.6752655128
  0
LINE
  5
24E
100
AcDbEntity
  8
0
100
AcDbLine
 62
7
  6
BYLAYER
 10
33.9982479112
 20
14.7350945568
 11
26.9982479112
 21
14.7350945568
  0
LINE
  5
24F
100
AcDbEntity
  8
0
100
AcDbLine
 62
7
  6
BYLAYER
 10
23.9982479112
 20
14.7350945568
 11
16.7982479112
 21
14.7350945568
  0
LINE
  5
250
100
AcDbEntity
  8
0
100
AcDbLine
 62
7
  6
BYLAYER
 10
13.9982479112
 20
14.7350945568
 11
6.9982479112
 21
14.7350945568
  0
LINE
  5
251
100
AcDbEntity
  8
0
100
AcDbLine
 62
7
  6
BYLAYER
 10
33.9982479112
 20
14.7698245069
 11
26.9982479112
 21
14.7698245069
  0
LINE
  5
252
100
AcDbEntity
  8
0
100
AcDbLine
 62
7
  6
BYLAYER
 10
23.9982479112
 20
14.7698245069
 11
16.7982479112
 21
14.7698245069
  0
LINE
  5
253
100
AcDbEntity
  8
0
100
AcDbLine
 62
7
  6
BYLAYER
 10
13.9982479112
 20
14.7698245069
 11
6.9982479112
 21
14.7698245069
  0
LINE
  5
254
100
AcDbEntity
  8
0
100
AcDbLine
 62
7
  6
BYLAYER
 10
33.9982479112
 20
15.2128676942
 11
26.9982479112
 21
15.2128676942
  0
LINE
  5
255
100
AcDbEntity
  8
0
100
AcDbLine
 62
7
  6
BYLAYER
 10
23.9982479112
 20
15.2128676942
 11
16.7982479112
 21
15.2128676942
  0
LINE
  5
256
100
AcDbEntity
  8
0
100
AcDbLine
 62
7
  6
BYLAYER
 10
13.9982479112
 20
15.2128676942
 11
6.9982479112
 21
15.2128676942
  0
LINE
  5
257
100
AcDbEntity
  8
0
100
AcDbLine
 62
7
  6
BYLAYER
 10
33.9982479112
 20
15.2213101333
 11
26.9982479112
 21
15.2213101333
  0
LINE
  5
258
100
AcDbEntity
  8
0
100
AcDbLine
 62
7
  6
BYLAYER
 10
23.9982479112
 20
15.2213101333
 11
16.7982479112
 21
15.2213101333
  0
LINE
  5
259
100
AcDbEntity
  8
0
100
AcDbLine
 62
7
  6
BYLAYER
 10
13.9982479112
 20
15.2213101333
 11
6.9982479112
 21
15.2213101333
  0
LINE
  5
25A
100
AcDbEntity
  8
0
100
AcDbLine
 62
7
  6
BYLAYER
 10
33.9982479112
 20
15.2640056854
 11
26.9982479112
 21
15.2640056854
  0
LINE
  5
25B
100
AcDbEntity
  8
0
100
AcDbLine
 62
7
  6
BYLAYER
 10
23.9982479112
 20
15.2640056854
 11
16.7982479112
 21
15.2640056854
  0
LINE
  5
25C
100
AcDbEntity
  8
0
100
AcDbLine
 62
7
  6
BYLAYER
 10
13.9982479112
 20
15.2640056854
 11
6.9982479112
 21
15.2640056854
  0
LINE
  5
25D
100
AcDbEntity
  8
0
100
AcDbLine
 62
7
  6
BYLAYER
 10
8.7675286925
 20
18.4577086034
 11
8.3142918709
 21
19.431208477
  0
LINE
  5
25E
100
AcDbEntity
  8
0
100
AcDbLine
 62
7
  6
BYLAYER
 10
7.5982479112
 20
44.4893902605
 11
7.5982479112
 21
40.7893889201
  0
LINE
  5
25F
100
AcDbEntity
  8
0
100
AcDbLine
 62
7
  6
BYLAYER
 10
7.7982480647
 20
32.2143899117
 11
7.7982480647
 21
24.7643899303
  0
LINE
  5
260
100
AcDbEntity
  8
0
100
AcDbLine
 62
7
  6
BYLAYER
 10
7.8035454275
 20
47.5991121447
 11
7.8035454275
 21
32.6204691035
  0
LINE
  5
261
100
AcDbEntity
  8
0
100
AcDbLine
 62
7
  6
BYLAYER
 10
7.8035454275
 20
24.5511268476
 11
7.8035454275
 21
9.379667691
  0
LINE
  5
262
100
AcDbEntity
  8
0
100
AcDbLine
 62
7
  6
BYLAYER
 10
7.8294349661
 20
32.1775930016
 11
7.829409065
 21
24.8010603386
  0
LINE
  5
263
100
AcDbEntity
  8
0
100
AcDbLine
 62
7
  6
BYLAYER
 10
7.8390728781
 20
24.8112082296
 11
7.8390728781
 21
32.1675958934
  0
LINE
  5
264
100
AcDbEntity
  8
0
100
AcDbLine
 62
7
  6
BYLAYER
 10
8.2082479112
 20
19.9344899178
 11
8.2082479112
 21
19.0451848705
  0
LINE
  5
265
100
AcDbEntity
  8
0
100
AcDbLine
 62
7
  6
BYLAYER
 10
8.2082479112
 20
37.7109899178
 11
8.2082479112
 21
38.5795765449
  0
LINE
  5
266
100
AcDbEntity
  8
0
100
AcDbLine
 62
7
  6
BYLAYER
 10
8.3332481131
 20
21.2994129858
 11
8.3332479536
 21
18.9993871585
  0
LINE
  5
267
100
AcDbEntity
  8
0
100
AcDbLine
 62
7
  6
BYLAYER
 10
8.3332481804
 20
46.9893897469
 11
8.3332481804
 21
51.3893895006
  0
LINE
  5
268
100
AcDbEntity
  8
0
100
AcDbLine
 62
7
  6
BYLAYER
 10
8.3332481804
 20
39.4886549147
 11
8.3332481804
 21
46.9893897469
  0
LINE
  5
269
100
AcDbEntity
  8
0
100
AcDbLine
 62
7
  6
BYLAYER
 10
8.3732477889
 20
39.4509330445
 11
8.3732477547
 21
21.2993771944
  0
LINE
  5
26A
100
AcDbEntity
  8
0
100
AcDbLine
 62
7
  6
BYLAYER
 10
23.7982479112
 20
15.3778334478
 11
16.7982479112
 21
15.3778334478
  0
LINE
  5
26B
100
AcDbEntity
  8
0
100
AcDbLine
 62
7
  6
BYLAYER
 10
6.9982479112
 20
15.4124001979
 11
13.9982479112
 21
15.4124001979
  0
LINE
  5
26C
100
AcDbEntity
  8
0
100
AcDbLine
 62
7
  6
BYLAYER
 10
16.7982479112
 20
15.412400198
 11
23.9982479112
 21
15.4124001979
  0
LINE
  5
26D
100
AcDbEntity
  8
0
100
AcDbLine
 62
7
  6
BYLAYER
 10
26.9982479112
 20
15.4124001979
 11
33.9982479112
 21
15.4124001979
  0
LINE
  5
26E
100
AcDbEntity
  8
0
100
AcDbLine
 62
7
  6
BYLAYER
 10
35.1632480519
 20
15.4893896496
 11
27.2482480863
 21
15.4893896496
  0
LINE
  5
26F
100
AcDbEntity
  8
0
100
AcDbLine
 62
7
  6
BYLAYER
 10
13.7473064031
 20
15.4893896126
 11
5.8332478936
 21
15.4893901998
  0
LINE
  5
270
100
AcDbEntity
  8
0
100
AcDbLine
 62
7
  6
BYLAYER
 10
16.7982479112
 20
15.6095244977
 11
23.7982479112
 21
15.6095244977
  0
LINE
  5
271
100
AcDbEntity
  8
0
100
AcDbLine
 62
7
  6
BYLAYER
 10
33.9982479112
 20
16.009155946
 11
26.9982479112
 21
16.009155946
  0
LINE
  5
272
100
AcDbEntity
  8
0
100
AcDbLine
 62
7
  6
BYLAYER
 10
23.9982479112
 20
16.009155946
 11
16.7982479112
 21
16.009155946
  0
LINE
  5
273
100
AcDbEntity
  8
0
100
AcDbLine
 62
7
  6
BYLAYER
 10
13.9982479112
 20
16.009155946
 11
6.9982479112
 21
16.009155946
  0
LINE
  5
274
100
AcDbEntity
  8
0
100
AcDbLine
 62
7
  6
BYLAYER
 10
33.9982479112
 20
16.0518519735
 11
26.9982479112
 21
16.0518519735
  0
LINE
  5
275
100
AcDbEntity
  8
0
100
AcDbLine
 62
7
  6
BYLAYER
 10
23.9982479112
 20
16.0518519735
 11
16.7982479112
 21
16.0518519735
  0
LINE
  5
276
100
AcDbEntity
  8
0
100
AcDbLine
 62
7
  6
BYLAYER
 10
13.9982479112
 20
16.0518519735
 11
6.9982479112
 21
16.0518519735
  0
LINE
  5
277
100
AcDbEntity
  8
0
100
AcDbLine
 62
7
  6
BYLAYER
 10
25.1982479112
 20
16.4540881696
 11
24.1982479112
 21
16.4540881696
  0
LINE
  5
278
100
AcDbEntity
  8
0
100
AcDbLine
 62
7
  6
BYLAYER
 10
16.3982479112
 20
16.4540881696
 11
14.3982479112
 21
16.4540881696
  0
LINE
  5
279
100
AcDbEntity
  8
0
100
AcDbLine
 62
7
  6
BYLAYER
 10
5.5982479112
 20
16.4540881696
 11
6.5982479112
 21
16.4540881696
  0
LINE
  5
27A
100
AcDbEntity
  8
0
100
AcDbLine
 62
7
  6
BYLAYER
 10
6.9982479112
 20
16.640838521
 11
13.9982479112
 21
16.640838521
  0
LINE
  5
27B
100
AcDbEntity
  8
0
100
AcDbLine
 62
7
  6
BYLAYER
 10
16.7982479112
 20
16.6408385208
 11
23.9982479112
 21
16.640838521
  0
LINE
  5
27C
100
AcDbEntity
  8
0
100
AcDbLine
 62
7
  6
BYLAYER
 10
26.9982479112
 20
16.640838521
 11
33.9982479112
 21
16.640838521
  0
LINE
  5
27D
100
AcDbEntity
  8
0
100
AcDbLine
 62
7
  6
BYLAYER
 10
24.1982479112
 20
16.6893890565
 11
16.3982479112
 21
16.6893890565
  0
LINE
  5
27E
100
AcDbEntity
  8
0
100
AcDbLine
 62
7
  6
BYLAYER
 10
14.3982479112
 20
16.6893890565
 11
6.5982479112
 21
16.6893890565
  0
LINE
  5
27F
100
AcDbEntity
  8
0
100
AcDbLine
 62
7
  6
BYLAYER
 10
35.3982479112
 20
16.7773105642
 11
5.5982479112
 21
16.7773105642
  0
LINE
  5
280
100
AcDbEntity
  8
0
100
AcDbLine
 62
7
  6
BYLAYER
 10
33.9982479112
 20
16.8379203474
 11
26.9982479112
 21
16.8379203474
  0
LINE
  5
281
100
AcDbEntity
  8
0
100
AcDbLine
 62
7
  6
BYLAYER
 10
23.9982479112
 20
16.8379203474
 11
16.7982479112
 21
16.8379203474
  0
LINE
  5
282
100
AcDbEntity
  8
0
100
AcDbLine
 62
7
  6
BYLAYER
 10
13.9982479112
 20
16.8379203474
 11
6.9982479112
 21
16.8379203474
  0
LINE
  5
283
100
AcDbEntity
  8
0
100
AcDbLine
 62
7
  6
BYLAYER
 10
33.9982479112
 20
16.8639675772
 11
26.9982479112
 21
16.8639675772
  0
LINE
  5
284
100
AcDbEntity
  8
0
100
AcDbLine
 62
7
  6
BYLAYER
 10
23.9982479112
 20
16.8639675772
 11
16.7982479112
 21
16.8639675772
  0
LINE
  5
285
100
AcDbEntity
  8
0
100
AcDbLine
 62
7
  6
BYLAYER
 10
13.9982479112
 20
16.8639675772
 11
6.9982479112
 21
16.8639675772
  0
LINE
  5
286
100
AcDbEntity
  8
0
100
AcDbLine
 62
7
  6
BYLAYER
 10
33.9982479112
 20
16.9304529636
 11
26.9982479112
 21
16.9304529636
  0
LINE
  5
287
100
AcDbEntity
  8
0
100
AcDbLine
 62
7
  6
BYLAYER
 10
23.9982479112
 20
16.9304529636
 11
16.7982479112
 21
16.9304529636
  0
LINE
  5
288
100
AcDbEntity
  8
0
100
AcDbLine
 62
7
  6
BYLAYER
 10
13.9982479112
 20
16.9304529636
 11
6.9982479112
 21
16.9304529636
  0
LINE
  5
289
100
AcDbEntity
  8
0
100
AcDbLine
 62
7
  6
BYLAYER
 10
33.9982479112
 20
17.0028864464
 11
26.9982479112
 21
17.0028864464
  0
LINE
  5
28A
100
AcDbEntity
  8
0
100
AcDbLine
 62
7
  6
BYLAYER
 10
23.9982479112
 20
17.0028864464
 11
16.7982479112
 21
17.0028864464
  0
LINE
  5
28B
100
AcDbEntity
  8
0
100
AcDbLine
 62
7
  6
BYLAYER
 10
13.9982479112
 20
17.0028864464
 11
6.9982479112
 21
17.0028864464
  0
LINE
  5
28C
100
AcDbEntity
  8
0
100
AcDbLine
 62
7
  6
BYLAYER
 10
23.4808253417
 20
17.0993897256
 11
17.5156721247
 21
17.0993897256
  0
LINE
  5
28D
100
AcDbEntity
  8
0
100
AcDbLine
 62
7
  6
BYLAYER
 10
33.9982479112
 20
17.176654475
 11
26.9982479112
 21
17.176654475
  0
LINE
  5
28E
100
AcDbEntity
  8
0
100
AcDbLine
 62
7
  6
BYLAYER
 10
23.9982479112
 20
17.176654475
 11
16.7982479112
 21
17.176654475
  0
LINE
  5
28F
100
AcDbEntity
  8
0
100
AcDbLine
 62
7
  6
BYLAYER
 10
13.9982479112
 20
17.176654475
 11
6.9982479112
 21
17.176654475
  0
LINE
  5
290
100
AcDbEntity
  8
0
100
AcDbLine
 62
7
  6
BYLAYER
 10
33.9982479112
 20
17.2115045657
 11
26.9982479112
 21
17.2115045657
  0
LINE
  5
291
100
AcDbEntity
  8
0
100
AcDbLine
 62
7
  6
BYLAYER
 10
23.9982479112
 20
17.2115045657
 11
16.7982479112
 21
17.2115045657
  0
LINE
  5
292
100
AcDbEntity
  8
0
100
AcDbLine
 62
7
  6
BYLAYER
 10
13.9982479112
 20
17.2115045657
 11
6.9982479112
 21
17.2115045657
  0
LWPOLYLINE
  5
293
100
AcDbEntity
  8
0
100
AcDbPolyline
 62
7
  6
BYLAYER
 90
3
 70
0
 10
10.4982479112
 20
17.6792801634
 10
9.8515070766
 20
17.7710964144
 10
8.7675286925
 20
18.4577086034
  0
LINE
  5
294
100
AcDbEntity
  8
0
100
AcDbLine
 62
7
  6
BYLAYER
 10
18.2797305894
 20
8.4701325014
 11
18.1271490211
 21
8.7330694793
  0
LINE
  5
295
100
AcDbEntity
  8
0
100
AcDbLine
 62
7
  6
BYLAYER
 10
33.9982479112
 20
17.2983289754
 11
26.9982479112
 21
17.2983289754
  0
LINE
  5
296
100
AcDbEntity
  8
0
100
AcDbLine
 62
7
  6
BYLAYER
 10
23.9982479112
 20
17.2983289754
 11
16.7982479112
 21
17.2983289754
  0
LINE
  5
297
100
AcDbEntity
  8
0
100
AcDbLine
 62
7
  6
BYLAYER
 10
13.9982479112
 20
17.2983289754
 11
6.9982479112
 21
17.2983289754
  0
LINE
  5
298
100
AcDbEntity
  8
0
100
AcDbLine
 62
7
  6
BYLAYER
 10
33.9982479112
 20
17.3836461547
 11
26.9982479112
 21
17.3836461547
  0
LINE
  5
299
100
AcDbEntity
  8
0
100
AcDbLine
 62
7
  6
BYLAYER
 10
23.9982479112
 20
17.3836461547
 11
16.7982479112
 21
17.3836461547
  0
LINE
  5
29A
100
AcDbEntity
  8
0
100
AcDbLine
 62
7
  6
BYLAYER
 10
13.9982479112
 20
17.3836461547
 11
6.9982479112
 21
17.3836461547
  0
LINE
  5
29B
100
AcDbEntity
  8
0
100
AcDbLine
 62
7
  6
BYLAYER
 10
33.9982479112
 20
17.4863676598
 11
26.9982479112
 21
17.4863676598
  0
LINE
  5
29C
100
AcDbEntity
  8
0
100
AcDbLine
 62
7
  6
BYLAYER
 10
23.9982479112
 20
17.4863676598
 11
16.7982479112
 21
17.4863676598
  0
LINE
  5
29D
100
AcDbEntity
  8
0
100
AcDbLine
 62
7
  6
BYLAYER
 10
13.9982479112
 20
17.4863676598
 11
6.9982479112
 21
17.4863676598
  0
LINE
  5
29E
100
AcDbEntity
  8
0
100
AcDbLine
 62
7
  6
BYLAYER
 10
28.5482499948
 20
17.9993899414
 11
31.6632459937
 21
17.9993900358
  0
LINE
  5
29F
100
AcDbEntity
  8
0
100
AcDbLine
 62
7
  6
BYLAYER
 10
9.3332468764
 20
17.9993899414
 11
12.4482496998
 21
17.9993900358
  0
LINE
  5
2A0
100
AcDbEntity
  8
0
100
AcDbLine
 62
7
  6
BYLAYER
 10
35.3982479112
 20
18.0289920742
 11
31.904759491
 21
18.0289920742
  0
LINE
  5
2A1
100
AcDbEntity
  8
0
100
AcDbLine
 62
7
  6
BYLAYER
 10
9.0917359549
 20
18.0289920742
 11
5.5982479112
 21
18.0289920742
  0
LWPOLYLINE
  5
2A2
100
AcDbEntity
  8
0
100
AcDbPolyline
 62
7
  6
BYLAYER
 90
3
 70
0
 10
20.2982479112
 20
17.6792801634
 10
19.6515070766
 20
17.7710964144
 10
18.5675286925
 20
18.4577086034
  0
LWPOLYLINE
  5
2A3
100
AcDbEntity
  8
0
100
AcDbPolyline
 62
7
  6
BYLAYER
 90
6
 70
0
 10
18.7950725904
 20
8.2136449783
 10
18.2660271562
 20
9.3469800534
 10
18.2634467608
 20
9.9776031613
 10
18.7848935654
 20
11.1170496742
 10
19.8577087194
 20
11.8018376482
 10
20.4982479112
 20
11.8932575096
  0
LINE
  5
2A4
100
AcDbEntity
  8
0
100
AcDbLine
 62
7
  6
BYLAYER
 10
17.8526854882
 20
9.4001460009
 11
18.1271490211
 21
8.7330694793
  0
LINE
  5
2A5
100
AcDbEntity
  8
0
100
AcDbLine
 62
7
  6
BYLAYER
 10
11.8482477041
 20
11.9893890804
 11
11.8482477041
 21
10.4893897658
  0
LINE
  5
2A6
100
AcDbEntity
  8
0
100
AcDbLine
 62
7
  6
BYLAYER
 10
12.7882479112
 20
19.9344899178
 11
12.7882479112
 21
19.0451848705
  0
LINE
  5
2A7
100
AcDbEntity
  8
0
100
AcDbLine
 62
7
  6
BYLAYER
 10
12.7882479112
 20
37.7109899178
 11
12.7882479112
 21
38.5795765449
  0
LINE
  5
2A8
100
AcDbEntity
  8
0
100
AcDbLine
 62
7
  6
BYLAYER
 10
19.4982478991
 20
20.2893899178
 11
21.4982479144
 21
20.2893899178
  0
LINE
  5
2A9
100
AcDbEntity
  8
0
100
AcDbLine
 62
7
  6
BYLAYER
 10
31.8232474286
 20
20.4993895378
 11
29.0358123379
 21
20.4993895378
  0
LINE
  5
2AA
100
AcDbEntity
  8
0
100
AcDbLine
 62
7
  6
BYLAYER
 10
11.9606834846
 20
20.4993895378
 11
9.1732480573
 21
20.4993895378
  0
LINE
  5
2AB
100
AcDbEntity
  8
0
100
AcDbLine
 62
7
  6
BYLAYER
 10
25.1982479112
 20
20.8327688781
 11
24.1982479112
 21
20.8327688781
  0
LINE
  5
2AC
100
AcDbEntity
  8
0
100
AcDbLine
 62
7
  6
BYLAYER
 10
6.5982479112
 20
20.8327688781
 11
5.5982479112
 21
20.8327688781
  0
LINE
  5
2AD
100
AcDbEntity
  8
0
100
AcDbLine
 62
7
  6
BYLAYER
 10
14.3982479112
 20
20.8327717206
 11
16.3982479112
 21
20.8327717206
  0
LWPOLYLINE
  5
2AE
100
AcDbEntity
  8
0
100
AcDbPolyline
 62
7
  6
BYLAYER
 90
3
 70
0
 10
30.4982479112
 20
17.6792801634
 10
29.8515070766
 20
17.7710964144
 10
28.7675286925
 20
18.4577086034
  0
LINE
  5
2AF
100
AcDbEntity
  8
0
100
AcDbLine
 62
7
  6
BYLAYER
 10
13.7567200536
 20
10.4892174493
 11
13.7666978544
 21
5.1893899655
  0
LINE
  5
2B0
100
AcDbEntity
  8
0
100
AcDbLine
 62
7
  6
BYLAYER
 10
13.7567200536
 20
10.4892174493
 11
13.7473064032
 21
15.4893897539
  0
LINE
  5
2B1
100
AcDbEntity
  8
0
100
AcDbLine
 62
7
  6
BYLAYER
 10
13.2982479112
 20
44.4893902605
 11
13.2982479112
 21
40.7893889135
  0
LINE
  5
2B2
100
AcDbEntity
  8
0
100
AcDbLine
 62
7
  6
BYLAYER
 10
13.9982479112
 20
13.3427796669
 11
13.9982479112
 21
12.4893887406
  0
LINE
  5
2B3
100
AcDbEntity
  8
0
100
AcDbLine
 62
7
  6
BYLAYER
 10
13.9982479112
 20
17.4863676598
 11
13.9982479112
 21
13.3427796669
  0
LINE
  5
2B4
100
AcDbEntity
  8
0
100
AcDbLine
 62
7
  6
BYLAYER
 10
14.2982479112
 20
44.4893902605
 11
14.2982479112
 21
40.789388913
  0
LINE
  5
2B5
100
AcDbEntity
  8
0
100
AcDbLine
 62
7
  6
BYLAYER
 10
14.3482481139
 20
45.0393900335
 11
14.3482481139
 21
45.2573387837
  0
LINE
  5
2B6
100
AcDbEntity
  8
0
100
AcDbLine
 62
7
  6
BYLAYER
 10
14.3982479112
 20
24.2893907941
 11
14.3982479112
 21
16.4540886128
  0
LWPOLYLINE
  5
2B7
100
AcDbEntity
  8
0
100
AcDbPolyline
 62
7
  6
BYLAYER
 90
4
 70
0
 10
18.1083353129
 20
38.1926015057
 10
18.5573993279
 20
39.1761819983
 10
19.6489901906
 20
39.8736517969
 10
20.2982479112
 20
39.9661996722
  0
LINE
  5
2B8
100
AcDbEntity
  8
0
100
AcDbLine
 62
7
  6
BYLAYER
 10
7.8390728526
 20
24.8112078117
 11
7.8294397861
 21
24.8010603404
  0
LINE
  5
2B9
100
AcDbEntity
  8
0
100
AcDbLine
 62
7
  6
BYLAYER
 10
8.3732477601
 20
21.2994808629
 11
8.3332481131
 21
21.2994443822
  0
LINE
  5
2BA
100
AcDbEntity
  8
0
100
AcDbLine
 62
7
  6
BYLAYER
 10
32.6632477094
 20
21.2993899178
 11
32.623248074
 21
21.2993899178
  0
LINE
  5
2BB
100
AcDbEntity
  8
0
100
AcDbLine
 62
7
  6
BYLAYER
 10
16.3982479112
 20
21.6207823774
 11
14.3982479112
 21
21.6207823774
  0
LINE
  5
2BC
100
AcDbEntity
  8
0
100
AcDbLine
 62
7
  6
BYLAYER
 10
5.5982479112
 20
21.6207843434
 11
6.5982479112
 21
21.6207843434
  0
LINE
  5
2BD
100
AcDbEntity
  8
0
100
AcDbLine
 62
7
  6
BYLAYER
 10
24.1982479112
 20
21.6207847804
 11
25.1982479112
 21
21.6207847804
  0
LINE
  5
2BE
100
AcDbEntity
  8
0
100
AcDbLine
 62
7
  6
BYLAYER
 10
7.8294689057
 20
32.1776166475
 11
7.8390728724
 21
32.1675959009
  0
LINE
  5
2BF
100
AcDbEntity
  8
0
100
AcDbLine
 62
7
  6
BYLAYER
 10
18.5675286925
 20
18.4577086034
 11
18.1142918709
 21
19.431208477
  0
LINE
  5
2C0
100
AcDbEntity
  8
0
100
AcDbLine
 62
7
  6
BYLAYER
 10
16.2482476803
 20
7.6993898612
 11
16.2482476803
 21
9.3770548202
  0
LINE
  5
2C1
100
AcDbEntity
  8
0
100
AcDbLine
 62
7
  6
BYLAYER
 10
16.2482476803
 20
9.3770548202
 11
16.2482476803
 21
14.1993902872
  0
LINE
  5
2C2
100
AcDbEntity
  8
0
100
AcDbLine
 62
7
  6
BYLAYER
 10
16.2982479112
 20
44.4893902605
 11
16.2982479112
 21
40.789388913
  0
LINE
  5
2C3
100
AcDbEntity
  8
0
100
AcDbLine
 62
7
  6
BYLAYER
 10
16.3982479112
 20
16.4540886128
 11
16.3982479112
 21
24.2893907941
  0
LINE
  5
2C4
100
AcDbEntity
  8
0
100
AcDbLine
 62
7
  6
BYLAYER
 10
16.7982479112
 20
12.4893887406
 11
16.7982479112
 21
13.3427796669
  0
LINE
  5
2C5
100
AcDbEntity
  8
0
100
AcDbLine
 62
7
  6
BYLAYER
 10
16.7982479112
 20
13.3427796669
 11
16.7982479112
 21
17.4863676598
  0
LINE
  5
2C6
100
AcDbEntity
  8
0
100
AcDbLine
 62
7
  6
BYLAYER
 10
6.5982479112
 20
24.2893910076
 11
5.5982479112
 21
24.2893910514
  0
LINE
  5
2C7
100
AcDbEntity
  8
0
100
AcDbLine
 62
7
  6
BYLAYER
 10
25.1982479112
 20
24.2893911485
 11
24.1982479112
 21
24.2893911023
  0
LINE
  5
2C8
100
AcDbEntity
  8
0
100
AcDbLine
 62
7
  6
BYLAYER
 10
16.3982479112
 20
24.2893909754
 11
14.3982479112
 21
24.2893909754
  0
LINE
  5
2C9
100
AcDbEntity
  8
0
100
AcDbLine
 62
7
  6
BYLAYER
 10
32.2302357908
 20
24.80106033
 11
33.1670010266
 21
24.8010839553
  0
LINE
  5
2CA
100
AcDbEntity
  8
0
100
AcDbLine
 62
7
  6
BYLAYER
 10
7.8294397861
 20
24.8010603404
 11
8.7662597555
 21
24.8010603259
  0
LINE
  5
2CB
100
AcDbEntity
  8
0
100
AcDbLine
 62
7
  6
BYLAYER
 10
18.7020058163
 20
9.9907827587
 11
18.6911285232
 21
10.1562837861
  0
LINE
  5
2CC
100
AcDbEntity
  8
0
100
AcDbLine
 62
7
  6
BYLAYER
 10
18.647994507
 20
10.8125797891
 11
18.4974333046
 21
13.1034101829
  0
LINE
  5
2CD
100
AcDbEntity
  8
0
100
AcDbLine
 62
7
  6
BYLAYER
 10
16.9982479112
 20
12.4893887406
 11
16.9982479112
 21
17.4863676598
  0
LINE
  5
2CE
100
AcDbEntity
  8
0
100
AcDbLine
 62
7
  6
BYLAYER
 10
17.3982479112
 20
44.4893902605
 11
17.3982479112
 21
40.7893889135
  0
LINE
  5
2CF
100
AcDbEntity
  8
0
100
AcDbLine
 62
7
  6
BYLAYER
 10
18.0082479112
 20
19.9344899178
 11
18.0082479112
 21
19.0451848705
  0
LINE
  5
2D0
100
AcDbEntity
  8
0
100
AcDbLine
 62
7
  6
BYLAYER
 10
18.0082479112
 20
37.7109899178
 11
18.0082479112
 21
38.5795765449
  0
LWPOLYLINE
  5
2D1
100
AcDbEntity
  8
0
100
AcDbPolyline
 62
7
  6
BYLAYER
 90
4
 70
0
 10
12.6847357197
 20
19.4453770465
 10
12.2390964946
 20
18.4692978373
 10
11.1475056319
 20
17.7718280387
 10
10.4982479112
 20
17.6792801634
  0
LINE
  5
2D2
100
AcDbEntity
  8
0
100
AcDbLine
 62
7
  6
BYLAYER
 10
26.0755841662
 20
45.0393685858
 11
27.392656283
 21
47.3206011297
  0
LINE
  5
2D3
100
AcDbEntity
  8
0
100
AcDbLine
 62
7
  6
BYLAYER
 10
26.0755852859
 20
45.0393679393
 11
26.0755904325
 21
45.0393768535
  0
LINE
  5
2D4
100
AcDbEntity
  8
0
100
AcDbLine
 62
7
  6
BYLAYER
 10
12.22896713
 20
39.1877712322
 11
12.6857873571
 21
38.2065746211
  0
LINE
  5
2D5
100
AcDbEntity
  8
0
100
AcDbLine
 62
7
  6
BYLAYER
 10
19.4982479112
 20
10.2893898925
 11
19.4982479112
 21
20.2893899532
  0
LINE
  5
2D6
100
AcDbEntity
  8
0
100
AcDbLine
 62
7
  6
BYLAYER
 10
19.6890304368
 20
31.9653329432
 11
19.6891185969
 21
25.1886134455
  0
LINE
  5
2D7
100
AcDbEntity
  8
0
100
AcDbLine
 62
7
  6
BYLAYER
 10
19.6891185969
 20
25.1886134455
 11
19.6889934096
 21
25.0133787029
  0
LINE
  5
2D8
100
AcDbEntity
  8
0
100
AcDbLine
 62
7
  6
BYLAYER
 10
18.4990527805
 20
13.4604605757
 11
18.494053377
 21
13.2869520628
  0
LINE
  5
2D9
100
AcDbEntity
  8
0
100
AcDbLine
 62
7
  6
BYLAYER
 10
35.3982479112
 20
28.1905197661
 11
35.1632480519
 21
28.1905197661
  0
LINE
  5
2DA
100
AcDbEntity
  8
0
100
AcDbLine
 62
7
  6
BYLAYER
 10
5.8332478575
 20
28.1905197661
 11
5.5982479112
 21
28.1905197661
  0
LINE
  5
2DB
100
AcDbEntity
  8
0
100
AcDbLine
 62
7
  6
BYLAYER
 10
8.373247792
 20
28.4893894904
 11
5.8332478786
 21
28.4893894973
  0
LINE
  5
2DC
100
AcDbEntity
  8
0
100
AcDbLine
 62
7
  6
BYLAYER
 10
35.1632480519
 20
28.4893895006
 11
32.6232481325
 21
28.4893895006
  0
LINE
  5
2DD
100
AcDbEntity
  8
0
100
AcDbLine
 62
7
  6
BYLAYER
 10
8.3732478144
 20
39.4509339276
 11
8.3332481804
 21
39.4886549147
  0
LINE
  5
2DE
100
AcDbEntity
  8
0
100
AcDbLine
 62
7
  6
BYLAYER
 10
22.497443042
 20
13.4604605757
 11
22.5024424455
 21
13.2869520628
  0
LINE
  5
2DF
100
AcDbEntity
  8
0
100
AcDbLine
 62
7
  6
BYLAYER
 10
21.3074657699
 20
25.0134468089
 11
21.3073618412
 21
31.7901583363
  0
LINE
  5
2E0
100
AcDbEntity
  8
0
100
AcDbLine
 62
7
  6
BYLAYER
 10
21.4982479112
 20
20.2893899161
 11
21.4982479112
 21
10.2893899115
  0
LINE
  5
2E1
100
AcDbEntity
  8
0
100
AcDbLine
 62
7
  6
BYLAYER
 10
22.5882479112
 20
19.9344899178
 11
22.5882479112
 21
19.0451848705
  0
LINE
  5
2E2
100
AcDbEntity
  8
0
100
AcDbLine
 62
7
  6
BYLAYER
 10
22.5882479112
 20
37.7109899178
 11
22.5882479112
 21
38.5795765449
  0
LINE
  5
2E3
100
AcDbEntity
  8
0
100
AcDbLine
 62
7
  6
BYLAYER
 10
21.3073618412
 20
31.7901583363
 11
21.3075031144
 21
31.9654011094
  0
LINE
  5
2E4
100
AcDbEntity
  8
0
100
AcDbLine
 62
7
  6
BYLAYER
 10
23.0982479112
 20
44.4893902605
 11
23.0982479112
 21
40.7893889201
  0
LINE
  5
2E5
100
AcDbEntity
  8
0
100
AcDbLine
 62
7
  6
BYLAYER
 10
23.7982479112
 20
13.3427796669
 11
23.7982479112
 21
12.4893887406
  0
LINE
  5
2E6
100
AcDbEntity
  8
0
100
AcDbLine
 62
7
  6
BYLAYER
 10
23.7982479112
 20
17.4863676598
 11
23.7982479112
 21
13.3427796669
  0
LINE
  5
2E7
100
AcDbEntity
  8
0
100
AcDbLine
 62
7
  6
BYLAYER
 10
23.9982479112
 20
17.4863676598
 11
23.9982479112
 21
12.4893887406
  0
LINE
  5
2E8
100
AcDbEntity
  8
0
100
AcDbLine
 62
7
  6
BYLAYER
 10
24.0982479112
 20
44.4893902605
 11
24.0982479112
 21
40.7893889585
  0
LINE
  5
2E9
100
AcDbEntity
  8
0
100
AcDbLine
 62
7
  6
BYLAYER
 10
24.1982479112
 20
24.2893908645
 11
24.1982479112
 21
16.4540886128
  0
LINE
  5
2EA
100
AcDbEntity
  8
0
100
AcDbLine
 62
7
  6
BYLAYER
 10
22.2944900062
 20
9.9907827587
 11
22.3053672993
 21
10.1562837861
  0
LINE
  5
2EB
100
AcDbEntity
  8
0
100
AcDbLine
 62
7
  6
BYLAYER
 10
22.3485013155
 20
10.8125797891
 11
22.4990625179
 21
13.1034101829
  0
LWPOLYLINE
  5
2EC
100
AcDbEntity
  8
0
100
AcDbPolyline
 62
7
  6
BYLAYER
 90
4
 70
0
 10
17.7665192175
 20
10.0778095163
 10
18.1345557251
 20
11.4207110446
 10
19.1338990425
 20
12.40386323
 10
19.4790726897
 20
12.4949316357
  0
LWPOLYLINE
  5
2ED
100
AcDbEntity
  8
0
100
AcDbPolyline
 62
7
  6
BYLAYER
 90
4
 70
0
 10
28.3083353155
 20
38.1926015112
 10
28.7573993279
 20
39.1761819983
 10
29.8489901906
 20
39.8736517969
 10
30.4982479112
 20
39.9661996722
  0
LINE
  5
2EE
100
AcDbEntity
  8
0
100
AcDbLine
 62
7
  6
BYLAYER
 10
13.3482481309
 20
46.989389771
 11
14.3482481139
 21
45.2573387837
  0
LINE
  5
2EF
100
AcDbEntity
  8
0
100
AcDbLine
 62
7
  6
BYLAYER
 10
28.7675286925
 20
18.4577086034
 11
28.3142918735
 21
19.4312084714
  0
LINE
  5
2F0
100
AcDbEntity
  8
0
100
AcDbLine
 62
7
  6
BYLAYER
 10
24.7482480969
 20
9.3770547992
 11
24.7482481615
 21
7.6993898612
  0
LINE
  5
2F1
100
AcDbEntity
  8
0
100
AcDbLine
 62
7
  6
BYLAYER
 10
24.7482480969
 20
9.3770547992
 11
24.7482479112
 21
14.199391222
  0
LINE
  5
2F2
100
AcDbEntity
  8
0
100
AcDbLine
 62
7
  6
BYLAYER
 10
25.1982479112
 20
12.4893887406
 11
25.1982479112
 21
44.4893902605
  0
LINE
  5
2F3
100
AcDbEntity
  8
0
100
AcDbLine
 62
7
  6
BYLAYER
 10
26.0982479112
 20
44.4893902605
 11
26.0982479112
 21
40.7893891031
  0
LWPOLYLINE
  5
2F4
100
AcDbEntity
  8
0
100
AcDbPolyline
 62
7
  6
BYLAYER
 90
5
 70
0
 10
23.1445477995
 20
9.4029877012
 10
23.2290779124
 20
10.0954792
 10
22.8538239965
 20
11.4283747282
 10
22.4192774487
 20
11.9791356543
 10
21.5048073925
 20
12.4949316357
  0
LWPOLYLINE
  5
2F5
100
AcDbEntity
  8
0
100
AcDbPolyline
 62
7
  6
BYLAYER
 90
4
 70
0
 10
22.4847357197
 20
19.4453770465
 10
22.0390964946
 20
18.4692978373
 10
20.9475056319
 20
17.7718280387
 10
20.2982479112
 20
17.6792801634
  0
LINE
  5
2F6
100
AcDbEntity
  8
0
100
AcDbLine
 62
7
  6
BYLAYER
 10
22.02896713
 20
39.1877712322
 11
22.4857873571
 21
38.2065746211
  0
LINE
  5
2F7
100
AcDbEntity
  8
0
100
AcDbLine
 62
7
  6
BYLAYER
 10
26.9982479112
 20
12.4893887406
 11
26.9982479112
 21
13.3427798385
  0
LINE
  5
2F8
100
AcDbEntity
  8
0
100
AcDbLine
 62
7
  6
BYLAYER
 10
26.9982479112
 20
13.3427798385
 11
26.9982479112
 21
17.4863676598
  0
LINE
  5
2F9
100
AcDbEntity
  8
0
100
AcDbLine
 62
7
  6
BYLAYER
 10
27.1482477905
 20
10.4893897658
 11
27.1482477905
 21
11.4893899297
  0
LINE
  5
2FA
100
AcDbEntity
  8
0
100
AcDbLine
 62
7
  6
BYLAYER
 10
27.1982479112
 20
44.4893902605
 11
27.1982479112
 21
40.7893891031
  0
LINE
  5
2FB
100
AcDbEntity
  8
0
100
AcDbLine
 62
7
  6
BYLAYER
 10
27.2482480863
 20
5.1893899655
 11
27.2482480863
 21
11.4893899297
  0
LINE
  5
2FC
100
AcDbEntity
  8
0
100
AcDbLine
 62
7
  6
BYLAYER
 10
27.2482480863
 20
11.4893899297
 11
27.2482480863
 21
15.4893896496
  0
LINE
  5
2FD
100
AcDbEntity
  8
0
100
AcDbLine
 62
7
  6
BYLAYER
 10
27.4982481273
 20
51.4893895453
 11
27.4982481273
 21
48.7959013515
  0
LINE
  5
2FE
100
AcDbEntity
  8
0
100
AcDbLine
 62
7
  6
BYLAYER
 10
28.2082479112
 20
19.9344899178
 11
28.2082479112
 21
19.0451848552
  0
LINE
  5
2FF
100
AcDbEntity
  8
0
100
AcDbLine
 62
7
  6
BYLAYER
 10
28.2082479112
 20
37.7109899178
 11
28.2082479112
 21
38.5795765601
  0
LINE
  5
300
100
AcDbEntity
  8
0
100
AcDbLine
 62
7
  6
BYLAYER
 10
29.5653998662
 20
49.5266017722
 11
29.0035665494
 21
45.0392652187
  0
LINE
  5
301
100
AcDbEntity
  8
0
100
AcDbLine
 62
7
  6
BYLAYER
 10
33.1574227229
 20
24.8112078316
 11
33.1670642688
 21
24.8011071219
  0
LINE
  5
302
100
AcDbEntity
  8
0
100
AcDbLine
 62
7
  6
BYLAYER
 10
28.9982476541
 20
45.0393792458
 11
28.9982484797
 21
41.828444081
  0
LINE
  5
303
100
AcDbEntity
  8
0
100
AcDbLine
 62
7
  6
BYLAYER
 10
29.1482481184
 20
11.4893899297
 11
29.1482481184
 21
11.9893890804
  0
LINE
  5
304
100
AcDbEntity
  8
0
100
AcDbLine
 62
7
  6
BYLAYER
 10
22.8693468014
 20
8.7330694793
 11
23.1445477995
 21
9.4029877012
  0
LWPOLYLINE
  5
305
100
AcDbEntity
  8
0
100
AcDbPolyline
 62
7
  6
BYLAYER
 90
4
 70
0
 10
22.7330490617
 20
9.3647121808
 10
22.2116022571
 20
8.2252656678
 10
21.138787103
 20
7.5404776939
 10
20.4982479112
 20
7.4490578325
  0
LWPOLYLINE
  5
306
100
AcDbEntity
  8
0
100
AcDbPolyline
 62
7
  6
BYLAYER
 90
3
 70
0
 10
10.4982479112
 20
39.9661996722
 10
11.1449887459
 20
39.8743834212
 10
12.22896713
 20
39.1877712322
  0
LWPOLYLINE
  5
307
100
AcDbEntity
  8
0
100
AcDbPolyline
 62
7
  6
BYLAYER
 90
3
 70
0
 10
20.2982479112
 20
39.9661996722
 10
20.9449887459
 20
39.8743834212
 10
22.02896713
 20
39.1877712322
  0
LINE
  5
308
100
AcDbEntity
  8
0
100
AcDbLine
 62
7
  6
BYLAYER
 10
32.6232482687
 20
21.299389981
 11
32.6232480013
 21
37.789385957
  0
LINE
  5
309
100
AcDbEntity
  8
0
100
AcDbLine
 62
7
  6
BYLAYER
 10
32.6632479112
 20
18.9993892162
 11
32.6632476421
 21
21.2993899308
  0
LINE
  5
30A
100
AcDbEntity
  8
0
100
AcDbLine
 62
7
  6
BYLAYER
 10
32.6632476421
 20
51.3893895006
 11
32.6632476421
 21
49.7893891251
  0
LINE
  5
30B
100
AcDbEntity
  8
0
100
AcDbLine
 62
7
  6
BYLAYER
 10
32.6632476421
 20
49.7893891251
 11
32.6632476421
 21
45.03938916
  0
LINE
  5
30C
100
AcDbEntity
  8
0
100
AcDbLine
 62
7
  6
BYLAYER
 10
32.6632476421
 20
45.03938916
 11
32.6632476421
 21
37.7772933326
  0
LINE
  5
30D
100
AcDbEntity
  8
0
100
AcDbLine
 62
7
  6
BYLAYER
 10
32.7882479112
 20
19.9344899178
 11
32.7882479112
 21
19.0451848552
  0
LINE
  5
30E
100
AcDbEntity
  8
0
100
AcDbLine
 62
7
  6
BYLAYER
 10
32.7882479112
 20
37.7109899178
 11
32.7882479112
 21
38.5795765601
  0
LINE
  5
30F
100
AcDbEntity
  8
0
100
AcDbLine
 62
7
  6
BYLAYER
 10
32.8982479112
 20
44.4893902605
 11
32.8982479112
 21
40.7893891028
  0
LINE
  5
310
100
AcDbEntity
  8
0
100
AcDbLine
 62
7
  6
BYLAYER
 10
33.1574226991
 20
32.1675955073
 11
33.1574226991
 21
24.8112078415
  0
LINE
  5
311
100
AcDbEntity
  8
0
100
AcDbLine
 62
7
  6
BYLAYER
 10
33.192950395
 20
47.5991121447
 11
33.192950395
 21
32.4276529208
  0
LINE
  5
312
100
AcDbEntity
  8
0
100
AcDbLine
 62
7
  6
BYLAYER
 10
33.192950395
 20
24.5511269148
 11
33.192950395
 21
9.379667691
  0
LINE
  5
313
100
AcDbEntity
  8
0
100
AcDbLine
 62
7
  6
BYLAYER
 10
33.1982477578
 20
24.7643898872
 11
33.1982477578
 21
32.1111791191
  0
LINE
  5
314
100
AcDbEntity
  8
0
100
AcDbLine
 62
7
  6
BYLAYER
 10
33.4982477782
 20
49.7893891251
 11
33.4982482306
 21
51.4893895453
  0
LINE
  5
315
100
AcDbEntity
  8
0
100
AcDbLine
 62
7
  6
BYLAYER
 10
33.701489774
 20
47.6497556626
 11
33.7014897953
 21
9.3290244052
  0
LINE
  5
316
100
AcDbEntity
  8
0
100
AcDbLine
 62
7
  6
BYLAYER
 10
33.8982479112
 20
44.4893902605
 11
33.8982479112
 21
40.7893891012
  0
LINE
  5
317
100
AcDbEntity
  8
0
100
AcDbLine
 62
7
  6
BYLAYER
 10
33.9982479112
 20
13.3427798385
 11
33.9982479112
 21
12.4893887406
  0
LINE
  5
318
100
AcDbEntity
  8
0
100
AcDbLine
 62
7
  6
BYLAYER
 10
33.9982479112
 20
17.4863676598
 11
33.9982479112
 21
13.3427798385
  0
LINE
  5
319
100
AcDbEntity
  8
0
100
AcDbLine
 62
7
  6
BYLAYER
 10
33.1693622419
 20
32.1794285419
 11
33.1670010266
 21
24.8011071219
  0
LINE
  5
31A
100
AcDbEntity
  8
0
100
AcDbLine
 62
7
  6
BYLAYER
 10
22.7167652331
 20
8.4701325014
 11
22.8693468014
 21
8.7330694793
  0
LWPOLYLINE
  5
31B
100
AcDbEntity
  8
0
100
AcDbPolyline
 62
7
  6
BYLAYER
 90
5
 70
0
 10
19.4916879543
 20
12.4949316357
 10
18.5763113478
 20
11.9782512324
 10
18.1418111509
 20
11.4269288287
 10
17.7673925663
 20
10.0929652907
 10
17.8526854882
 20
9.4001460009
  0
LINE
  5
31C
100
AcDbEntity
  8
0
100
AcDbLine
 62
7
  6
BYLAYER
 10
35.3982479112
 20
40.7893890953
 11
5.5982479112
 21
40.7893890953
  0
LWPOLYLINE
  5
31D
100
AcDbEntity
  8
0
100
AcDbPolyline
 62
7
  6
BYLAYER
 90
3
 70
0
 10
30.4982479112
 20
39.9661996722
 10
31.1449887459
 20
39.8743834212
 10
32.22896713
 20
39.1877712322
  0
LINE
  5
31E
100
AcDbEntity
  8
0
100
AcDbLine
 62
7
  6
BYLAYER
 10
32.6632476421
 20
37.7772933326
 11
32.6232479887
 21
37.7893897856
  0
LINE
  5
31F
100
AcDbEntity
  8
0
100
AcDbLine
 62
7
  6
BYLAYER
 10
34.8828718324
 20
7.4996044883
 11
34.882871836
 21
49.4791752465
  0
LINE
  5
320
100
AcDbEntity
  8
0
100
AcDbLine
 62
7
  6
BYLAYER
 10
35.1632480519
 20
45.039390065
 11
35.1632480519
 21
51.3893895006
  0
LINE
  5
321
100
AcDbEntity
  8
0
100
AcDbLine
 62
7
  6
BYLAYER
 10
35.1632480519
 20
15.4893896496
 11
35.1632480519
 21
45.039390065
  0
LINE
  5
322
100
AcDbEntity
  8
0
100
AcDbLine
 62
7
  6
BYLAYER
 10
35.1828604128
 20
48.4089165892
 11
35.1828604093
 21
8.5698627783
  0
LINE
  5
323
100
AcDbEntity
  8
0
100
AcDbLine
 62
7
  6
BYLAYER
 10
35.2482479653
 20
45.0393900651
 11
35.2482479911
 21
11.9893890804
  0
LINE
  5
324
100
AcDbEntity
  8
0
100
AcDbLine
 62
7
  6
BYLAYER
 10
35.2482479633
 20
47.6029380874
 11
35.2482479653
 21
45.0393900651
  0
LINE
  5
325
100
AcDbEntity
  8
0
100
AcDbLine
 62
7
  6
BYLAYER
 10
35.2482479911
 20
11.9893890804
 11
35.2482479931
 21
9.3758400846
  0
LINE
  5
326
100
AcDbEntity
  8
0
100
AcDbLine
 62
7
  6
BYLAYER
 10
35.3982479112
 20
11.9893890804
 11
35.3982479112
 21
45.039390058
  0
LINE
  5
327
100
AcDbEntity
  8
0
100
AcDbLine
 62
7
  6
BYLAYER
 10
34.1576306507
 20
11.9893890804
 11
34.0215885812
 21
6.5038590639
  0
LINE
  5
328
100
AcDbEntity
  8
0
100
AcDbLine
 62
7
  6
BYLAYER
 10
34.1576306507
 20
11.9893890804
 11
35.1071248235
 21
50.2751840865
  0
LWPOLYLINE
  5
329
100
AcDbEntity
  8
0
100
AcDbPolyline
 62
7
  6
BYLAYER
 90
4
 70
0
 10
32.6847357172
 20
19.445377041
 10
32.2390964946
 20
18.4692978373
 10
31.1475056319
 20
17.7718280387
 10
30.4982479112
 20
17.6792801634
  0
LINE
  5
32A
100
AcDbEntity
  8
0
100
AcDbLine
 62
7
  6
BYLAYER
 10
35.3982479112
 20
43.8317116788
 11
5.5982479112
 21
43.8317116788
  0
LINE
  5
32B
100
AcDbEntity
  8
0
100
AcDbLine
 62
7
  6
BYLAYER
 10
35.3982479112
 20
43.9393893322
 11
5.5982479112
 21
43.9393893322
  0
LINE
  5
32C
100
AcDbEntity
  8
0
100
AcDbLine
 62
7
  6
BYLAYER
 10
35.3982479112
 20
44.0893890774
 11
25.1982479112
 21
44.0893890774
  0
LINE
  5
32D
100
AcDbEntity
  8
0
100
AcDbLine
 62
7
  6
BYLAYER
 10
25.1982479112
 20
44.0893890774
 11
5.5982479112
 21
44.0893890774
  0
LINE
  5
32E
100
AcDbEntity
  8
0
100
AcDbLine
 62
7
  6
BYLAYER
 10
32.3303547357
 20
38.4964966509
 11
28.9983928828
 21
41.828444081
  0
LINE
  5
32F
100
AcDbEntity
  8
0
100
AcDbLine
 62
7
  6
BYLAYER
 10
32.22896713
 20
39.1877712322
 11
32.6857873545
 21
38.2065746268
  0
LINE
  5
330
100
AcDbEntity
  8
0
100
AcDbLine
 62
7
  6
BYLAYER
 10
7.5982479112
 20
44.3779248298
 11
13.2982479112
 21
44.3779248298
  0
LINE
  5
331
100
AcDbEntity
  8
0
100
AcDbLine
 62
7
  6
BYLAYER
 10
17.3982479112
 20
44.3779248298
 11
23.0982479112
 21
44.3779248298
  0
LINE
  5
332
100
AcDbEntity
  8
0
100
AcDbLine
 62
7
  6
BYLAYER
 10
27.1982479112
 20
44.3779248298
 11
32.8982479112
 21
44.3779248298
  0
LINE
  5
333
100
AcDbEntity
  8
0
100
AcDbLine
 62
7
  6
BYLAYER
 10
5.5982479112
 20
44.4893902605
 11
35.3982479112
 21
44.4893902605
  0
LINE
  5
334
100
AcDbEntity
  8
0
100
AcDbLine
 62
7
  6
BYLAYER
 10
35.3982479112
 20
45.0393899178
 11
14.3482481139
 21
45.0393899178
  0
LINE
  5
335
100
AcDbEntity
  8
0
100
AcDbLine
 62
7
  6
BYLAYER
 10
14.3482481139
 20
45.0393899178
 11
13.4982481281
 21
45.0393899178
  0
LINE
  5
336
100
AcDbEntity
  8
0
100
AcDbLine
 62
7
  6
BYLAYER
 10
27.1482477905
 20
10.4893897658
 11
22.6882806524
 21
8.4223155862
  0
LINE
  5
337
100
AcDbEntity
  8
0
100
AcDbLine
 62
7
  6
BYLAYER
 10
35.1632480519
 20
46.989389739
 11
32.6632476421
 21
46.989389739
  0
LINE
  5
338
100
AcDbEntity
  8
0
100
AcDbLine
 62
7
  6
BYLAYER
 10
13.3482481309
 20
46.989389739
 11
5.5982479112
 21
46.989389739
  0
LINE
  5
339
100
AcDbEntity
  8
0
100
AcDbLine
 62
7
  6
BYLAYER
 10
29.4383533817
 20
48.5102304031
 11
27.9689577118
 21
48.5102304031
  0
LINE
  5
33A
100
AcDbEntity
  8
0
100
AcDbLine
 62
7
  6
BYLAYER
 10
29.8630807251
 20
49.7893891251
 11
33.4982478871
 21
49.7893891251
  0
LINE
  5
33B
100
AcDbEntity
  8
0
100
AcDbLine
 62
7
  6
BYLAYER
 10
5.8332477814
 20
51.3893895006
 11
8.3332481804
 21
51.3893895006
  0
LINE
  5
33C
100
AcDbEntity
  8
0
100
AcDbLine
 62
7
  6
BYLAYER
 10
32.6632476421
 20
51.3893895006
 11
33.4982481217
 21
51.3893895006
  0
LINE
  5
33D
100
AcDbEntity
  8
0
100
AcDbLine
 62
7
  6
BYLAYER
 10
33.4982481217
 20
51.3893895006
 11
35.1632480519
 21
51.3893895006
  0
LINE
  5
33E
100
AcDbEntity
  8
0
100
AcDbLine
 62
7
  6
BYLAYER
 10
33.4982481217
 20
51.4893895453
 11
27.4982481273
 21
51.4893895453
  0
LINE
  5
33F
100
AcDbEntity
  8
0
100
AcDbLine
 62
7
  6
BYLAYER
 10
6.5482483255
 20
50.4085555153
 11
8.3332481804
 21
50.7698791966
  0
LINE
  5
340
100
AcDbEntity
  8
0
100
AcDbLine
 62
7
  6
BYLAYER
 10
8.3332481804
 20
50.7698791966
 11
15.9982479113
 21
52.3214456645
  0
LINE
  5
341
100
AcDbEntity
  8
0
100
AcDbLine
 62
7
  6
BYLAYER
 10
19.9937441416
 20
53.1393899536
 11
21.0027516809
 21
53.1393899536
  0
LINE
  5
342
100
AcDbEntity
  8
0
100
AcDbLine
 62
7
  6
BYLAYER
 10
29.1087453097
 20
51.4893895453
 11
35.1071248235
 21
50.2751840865
  0
LINE
  5
343
100
AcDbEntity
  8
0
100
AcDbLine
 62
7
  6
BYLAYER
 10
24.9982479113
 20
52.3214456644
 11
29.1087453097
 21
51.4893895453
  0
ARC
  5
344
100
AcDbEntity
  8
0
100
AcDbCircle
 62
7
  6
BYLAYER
 10
10.7482484704
 20
9.3758407385
 40
5.0000006486
100
AcDbArc
 50
180.000007353
 51
262.5304106406
  0
ARC
  5
345
100
AcDbEntity
  8
0
100
AcDbCircle
 62
7
  6
BYLAYER
 10
12.4482479081
 20
14.1993902872
 40
3.7999997722
100
AcDbArc
 50
0.0
 51
89.9999711878
  0
ARC
  5
346
100
AcDbEntity
  8
0
100
AcDbCircle
 62
7
  6
BYLAYER
 10
10.7249751688
 20
9.3533248499
 40
3.4300552012
100
AcDbArc
 50
180.4059218899
 51
262.1206689094
  0
ARC
  5
347
100
AcDbEntity
  8
0
100
AcDbCircle
 62
7
  6
BYLAYER
 10
10.7798941835
 20
9.4076979341
 40
2.9764807427
100
AcDbArc
 50
180.5395762682
 51
262.0972445498
  0
ARC
  5
348
100
AcDbEntity
  8
0
100
AcDbCircle
 62
7
  6
BYLAYER
 10
9.3332479112
 20
18.9993899178
 40
1.0
100
AcDbArc
 50
180.000151394
 51
269.9999345502
  0
ARC
  5
349
100
AcDbEntity
  8
0
100
AcDbCircle
 62
7
  6
BYLAYER
 10
9.1732487776
 20
21.2993907618
 40
0.800001224
100
AcDbArc
 50
179.9992245176
 51
269.9999484083
  0
ARC
  5
34A
100
AcDbEntity
  8
0
100
AcDbCircle
 62
7
  6
BYLAYER
 10
20.4982488269
 20
-321.2106680492
 40
345.9947605162
100
AcDbArc
 50
87.8973204327
 51
92.1026798708
  0
ARC
  5
34B
100
AcDbEntity
  8
0
100
AcDbCircle
 62
7
  6
BYLAYER
 10
20.4982478298
 20
-297.6906146756
 40
322.7050045931
100
AcDbArc
 50
87.744551745
 51
92.2554479779
  0
ARC
  5
34C
100
AcDbEntity
  8
0
100
AcDbCircle
 62
7
  6
BYLAYER
 10
20.4982479112
 20
-26.7606360235
 40
80.0000259407
100
AcDbArc
 50
82.5304105981
 51
97.4695894219
  0
ARC
  5
34D
100
AcDbEntity
  8
0
100
AcDbCircle
 62
7
  6
BYLAYER
 10
20.5317850894
 20
-27.1396382065
 40
78.8320360824
100
AcDbArc
 50
82.5584457106
 51
97.4957021695
  0
ARC
  5
34E
100
AcDbEntity
  8
0
100
AcDbCircle
 62
7
  6
BYLAYER
 10
20.5152543662
 20
-26.549784562
 40
77.7338788945
100
AcDbArc
 50
82.5261247252
 51
97.498733033
  0
ARC
  5
34F
100
AcDbEntity
  8
0
100
AcDbCircle
 62
7
  6
BYLAYER
 10
20.4998903253
 20
16.4835194955
 40
12.6341296844
100
AcDbArc
 50
249.1423076925
 51
290.8576923075
  0
CIRCLE
  5
350
100
AcDbEntity
  8
0
100
AcDbCircle
 62
7
  6
BYLAYER
 10
20.4982479112
 20
15.2893899178
 40
8.5002134999
  0
CIRCLE
  5
351
100
AcDbEntity
  8
0
100
AcDbCircle
 62
7
  6
BYLAYER
 10
20.4982479112
 20
15.2893899178
 40
7.0394533329
  0
CIRCLE
  5
352
100
AcDbEntity
  8
0
100
AcDbCircle
 62
7
  6
BYLAYER
 10
20.4982479112
 20
15.2893899178
 40
5.3997566345
  0
CIRCLE
  5
353
100
AcDbEntity
  8
0
100
AcDbCircle
 62
7
  6
BYLAYER
 10
20.4982479112
 20
15.2893899178
 40
5.2511194534
  0
ARC
  5
354
100
AcDbEntity
  8
0
100
AcDbCircle
 62
7
  6
BYLAYER
 10
20.4982479112
 20
13.1644710383
 40
5.2234358174
100
AcDbArc
 50
245.2114579815
 51
294.7885420187
  0
ARC
  5
355
100
AcDbEntity
  8
0
100
AcDbCircle
 62
7
  6
BYLAYER
 10
20.4982479112
 20
15.2893899178
 40
4.5835282537
100
AcDbArc
 50
282.6016954352
 51
77.3982980884
  0
ARC
  5
356
100
AcDbEntity
  8
0
100
AcDbCircle
 62
7
  6
BYLAYER
 10
20.4982479112
 20
15.2893899178
 40
4.5835282531
100
AcDbArc
 50
102.6016953942
 51
257.3982980359
  0
ARC
  5
357
100
AcDbEntity
  8
0
100
AcDbCircle
 62
7
  6
BYLAYER
 10
20.4378622056
 20
10.0745656169
 40
2.6718920841
100
AcDbArc
 50
194.5922905367
 51
210.1375431097
  0
ARC
  5
358
100
AcDbEntity
  8
0
100
AcDbCircle
 62
7
  6
BYLAYER
 10
20.5487143828
 20
9.7272803038
 40
2.5061675189
100
AcDbArc
 50
329.8926448087
 51
336.8008081405
  0
ARC
  5
359
100
AcDbEntity
  8
0
100
AcDbCircle
 62
7
  6
BYLAYER
 10
20.4474555982
 20
9.7271088534
 40
2.5058002887
100
AcDbArc
 50
203.1993817097
 51
210.1077009502
  0
ARC
  5
35A
100
AcDbEntity
  8
0
100
AcDbCircle
 62
7
  6
BYLAYER
 10
20.4392589042
 20
9.7239566315
 40
2.4970246437
100
AcDbArc
 50
194.5235342776
 51
203.2069906624
  0
ARC
  5
35B
100
AcDbEntity
  8
0
100
AcDbCircle
 62
7
  6
BYLAYER
 10
15.4982480328
 20
15.7993902029
 40
2.3999997344
100
AcDbArc
 50
32.797158824
 51
101.1633928698
  0
ARC
  5
35C
100
AcDbEntity
  8
0
100
AcDbCircle
 62
7
  6
BYLAYER
 10
10.7482483533
 20
47.6029392901
 40
5.000000442
100
AcDbArc
 50
97.4695894226
 51
129.501079457
  0
ARC
  5
35D
100
AcDbEntity
  8
0
100
AcDbCircle
 62
7
  6
BYLAYER
 10
10.7482483533
 20
47.6029392901
 40
5.000000442
100
AcDbArc
 50
169.7744790683
 51
180.0000608294
  0
ARC
  5
35E
100
AcDbEntity
  8
0
100
AcDbCircle
 62
7
  6
BYLAYER
 10
10.7482483533
 20
47.6029392901
 40
5.000000442
100
AcDbArc
 50
129.501079457
 51
169.7744790683
  0
ARC
  5
35F
100
AcDbEntity
  8
0
100
AcDbCircle
 62
7
  6
BYLAYER
 10
10.5855649301
 20
47.7441899057
 40
3.2919136666
100
AcDbArc
 50
95.8856248838
 51
181.6438551745
  0
ARC
  5
360
100
AcDbEntity
  8
0
100
AcDbCircle
 62
7
  6
BYLAYER
 10
10.7798941835
 20
47.5710819015
 40
2.9764807427
100
AcDbArc
 50
97.9027554486
 51
179.4604237314
  0
ARC
  5
361
100
AcDbEntity
  8
0
100
AcDbCircle
 62
7
  6
BYLAYER
 10
9.3732479112
 20
39.4509339801
 40
1.0
100
AcDbArc
 50
135.2903504176
 51
180.0000536062
  0
ARC
  5
362
100
AcDbEntity
  8
0
100
AcDbCircle
 62
7
  6
BYLAYER
 10
8.0103074888
 20
32.6270204697
 40
0.206865827
100
AcDbArc
 50
181.8148401349
 51
265.526000244
  0
ARC
  5
363
100
AcDbEntity
  8
0
100
AcDbCircle
 62
7
  6
BYLAYER
 10
20.4982479112
 20
83.7394157894
 40
80.0000258716
100
AcDbArc
 50
262.5304106408
 51
277.4695893699
  0
ARC
  5
364
100
AcDbEntity
  8
0
100
AcDbCircle
 62
7
  6
BYLAYER
 10
20.4833755765
 20
83.6403102431
 40
78.3551568203
100
AcDbArc
 50
262.4991024996
 51
277.5236227739
  0
ARC
  5
365
100
AcDbEntity
  8
0
100
AcDbCircle
 62
7
  6
BYLAYER
 10
20.5152543662
 20
83.5285643976
 40
77.7338788945
100
AcDbArc
 50
262.501266967
 51
277.4738752748
  0
CIRCLE
  5
366
100
AcDbEntity
  8
0
100
AcDbCircle
 62
7
  6
BYLAYER
 10
20.4982479112
 20
28.4893899178
 40
13.58
  0
ARC
  5
367
100
AcDbEntity
  8
0
100
AcDbCircle
 62
7
  6
BYLAYER
 10
20.5002070591
 20
40.5169818354
 40
12.6324082343
100
AcDbArc
 50
69.1408700939
 51
87.7200478609
  0
ARC
  5
368
100
AcDbEntity
  8
0
100
AcDbCircle
 62
7
  6
BYLAYER
 10
20.4962887634
 20
40.5169818354
 40
12.6324082343
100
AcDbArc
 50
92.2799521391
 51
110.8591299059
  0
ARC
  5
369
100
AcDbEntity
  8
0
100
AcDbCircle
 62
7
  6
BYLAYER
 10
20.4982583521
 20
28.4994062447
 40
11.7000193131
100
AcDbArc
 50
223.1382432266
 51
242.1560587046
  0
ARC
  5
36A
100
AcDbEntity
  8
0
100
AcDbCircle
 62
7
  6
BYLAYER
 10
20.4982392956
 20
28.4994038534
 40
11.7000163462
100
AcDbArc
 50
297.8439388617
 51
316.8617592071
  0
CIRCLE
  5
36B
100
AcDbEntity
  8
0
100
AcDbCircle
 62
7
  6
BYLAYER
 10
20.4982479112
 20
28.4893899178
 40
10.8749996871
  0
CIRCLE
  5
36C
100
AcDbEntity
  8
0
100
AcDbCircle
 62
7
  6
BYLAYER
 10
20.4982479112
 20
28.4893899178
 40
10.575
  0
CIRCLE
  5
36D
100
AcDbEntity
  8
0
100
AcDbCircle
 62
7
  6
BYLAYER
 10
20.4982479112
 20
28.4893899178
 40
10.0999996066
  0
CIRCLE
  5
36E
100
AcDbEntity
  8
0
100
AcDbCircle
 62
7
  6
BYLAYER
 10
20.4982479112
 20
41.6893899178
 40
8.5002134999
  0
CIRCLE
  5
36F
100
AcDbEntity
  8
0
100
AcDbCircle
 62
7
  6
BYLAYER
 10
20.4982479113
 20
41.6893899178
 40
7.0394533329
  0
CIRCLE
  5
370
100
AcDbEntity
  8
0
100
AcDbCircle
 62
7
  6
BYLAYER
 10
20.4982479112
 20
41.6893899178
 40
5.3997566345
  0
CIRCLE
  5
371
100
AcDbEntity
  8
0
100
AcDbCircle
 62
7
  6
BYLAYER
 10
20.4982479112
 20
41.6893899178
 40
5.2511194534
  0
CIRCLE
  5
372
100
AcDbEntity
  8
0
100
AcDbCircle
 62
7
  6
BYLAYER
 10
20.4982479112
 20
41.6893899178
 40
5.0
  0
CIRCLE
  5
373
100
AcDbEntity
  8
0
100
AcDbCircle
 62
7
  6
BYLAYER
 10
20.4982479112
 20
41.6893899178
 40
3.5
  0
ARC
  5
374
100
AcDbEntity
  8
0
100
AcDbCircle
 62
7
  6
BYLAYER
 10
20.4982488269
 20
378.1894478849
 40
345.9947605162
100
AcDbArc
 50
267.9289072004
 51
272.1026795673
  0
ARC
  5
375
100
AcDbEntity
  8
0
100
AcDbCircle
 62
7
  6
BYLAYER
 10
20.4982479919
 20
354.6693951111
 40
322.7050051925
100
AcDbArc
 50
267.7445519975
 51
272.2369891131
  0
ARC
  5
376
100
AcDbEntity
  8
0
100
AcDbCircle
 62
7
  6
BYLAYER
 10
30.248247368
 20
9.3758407245
 40
5.0000006327
100
AcDbArc
 50
277.4695893699
 51
359.9999926671
  0
ARC
  5
377
100
AcDbEntity
  8
0
100
AcDbCircle
 62
7
  6
BYLAYER
 10
28.5482479726
 20
14.1993898564
 40
3.8000000614
100
AcDbArc
 50
89.9999711876
 51
179.9999457021
  0
ARC
  5
378
100
AcDbEntity
  8
0
100
AcDbCircle
 62
7
  6
BYLAYER
 10
30.2797017537
 20
9.3500866122
 40
3.4218528427
100
AcDbArc
 50
277.7780903595
 51
359.6484186074
  0
ARC
  5
379
100
AcDbEntity
  8
0
100
AcDbCircle
 62
7
  6
BYLAYER
 10
30.2224649913
 20
9.398039024
 40
2.970542213
100
AcDbArc
 50
277.8156954387
 51
359.6456517087
  0
ARC
  5
37A
100
AcDbEntity
  8
0
100
AcDbCircle
 62
7
  6
BYLAYER
 10
20.5587336702
 20
10.0745239303
 40
2.6717846258
100
AcDbArc
 50
329.8621527383
 51
345.4711275057
  0
ARC
  5
37B
100
AcDbEntity
  8
0
100
AcDbCircle
 62
7
  6
BYLAYER
 10
20.5659833604
 20
9.7209722701
 40
2.4878101811
100
AcDbArc
 50
336.7776674841
 51
345.3910583974
  0
ARC
  5
37C
100
AcDbEntity
  8
0
100
AcDbCircle
 62
7
  6
BYLAYER
 10
25.4982475292
 20
15.7993939608
 40
2.3999960981
100
AcDbArc
 50
78.8365836609
 51
147.2028919609
  0
ARC
  5
37D
100
AcDbEntity
  8
0
100
AcDbCircle
 62
7
  6
BYLAYER
 10
31.6632481303
 20
18.9993898403
 40
0.999999781
100
AcDbArc
 50
269.9999175462
 51
359.9999484045
  0
ARC
  5
37E
100
AcDbEntity
  8
0
100
AcDbCircle
 62
7
  6
BYLAYER
 10
31.8232472603
 20
21.2993901888
 40
0.800000651
100
AcDbArc
 50
270.0000200919
 51
359.9999814867
  0
ARC
  5
37F
100
AcDbEntity
  8
0
100
AcDbCircle
 62
7
  6
BYLAYER
 10
30.2482474395
 20
47.6029392641
 40
5.0000004717
100
AcDbArc
 50
52.1779730667
 51
82.5304105991
  0
ARC
  5
380
100
AcDbEntity
  8
0
100
AcDbCircle
 62
7
  6
BYLAYER
 10
30.2482474395
 20
47.6029392641
 40
5.0000004717
100
AcDbArc
 50
359.9999865169
 51
10.498891737
  0
ARC
  5
381
100
AcDbEntity
  8
0
100
AcDbCircle
 62
7
  6
BYLAYER
 10
30.2482474395
 20
47.6029392641
 40
5.0000004717
100
AcDbArc
 50
10.498891737
 51
52.1779730667
  0
ARC
  5
382
100
AcDbEntity
  8
0
100
AcDbCircle
 62
7
  6
BYLAYER
 10
30.3273727036
 20
47.6797185744
 40
3.3742501065
100
AcDbArc
 50
359.4912173219
 51
82.9468147561
  0
ARC
  5
383
100
AcDbEntity
  8
0
100
AcDbCircle
 62
7
  6
BYLAYER
 10
30.2224649913
 20
47.5807408116
 40
2.970542213
100
AcDbArc
 50
0.3543482914
 51
82.1843045605
  0
ARC
  5
384
100
AcDbEntity
  8
0
100
AcDbCircle
 62
7
  6
BYLAYER
 10
31.6232479337
 20
37.7893899223
 40
0.9999999776
100
AcDbArc
 50
359.9999998676
 51
44.9999942691
  0
ARC
  5
385
100
AcDbEntity
  8
0
100
AcDbCircle
 62
7
  6
BYLAYER
 10
27.4281109021
 20
48.149696454
 40
0.65
100
AcDbArc
 50
290.224654894
 51
83.8055288271
  0
ARC
  5
386
100
AcDbEntity
  8
0
100
AcDbCircle
 62
7
  6
BYLAYER
 10
27.8256677237
 20
47.0706017818
 40
0.4999985817
100
AcDbArc
 50
110.2246550713
 51
149.9999924492
  0
ARC
  5
387
100
AcDbEntity
  8
0
100
AcDbCircle
 62
7
  6
BYLAYER
 10
29.8630807252
 20
49.4893916462
 40
0.2999974789
100
AcDbArc
 50
90.000000058
 51
172.8749801148
  0
ARC
  5
388
100
AcDbEntity
  8
0
100
AcDbCircle
 62
7
  6
BYLAYER
 10
33.1019787446
 20
32.1142701793
 40
0.0963464382
100
AcDbArc
 50
358.113995903
 51
94.534026639
  0
SPLINE
  5
389
100
AcDbEntity
  8
0
100
AcDbSpline
 62
7
  6
BYLAYER
 70
0
 71
3
 72
11
 73
7
 74
0
 42
0.0000001
 43
0.0000001
 44
0.0000000001
 40
0.0
 40
0.0
 40
0.0
 40
0.0
 40
0.2489906473
 40
0.4987518223
 40
0.7491827989
 40
1.0
 40
1.0
 40
1.0
 40
1.0
 10
22.716765524
 20
8.4701330025
 30
0.0
 10
22.6056193157
 20
8.2785996737
 30
0.0
 10
22.3306098723
 20
7.9228283577
 30
0.0
 10
21.7940211433
 20
7.5154856471
 30
0.0
 10
21.1692562979
 20
7.2593190949
 30
0.0
 10
20.7213187768
 20
7.2011524186
 30
0.0
 10
20.4982479112
 20
7.2011524186
 30
0.0
  0
SPLINE
  5
38A
100
AcDbEntity
  8
0
100
AcDbSpline
 62
7
  6
BYLAYER
 70
0
 71
3
 72
11
 73
7
 74
0
 42
0.0000001
 43
0.0000001
 44
0.0000000001
 40
0.0
 40
0.0
 40
0.0
 40
0.0
 40
0.2508173318
 40
0.5012483243
 40
0.7510093785
 40
1.0
 40
1.0
 40
1.0
 40
1.0
 10
20.4982479112
 20
7.2011524186
 30
0.0
 10
20.2751769297
 20
7.2011524186
 30
0.0
 10
19.8272392791
 20
7.2593191633
 30
0.0
 10
19.2024744419
 20
7.5154857918
 30
0.0
 10
18.66588585
 20
7.9228284781
 30
0.0
 10
18.3908764954
 20
8.2785996934
 30
0.0
 10
18.2797302988
 20
8.4701330021
 30
0.0
  0
SPLINE
  5
38B
100
AcDbEntity
  8
0
100
AcDbSpline
 62
7
  6
BYLAYER
 70
0
 71
3
 72
15
 73
11
 74
0
 42
0.0000001
 43
0.0000001
 44
0.0000000001
 40
0.0
 40
0.0
 40
0.0
 40
0.0
 40
0.1260445768
 40
0.2519388339
 40
0.3774578138
 40
0.5025668577
 40
0.6272561101
 40
0.7516023999
 40
0.8758100511
 40
1.0
 40
1.0
 40
1.0
 40
1.0
 10
20.4982479112
 20
12.2351296461
 30
0.0
 10
20.6917399692
 20
12.2351296461
 30
0.0
 10
21.0798834592
 20
12.1914761694
 30
0.0
 10
21.6312405002
 20
11.9985788544
 30
0.0
 10
22.1245258978
 20
11.687831835
 30
0.0
 10
22.534005337
 20
11.275451421
 30
0.0
 10
22.8383734284
 20
10.7824357269
 30
0.0
 10
23.021979483
 20
10.2342399936
 30
0.0
 10
23.0749921496
 20
9.6595786799
 30
0.0
 10
23.0214134706
 20
9.2779859366
 30
0.0
 10
22.9733621922
 20
9.0934958502
 30
0.0
  0
SPLINE
  5
38C
100
AcDbEntity
  8
0
100
AcDbSpline
 62
7
  6
BYLAYER
 70
0
 71
3
 72
15
 73
11
 74
0
 42
0.0000001
 43
0.0000001
 44
0.0000000001
 40
0.0
 40
0.0
 40
0.0
 40
0.0
 40
0.1241884319
 40
0.248395847
 40
0.3727428434
 40
0.4974330818
 40
0.6225428954
 40
0.7480621437
 40
0.8739560512
 40
1.0
 40
1.0
 40
1.0
 40
1.0
 10
18.0220273947
 20
9.0977586589
 30
0.0
 10
17.9743490342
 20
9.2821560116
 30
0.0
 10
17.9214575781
 20
9.6634646544
 30
0.0
 10
17.9752473215
 20
10.2374918756
 30
0.0
 10
18.159342764
 20
10.7849357332
 30
0.0
 10
18.4639060295
 20
11.2771764615
 30
0.0
 10
18.8733064115
 20
11.6888476521
 30
0.0
 10
19.3662841081
 20
11.9990275773
 30
0.0
 10
19.9171700065
 20
12.1915602007
 30
0.0
 10
20.3049406278
 20
12.2351296461
 30
0.0
 10
20.4982479112
 20
12.2351296461
 30
0.0
  0
SPLINE
  5
38D
100
AcDbEntity
  8
0
100
AcDbSpline
 62
7
  6
BYLAYER
 70
0
 71
3
 72
33
 73
29
 74
0
 42
0.0000001
 43
0.0000001
 44
0.0000000001
 40
0.0
 40
0.0
 40
0.0
 40
0.0
 40
0.083179154
 40
0.1292677991
 40
0.1598574515
 40
0.1807090206
 40
0.1952959667
 40
0.2160417616
 40
0.2450517708
 40
0.2680207017
 40
0.2885380692
 40
0.3069771614
 40
0.3291461549
 40
0.3497714724
 40
0.3834154044
 40
0.4194699562
 40
0.4552655137
 40
0.4912066383
 40
0.508309516
 40
0.5202010108
 40
0.5348701131
 40
0.5535408929
 40
0.5780837127
 40
0.6111121071
 40
0.657287802
 40
0.7250434917
 40
0.8288237265
 40
1.0
 40
1.0
 40
1.0
 40
1.0
 10
20.8091412646
 20
12.57968394
 30
0.0
 10
20.8307850943
 20
12.57968394
 30
0.0
 10
20.8644249694
 20
12.5798546298
 30
0.0
 10
20.9060050485
 20
12.5810622615
 30
0.0
 10
20.9313560031
 20
12.5823376471
 30
0.0
 10
20.948479866
 20
12.5837122201
 30
0.0
 10
20.9630554675
 20
12.5849474041
 30
0.0
 10
20.9796020679
 20
12.5873590532
 30
0.0
 10
20.9983640883
 20
12.5908390388
 30
0.0
 10
21.0161420436
 20
12.5957419509
 30
0.0
 10
21.0303571371
 20
12.6086326803
 30
0.0
 10
21.0223509263
 20
12.6255450963
 30
0.0
 10
21.0091700678
 20
12.6341579972
 30
0.0
 10
20.9924372466
 20
12.6450791552
 30
0.0
 10
20.9707313933
 20
12.6542672198
 30
0.0
 10
20.9452871988
 20
12.6645441973
 30
0.0
 10
20.9185770155
 20
12.6731751064
 30
0.0
 10
20.8963792959
 20
12.6796298314
 30
0.0
 10
20.8800312427
 20
12.6839047038
 30
0.0
 10
20.8690167433
 20
12.6866915086
 30
0.0
 10
20.8575739897
 20
12.6894471182
 30
0.0
 10
20.8428886508
 20
12.6927938638
 30
0.0
 10
20.8234856482
 20
12.6969331341
 30
0.0
 10
20.7969805997
 20
12.702066119
 30
0.0
 10
20.759281729
 20
12.7085017488
 30
0.0
 10
20.7031553958
 20
12.7162737017
 30
0.0
 10
20.61437554
 20
12.7249719101
 30
0.0
 10
20.5427892409
 20
12.7274866143
 30
0.0
 10
20.4982479112
 20
12.7274866143
 30
0.0
  0
SPLINE
  5
38E
100
AcDbEntity
  8
0
100
AcDbSpline
 62
7
  6
BYLAYER
 70
0
 71
3
 72
18
 73
14
 74
0
 42
0.0000001
 43
0.0000001
 44
0.0000000001
 40
0.0
 40
0.0
 40
0.0
 40
0.0
 40
0.0918039648
 40
0.1833565923
 40
0.2739616712
 40
0.3639705497
 40
0.4539367971
 40
0.5435739074
 40
0.6334727559
 40
0.7238971662
 40
0.8153787147
 40
0.907831358
 40
1.0
 40
1.0
 40
1.0
 40
1.0
 10
30.4982479112
 20
22.1896996722
 30
0.0
 10
30.7159898409
 20
22.1896996722
 30
0.0
 10
31.1533612555
 20
22.1278322368
 30
0.0
 10
31.7533828974
 20
21.8573966526
 30
0.0
 10
32.2511466248
 20
21.4326999759
 30
0.0
 10
32.6074813956
 20
20.8884498804
 30
0.0
 10
32.7945225354
 20
20.2676088467
 30
0.0
 10
32.7971327256
 20
19.6194903119
 30
0.0
 10
32.6149255041
 20
18.996359421
 30
0.0
 10
32.2610522337
 20
18.446892545
 30
0.0
 10
31.7614418176
 20
18.015974545
 30
0.0
 10
31.1572549843
 20
17.7418241123
 30
0.0
 10
30.7168547875
 20
17.6792801634
 30
0.0
 10
30.4982479112
 20
17.6792801634
 30
0.0
  0
SPLINE
  5
38F
100
AcDbEntity
  8
0
100
AcDbSpline
 62
7
  6
BYLAYER
 70
0
 71
3
 72
18
 73
14
 74
0
 42
0.0000001
 43
0.0000001
 44
0.0000000001
 40
0.0
 40
0.0
 40
0.0
 40
0.0
 40
0.0918039648
 40
0.1833565923
 40
0.2739616712
 40
0.3639705497
 40
0.4539367971
 40
0.5435739074
 40
0.6334727559
 40
0.7238971662
 40
0.8153787147
 40
0.907831358
 40
1.0
 40
1.0
 40
1.0
 40
1.0
 10
30.4982479112
 20
17.6792801634
 30
0.0
 10
30.2805059816
 20
17.6792801634
 30
0.0
 10
29.843134567
 20
17.7411475988
 30
0.0
 10
29.2431129251
 20
18.011583183
 30
0.0
 10
28.7453491977
 20
18.4362798597
 30
0.0
 10
28.3890144269
 20
18.9805299552
 30
0.0
 10
28.2019732871
 20
19.6013709889
 30
0.0
 10
28.1993630969
 20
20.2494895237
 30
0.0
 10
28.3815703184
 20
20.8726204146
 30
0.0
 10
28.7354435888
 20
21.4220872906
 30
0.0
 10
29.2350540049
 20
21.8530052906
 30
0.0
 10
29.8392408382
 20
22.1271557233
 30
0.0
 10
30.279641035
 20
22.1896996722
 30
0.0
 10
30.4982479112
 20
22.1896996722
 30
0.0
  0
SPLINE
  5
390
100
AcDbEntity
  8
0
100
AcDbSpline
 62
7
  6
BYLAYER
 70
0
 71
3
 72
18
 73
14
 74
0
 42
0.0000001
 43
0.0000001
 44
0.0000000001
 40
0.0
 40
0.0
 40
0.0
 40
0.0
 40
0.0918039648
 40
0.1833565923
 40
0.2739616712
 40
0.3639705497
 40
0.4539367971
 40
0.5435739074
 40
0.6334727559
 40
0.7238971662
 40
0.8153787147
 40
0.907831358
 40
1.0
 40
1.0
 40
1.0
 40
1.0
 10
30.4982479112
 20
39.9661996722
 30
0.0
 10
30.7159898409
 20
39.9661996722
 30
0.0
 10
31.1533612555
 20
39.9043322368
 30
0.0
 10
31.7533828974
 20
39.6338966526
 30
0.0
 10
32.2511466248
 20
39.2091999759
 30
0.0
 10
32.6074813956
 20
38.6649498804
 30
0.0
 10
32.7945225354
 20
38.0441088467
 30
0.0
 10
32.7971327256
 20
37.3959903119
 30
0.0
 10
32.6149255041
 20
36.772859421
 30
0.0
 10
32.2610522337
 20
36.223392545
 30
0.0
 10
31.7614418176
 20
35.792474545
 30
0.0
 10
31.1572549843
 20
35.5183241123
 30
0.0
 10
30.7168547875
 20
35.4557801634
 30
0.0
 10
30.4982479112
 20
35.4557801634
 30
0.0
  0
SPLINE
  5
391
100
AcDbEntity
  8
0
100
AcDbSpline
 62
7
  6
BYLAYER
 70
0
 71
3
 72
18
 73
14
 74
0
 42
0.0000001
 43
0.0000001
 44
0.0000000001
 40
0.0
 40
0.0
 40
0.0
 40
0.0
 40
0.0918039648
 40
0.1833565923
 40
0.2739616712
 40
0.3639705497
 40
0.4539367971
 40
0.5435739074
 40
0.6334727559
 40
0.7238971662
 40
0.8153787147
 40
0.907831358
 40
1.0
 40
1.0
 40
1.0
 40
1.0
 10
30.4982479112
 20
35.4557801634
 30
0.0
 10
30.2805059816
 20
35.4557801634
 30
0.0
 10
29.843134567
 20
35.5176475988
 30
0.0
 10
29.2431129251
 20
35.788083183
 30
0.0
 10
28.7453491977
 20
36.2127798597
 30
0.0
 10
28.3890144269
 20
36.7570299552
 30
0.0
 10
28.2019732871
 20
37.3778709889
 30
0.0
 10
28.1993630969
 20
38.0259895237
 30
0.0
 10
28.3815703184
 20
38.6491204146
 30
0.0
 10
28.7354435888
 20
39.1985872906
 30
0.0
 10
29.2350540049
 20
39.6295052906
 30
0.0
 10
29.8392408382
 20
39.9036557233
 30
0.0
 10
30.279641035
 20
39.9661996722
 30
0.0
 10
30.4982479112
 20
39.9661996722
 30
0.0
  0
SPLINE
  5
392
100
AcDbEntity
  8
0
100
AcDbSpline
 62
7
  6
BYLAYER
 70
0
 71
3
 72
18
 73
14
 74
0
 42
0.0000001
 43
0.0000001
 44
0.0000000001
 40
0.0
 40
0.0
 40
0.0
 40
0.0
 40
0.0918039648
 40
0.1833565923
 40
0.2739616712
 40
0.3639705497
 40
0.4539367971
 40
0.5435739074
 40
0.6334727559
 40
0.7238971662
 40
0.8153787147
 40
0.907831358
 40
1.0
 40
1.0
 40
1.0
 40
1.0
 10
20.2982479112
 20
22.1896996722
 30
0.0
 10
20.5159898409
 20
22.1896996722
 30
0.0
 10
20.9533612555
 20
22.1278322368
 30
0.0
 10
21.5533828974
 20
21.8573966526
 30
0.0
 10
22.0511466248
 20
21.4326999759
 30
0.0
 10
22.4074813956
 20
20.8884498804
 30
0.0
 10
22.5945225354
 20
20.2676088467
 30
0.0
 10
22.5971327256
 20
19.6194903119
 30
0.0
 10
22.4149255041
 20
18.996359421
 30
0.0
 10
22.0610522337
 20
18.446892545
 30
0.0
 10
21.5614418176
 20
18.015974545
 30
0.0
 10
20.9572549843
 20
17.7418241123
 30
0.0
 10
20.5168547875
 20
17.6792801634
 30
0.0
 10
20.2982479112
 20
17.6792801634
 30
0.0
  0
SPLINE
  5
393
100
AcDbEntity
  8
0
100
AcDbSpline
 62
7
  6
BYLAYER
 70
0
 71
3
 72
18
 73
14
 74
0
 42
0.0000001
 43
0.0000001
 44
0.0000000001
 40
0.0
 40
0.0
 40
0.0
 40
0.0
 40
0.0918039648
 40
0.1833565923
 40
0.2739616712
 40
0.3639705497
 40
0.4539367971
 40
0.5435739074
 40
0.6334727559
 40
0.7238971662
 40
0.8153787147
 40
0.907831358
 40
1.0
 40
1.0
 40
1.0
 40
1.0
 10
20.2982479112
 20
17.6792801634
 30
0.0
 10
20.0805059816
 20
17.6792801634
 30
0.0
 10
19.643134567
 20
17.7411475988
 30
0.0
 10
19.0431129251
 20
18.011583183
 30
0.0
 10
18.5453491977
 20
18.4362798597
 30
0.0
 10
18.1890144269
 20
18.9805299552
 30
0.0
 10
18.0019732871
 20
19.6013709889
 30
0.0
 10
17.9993630969
 20
20.2494895237
 30
0.0
 10
18.1815703184
 20
20.8726204146
 30
0.0
 10
18.5354435888
 20
21.4220872906
 30
0.0
 10
19.0350540049
 20
21.8530052906
 30
0.0
 10
19.6392408382
 20
22.1271557233
 30
0.0
 10
20.079641035
 20
22.1896996722
 30
0.0
 10
20.2982479112
 20
22.1896996722
 30
0.0
  0
SPLINE
  5
394
100
AcDbEntity
  8
0
100
AcDbSpline
 62
7
  6
BYLAYER
 70
0
 71
3
 72
18
 73
14
 74
0
 42
0.0000001
 43
0.0000001
 44
0.0000000001
 40
0.0
 40
0.0
 40
0.0
 40
0.0
 40
0.0918039648
 40
0.1833565923
 40
0.2739616712
 40
0.3639705497
 40
0.4539367971
 40
0.5435739074
 40
0.6334727559
 40
0.7238971662
 40
0.8153787147
 40
0.907831358
 40
1.0
 40
1.0
 40
1.0
 40
1.0
 10
10.4982479112
 20
22.1896996722
 30
0.0
 10
10.7159898409
 20
22.1896996722
 30
0.0
 10
11.1533612555
 20
22.1278322368
 30
0.0
 10
11.7533828974
 20
21.8573966526
 30
0.0
 10
12.2511466248
 20
21.4326999759
 30
0.0
 10
12.6074813956
 20
20.8884498804
 30
0.0
 10
12.7945225354
 20
20.2676088467
 30
0.0
 10
12.7971327256
 20
19.6194903119
 30
0.0
 10
12.6149255041
 20
18.996359421
 30
0.0
 10
12.2610522337
 20
18.446892545
 30
0.0
 10
11.7614418176
 20
18.015974545
 30
0.0
 10
11.1572549843
 20
17.7418241123
 30
0.0
 10
10.7168547875
 20
17.6792801634
 30
0.0
 10
10.4982479112
 20
17.6792801634
 30
0.0
  0
SPLINE
  5
395
100
AcDbEntity
  8
0
100
AcDbSpline
 62
7
  6
BYLAYER
 70
0
 71
3
 72
18
 73
14
 74
0
 42
0.0000001
 43
0.0000001
 44
0.0000000001
 40
0.0
 40
0.0
 40
0.0
 40
0.0
 40
0.0918039648
 40
0.1833565923
 40
0.2739616712
 40
0.3639705497
 40
0.4539367971
 40
0.5435739074
 40
0.6334727559
 40
0.7238971662
 40
0.8153787147
 40
0.907831358
 40
1.0
 40
1.0
 40
1.0
 40
1.0
 10
10.4982479112
 20
17.6792801634
 30
0.0
 10
10.2805059816
 20
17.6792801634
 30
0.0
 10
9.843134567
 20
17.7411475988
 30
0.0
 10
9.2431129251
 20
18.011583183
 30
0.0
 10
8.7453491977
 20
18.4362798597
 30
0.0
 10
8.3890144269
 20
18.9805299552
 30
0.0
 10
8.2019732871
 20
19.6013709889
 30
0.0
 10
8.1993630969
 20
20.2494895237
 30
0.0
 10
8.3815703184
 20
20.8726204146
 30
0.0
 10
8.7354435888
 20
21.4220872906
 30
0.0
 10
9.2350540049
 20
21.8530052906
 30
0.0
 10
9.8392408382
 20
22.1271557233
 30
0.0
 10
10.279641035
 20
22.1896996722
 30
0.0
 10
10.4982479112
 20
22.1896996722
 30
0.0
  0
SPLINE
  5
396
100
AcDbEntity
  8
0
100
AcDbSpline
 62
7
  6
BYLAYER
 70
0
 71
3
 72
18
 73
14
 74
0
 42
0.0000001
 43
0.0000001
 44
0.0000000001
 40
0.0
 40
0.0
 40
0.0
 40
0.0
 40
0.0918039648
 40
0.1833565923
 40
0.2739616712
 40
0.3639705497
 40
0.4539367971
 40
0.5435739074
 40
0.6334727559
 40
0.7238971662
 40
0.8153787147
 40
0.907831358
 40
1.0
 40
1.0
 40
1.0
 40
1.0
 10
20.2982479112
 20
39.9661996722
 30
0.0
 10
20.5159898409
 20
39.9661996722
 30
0.0
 10
20.9533612555
 20
39.9043322368
 30
0.0
 10
21.5533828974
 20
39.6338966526
 30
0.0
 10
22.0511466248
 20
39.2091999759
 30
0.0
 10
22.4074813956
 20
38.6649498804
 30
0.0
 10
22.5945225354
 20
38.0441088467
 30
0.0
 10
22.5971327256
 20
37.3959903119
 30
0.0
 10
22.4149255041
 20
36.772859421
 30
0.0
 10
22.0610522337
 20
36.223392545
 30
0.0
 10
21.5614418176
 20
35.792474545
 30
0.0
 10
20.9572549843
 20
35.5183241123
 30
0.0
 10
20.5168547875
 20
35.4557801634
 30
0.0
 10
20.2982479112
 20
35.4557801634
 30
0.0
  0
SPLINE
  5
397
100
AcDbEntity
  8
0
100
AcDbSpline
 62
7
  6
BYLAYER
 70
0
 71
3
 72
18
 73
14
 74
0
 42
0.0000001
 43
0.0000001
 44
0.0000000001
 40
0.0
 40
0.0
 40
0.0
 40
0.0
 40
0.0918039648
 40
0.1833565923
 40
0.2739616712
 40
0.3639705497
 40
0.4539367971
 40
0.5435739074
 40
0.6334727559
 40
0.7238971662
 40
0.8153787147
 40
0.907831358
 40
1.0
 40
1.0
 40
1.0
 40
1.0
 10
20.2982479112
 20
35.4557801634
 30
0.0
 10
20.0805059816
 20
35.4557801634
 30
0.0
 10
19.643134567
 20
35.5176475988
 30
0.0
 10
19.0431129251
 20
35.788083183
 30
0.0
 10
18.5453491977
 20
36.2127798597
 30
0.0
 10
18.1890144269
 20
36.7570299552
 30
0.0
 10
18.0019732871
 20
37.3778709889
 30
0.0
 10
17.9993630969
 20
38.0259895237
 30
0.0
 10
18.1815703184
 20
38.6491204146
 30
0.0
 10
18.5354435888
 20
39.1985872906
 30
0.0
 10
19.0350540049
 20
39.6295052906
 30
0.0
 10
19.6392408382
 20
39.9036557233
 30
0.0
 10
20.079641035
 20
39.9661996722
 30
0.0
 10
20.2982479112
 20
39.9661996722
 30
0.0
  0
SPLINE
  5
398
100
AcDbEntity
  8
0
100
AcDbSpline
 62
7
  6
BYLAYER
 70
0
 71
3
 72
18
 73
14
 74
0
 42
0.0000001
 43
0.0000001
 44
0.0000000001
 40
0.0
 40
0.0
 40
0.0
 40
0.0
 40
0.0918039648
 40
0.1833565923
 40
0.2739616712
 40
0.3639705497
 40
0.4539367971
 40
0.5435739074
 40
0.6334727559
 40
0.7238971662
 40
0.8153787147
 40
0.907831358
 40
1.0
 40
1.0
 40
1.0
 40
1.0
 10
10.4982479112
 20
39.9661996722
 30
0.0
 10
10.7159898409
 20
39.9661996722
 30
0.0
 10
11.1533612555
 20
39.9043322368
 30
0.0
 10
11.7533828974
 20
39.6338966526
 30
0.0
 10
12.2511466248
 20
39.2091999759
 30
0.0
 10
12.6074813956
 20
38.6649498804
 30
0.0
 10
12.7945225354
 20
38.0441088467
 30
0.0
 10
12.7971327256
 20
37.3959903119
 30
0.0
 10
12.6149255041
 20
36.772859421
 30
0.0
 10
12.2610522337
 20
36.223392545
 30
0.0
 10
11.7614418176
 20
35.792474545
 30
0.0
 10
11.1572549843
 20
35.5183241123
 30
0.0
 10
10.7168547875
 20
35.4557801634
 30
0.0
 10
10.4982479112
 20
35.4557801634
 30
0.0
  0
SPLINE
  5
399
100
AcDbEntity
  8
0
100
AcDbSpline
 62
7
  6
BYLAYER
 70
0
 71
3
 72
18
 73
14
 74
0
 42
0.0000001
 43
0.0000001
 44
0.0000000001
 40
0.0
 40
0.0
 40
0.0
 40
0.0
 40
0.0918039648
 40
0.1833565923
 40
0.2739616712
 40
0.3639705497
 40
0.4539367971
 40
0.5435739074
 40
0.6334727559
 40
0.7238971662
 40
0.8153787147
 40
0.907831358
 40
1.0
 40
1.0
 40
1.0
 40
1.0
 10
10.4982479112
 20
35.4557801634
 30
0.0
 10
10.2805059816
 20
35.4557801634
 30
0.0
 10
9.843134567
 20
35.5176475988
 30
0.0
 10
9.2431129251
 20
35.788083183
 30
0.0
 10
8.7453491977
 20
36.2127798597
 30
0.0
 10
8.3890144269
 20
36.7570299552
 30
0.0
 10
8.2019732871
 20
37.3778709889
 30
0.0
 10
8.1993630969
 20
38.0259895237
 30
0.0
 10
8.3815703184
 20
38.6491204146
 30
0.0
 10
8.7354435888
 20
39.1985872906
 30
0.0
 10
9.2350540049
 20
39.6295052906
 30
0.0
 10
9.8392408382
 20
39.9036557233
 30
0.0
 10
10.279641035
 20
39.9661996722
 30
0.0
 10
10.4982479112
 20
39.9661996722
 30
0.0
  0
SPLINE
  5
39A
100
AcDbEntity
  8
0
100
AcDbSpline
 62
7
  6
BYLAYER
 70
0
 71
3
 72
18
 73
14
 74
0
 42
0.0000001
 43
0.0000001
 44
0.0000000001
 40
0.0
 40
0.0
 40
0.0
 40
0.0
 40
0.0915756153
 40
0.1829405613
 40
0.2739499542
 40
0.3645708649
 40
0.4548940364
 40
0.5451059636
 40
0.6354291351
 40
0.7260500458
 40
0.8170594387
 40
0.9084243847
 40
1.0
 40
1.0
 40
1.0
 40
1.0
 10
20.4982479112
 20
11.2564045599
 30
0.0
 10
20.3080783888
 20
11.2564045599
 30
0.0
 10
19.9260167228
 20
11.3103042471
 30
0.0
 10
19.4004830007
 20
11.5465235185
 30
0.0
 10
18.9630333373
 20
11.9192525784
 30
0.0
 10
18.6498546993
 20
12.3985792165
 30
0.0
 10
18.4864974557
 20
12.9457304179
 30
0.0
 10
18.4864974557
 20
13.5161602524
 30
0.0
 10
18.6498546993
 20
14.0633114538
 30
0.0
 10
18.9630333373
 20
14.5426380919
 30
0.0
 10
19.4004830007
 20
14.9153671517
 30
0.0
 10
19.9260167228
 20
15.1515864232
 30
0.0
 10
20.3080783888
 20
15.2054861104
 30
0.0
 10
20.4982479112
 20
15.2054861104
 30
0.0
  0
SPLINE
  5
39B
100
AcDbEntity
  8
0
100
AcDbSpline
 62
7
  6
BYLAYER
 70
0
 71
3
 72
18
 73
14
 74
0
 42
0.0000001
 43
0.0000001
 44
0.0000000001
 40
0.0
 40
0.0
 40
0.0
 40
0.0
 40
0.0915756153
 40
0.1829405613
 40
0.2739499542
 40
0.3645708649
 40
0.4548940364
 40
0.5451059636
 40
0.6354291351
 40
0.7260500458
 40
0.8170594387
 40
0.9084243847
 40
1.0
 40
1.0
 40
1.0
 40
1.0
 10
20.4982479112
 20
11.2564045599
 30
0.0
 10
20.6884174337
 20
11.2564045599
 30
0.0
 10
21.0704790997
 20
11.3103042471
 30
0.0
 10
21.5960128217
 20
11.5465235185
 30
0.0
 10
22.0334624852
 20
11.9192525784
 30
0.0
 10
22.3466411232
 20
12.3985792165
 30
0.0
 10
22.5099983668
 20
12.9457304179
 30
0.0
 10
22.5099983668
 20
13.5161602524
 30
0.0
 10
22.3466411232
 20
14.0633114538
 30
0.0
 10
22.0334624852
 20
14.5426380919
 30
0.0
 10
21.5960128217
 20
14.9153671517
 30
0.0
 10
21.0704790997
 20
15.1515864232
 30
0.0
 10
20.6884174337
 20
15.2054861104
 30
0.0
 10
20.4982479112
 20
15.2054861104
 30
0.0
  0
SPLINE
  5
39C
100
AcDbEntity
  8
0
100
AcDbSpline
 62
7
  6
BYLAYER
 70
0
 71
3
 72
18
 73
14
 74
0
 42
0.0000001
 43
0.0000001
 44
0.0000000001
 40
0.0
 40
0.0
 40
0.0
 40
0.0
 40
0.0915756153
 40
0.1829405613
 40
0.2739499542
 40
0.3645708649
 40
0.4548940364
 40
0.5451059636
 40
0.6354291351
 40
0.7260500458
 40
0.8170594387
 40
0.9084243847
 40
1.0
 40
1.0
 40
1.0
 40
1.0
 10
20.4982479112
 20
11.434978213
 30
0.0
 10
20.308552761
 20
11.434978213
 30
0.0
 10
19.9274441365
 20
11.488743449
 30
0.0
 10
19.4032213426
 20
11.7243734785
 30
0.0
 10
18.9668628844
 20
12.0961727768
 30
0.0
 10
18.6544654611
 20
12.5743037489
 30
0.0
 10
18.4915157072
 20
13.120090098
 30
0.0
 10
18.4915157072
 20
13.6890970122
 30
0.0
 10
18.6544654611
 20
14.2348833612
 30
0.0
 10
18.9668628844
 20
14.7130143333
 30
0.0
 10
19.4032213426
 20
15.0848136317
 30
0.0
 10
19.9274441365
 20
15.3204436612
 30
0.0
 10
20.308552761
 20
15.3742088972
 30
0.0
 10
20.4982479112
 20
15.3742088972
 30
0.0
  0
SPLINE
  5
39D
100
AcDbEntity
  8
0
100
AcDbSpline
 62
7
  6
BYLAYER
 70
0
 71
3
 72
18
 73
14
 74
0
 42
0.0000001
 43
0.0000001
 44
0.0000000001
 40
0.0
 40
0.0
 40
0.0
 40
0.0
 40
0.0915756153
 40
0.1829405613
 40
0.2739499542
 40
0.3645708649
 40
0.4548940364
 40
0.5451059636
 40
0.6354291351
 40
0.7260500458
 40
0.8170594387
 40
0.9084243847
 40
1.0
 40
1.0
 40
1.0
 40
1.0
 10
20.4982479112
 20
12.0157882234
 30
0.0
 10
20.3464917805
 20
12.0157882234
 30
0.0
 10
20.0416048596
 20
12.0588004152
 30
0.0
 10
19.6222265953
 20
12.247304452
 30
0.0
 10
19.2731398044
 20
12.5447439114
 30
0.0
 10
19.0232218484
 20
12.9272487157
 30
0.0
 10
18.8928620362
 20
13.3638778253
 30
0.0
 10
18.8928620362
 20
13.8190833884
 30
0.0
 10
19.0232218484
 20
14.2557124981
 30
0.0
 10
19.2731398044
 20
14.6382173024
 30
0.0
 10
19.6222265953
 20
14.9356567617
 30
0.0
 10
20.0416048596
 20
15.1241607985
 30
0.0
 10
20.3464917805
 20
15.1671729903
 30
0.0
 10
20.4982479112
 20
15.1671729903
 30
0.0
  0
SPLINE
  5
39E
100
AcDbEntity
  8
0
100
AcDbSpline
 62
7
  6
BYLAYER
 70
0
 71
3
 72
18
 73
14
 74
0
 42
0.0000001
 43
0.0000001
 44
0.0000000001
 40
0.0
 40
0.0
 40
0.0
 40
0.0
 40
0.0915756153
 40
0.1829405613
 40
0.2739499542
 40
0.3645708649
 40
0.4548940364
 40
0.5451059636
 40
0.6354291351
 40
0.7260500458
 40
0.8170594387
 40
0.9084243847
 40
1.0
 40
1.0
 40
1.0
 40
1.0
 10
20.4982479112
 20
11.434978213
 30
0.0
 10
20.6879430615
 20
11.434978213
 30
0.0
 10
21.069051686
 20
11.488743449
 30
0.0
 10
21.5932744799
 20
11.7243734785
 30
0.0
 10
22.0296329381
 20
12.0961727768
 30
0.0
 10
22.3420303614
 20
12.5743037489
 30
0.0
 10
22.5049801153
 20
13.120090098
 30
0.0
 10
22.5049801153
 20
13.6890970122
 30
0.0
 10
22.3420303614
 20
14.2348833612
 30
0.0
 10
22.0296329381
 20
14.7130143333
 30
0.0
 10
21.5932744799
 20
15.0848136316
 30
0.0
 10
21.069051686
 20
15.3204436612
 30
0.0
 10
20.6879430615
 20
15.3742088972
 30
0.0
 10
20.4982479112
 20
15.3742088972
 30
0.0
  0
SPLINE
  5
39F
100
AcDbEntity
  8
0
100
AcDbSpline
 62
7
  6
BYLAYER
 70
0
 71
3
 72
18
 73
14
 74
0
 42
0.0000001
 43
0.0000001
 44
0.0000000001
 40
0.0
 40
0.0
 40
0.0
 40
0.0
 40
0.0915756153
 40
0.1829405613
 40
0.2739499542
 40
0.3645708649
 40
0.4548940364
 40
0.5451059636
 40
0.6354291351
 40
0.7260500458
 40
0.8170594387
 40
0.9084243847
 40
1.0
 40
1.0
 40
1.0
 40
1.0
 10
20.4982479112
 20
12.0157882234
 30
0.0
 10
20.650004042
 20
12.0157882234
 30
0.0
 10
20.9548909629
 20
12.0588004152
 30
0.0
 10
21.3742692272
 20
12.247304452
 30
0.0
 10
21.7233560181
 20
12.5447439113
 30
0.0
 10
21.9732739741
 20
12.9272487157
 30
0.0
 10
22.1036337863
 20
13.3638778253
 30
0.0
 10
22.1036337863
 20
13.8190833884
 30
0.0
 10
21.9732739741
 20
14.2557124981
 30
0.0
 10
21.7233560181
 20
14.6382173024
 30
0.0
 10
21.3742692272
 20
14.9356567618
 30
0.0
 10
20.9548909629
 20
15.1241607985
 30
0.0
 10
20.650004042
 20
15.1671729903
 30
0.0
 10
20.4982479112
 20
15.1671729903
 30
0.0
  0
SPLINE
  5
3A0
100
AcDbEntity
  8
0
100
AcDbSpline
 62
7
  6
BYLAYER
 70
0
 71
3
 72
10
 73
6
 74
0
 42
0.0000001
 43
0.0000001
 44
0.0000000001
 40
0.0
 40
0.0
 40
0.0
 40
0.0
 40
0.3337209128
 40
0.6671062034
 40
1.0
 40
1.0
 40
1.0
 40
1.0
 10
32.2281496101
 20
32.177643613
 30
0.0
 10
32.3328509389
 20
32.177643613
 30
0.0
 10
32.542147639
 20
32.1778530765
 30
0.0
 10
32.8558897916
 20
32.1768630394
 30
0.0
 10
33.064920412
 20
32.1794285419
 30
0.0
 10
33.1693622419
 20
32.1794285419
 30
0.0
  0
LINE
  5
3A1
100
AcDbEntity
  8
0
100
AcDbLine
 62
7
  6
BYLAYER
 10
7.8294689057
 20
32.1775930016
 11
8.7683474146
 21
32.177640227
  0
SPLINE
  5
3A2
100
AcDbEntity
  8
0
100
AcDbSpline
 62
7
  6
BYLAYER
 70
0
 71
3
 72
10
 73
6
 74
0
 42
0.0000001
 43
0.0000001
 44
0.0000000001
 40
0.0
 40
0.0
 40
0.0
 40
0.0
 40
0.3333832049
 40
0.6669820146
 40
1.0
 40
1.0
 40
1.0
 40
1.0
 10
9.2809464593
 20
24.8193729833
 30
0.0
 10
9.1207139951
 20
24.8185226988
 30
0.0
 10
8.8001456433
 20
24.8167833162
 30
0.0
 10
8.3195210935
 20
24.814061803
 30
0.0
 10
7.9991291362
 20
24.8121713721
 30
0.0
 10
7.8390728526
 20
24.8112078117
 30
0.0
  0
SPLINE
  5
3A3
100
AcDbEntity
  8
0
100
AcDbSpline
 62
7
  6
BYLAYER
 70
0
 71
3
 72
10
 73
6
 74
0
 42
0.0000001
 43
0.0000001
 44
0.0000000001
 40
0.0
 40
0.0
 40
0.0
 40
0.0
 40
0.3328017285
 40
0.6661821151
 40
1.0
 40
1.0
 40
1.0
 40
1.0
 10
7.8390728724
 20
32.1675959009
 30
0.0
 10
7.9986339642
 20
32.1666447689
 30
0.0
 10
8.3180338111
 20
32.1647786798
 30
0.0
 10
8.7974827004
 20
32.1620900394
 30
0.0
 10
9.1173705815
 20
32.1603708551
 30
0.0
 10
9.2774194997
 20
32.1595295491
 30
0.0
  0
SPLINE
  5
3A4
100
AcDbEntity
  8
0
100
AcDbSpline
 62
7
  6
BYLAYER
 70
0
 71
3
 72
10
 73
6
 74
0
 42
0.0000001
 43
0.0000001
 44
0.0000000001
 40
0.0
 40
0.0
 40
0.0
 40
0.0
 40
0.3328004714
 40
0.6661809627
 40
1.0
 40
1.0
 40
1.0
 40
1.0
 10
33.1574227046
 20
24.8112078339
 30
0.0
 10
32.9974708149
 20
24.8121707658
 30
0.0
 10
32.6772880314
 20
24.8140599169
 30
0.0
 10
32.1966630356
 20
24.8167815046
 30
0.0
 10
31.8759898439
 20
24.818521562
 30
0.0
 10
31.715547759
 20
24.8193730337
 30
0.0
  0
SPLINE
  5
3A5
100
AcDbEntity
  8
0
100
AcDbSpline
 62
7
  6
BYLAYER
 70
0
 71
3
 72
10
 73
6
 74
0
 42
0.0000001
 43
0.0000001
 44
0.0000000001
 40
0.0
 40
0.0
 40
0.0
 40
0.0
 40
0.3333820787
 40
0.6669807716
 40
1.0
 40
1.0
 40
1.0
 40
1.0
 10
31.7190779434
 20
32.1595296002
 30
0.0
 10
31.8789177096
 20
32.1603697331
 30
0.0
 10
32.1987009007
 20
32.1620882486
 30
0.0
 10
32.678149175
 20
32.1647768145
 30
0.0
 10
32.9977575579
 20
32.1666441677
 30
0.0
 10
33.1574227247
 20
32.16759592
 30
0.0
  0
SPLINE
  5
3A6
100
AcDbEntity
  8
0
100
AcDbSpline
 62
7
  6
BYLAYER
 70
0
 71
3
 72
10
 73
6
 74
0
 42
0.0000001
 43
0.0000001
 44
0.0000000001
 40
0.0
 40
0.0
 40
0.0
 40
0.0
 40
0.2990957279
 40
0.5970607683
 40
1.0
 40
1.0
 40
1.0
 40
1.0
 10
33.1574227247
 20
32.16759592
 30
0.0
 10
33.1585088671
 20
32.1687251775
 30
0.0
 10
33.1607368688
 20
32.1708973159
 30
0.0
 10
33.1640090463
 20
32.1751414016
 30
0.0
 10
33.1678990001
 20
32.1761052826
 30
0.0
 10
33.1693622419
 20
32.1776266087
 30
0.0
  0
SPLINE
  5
3A7
100
AcDbEntity
  8
0
100
AcDbSpline
 62
7
  6
BYLAYER
 70
0
 71
3
 72
18
 73
14
 74
0
 42
0.0000001
 43
0.0000001
 44
0.0000000001
 40
0.0
 40
0.0
 40
0.0
 40
0.0
 40
0.0919417034
 40
0.1833730296
 40
0.2742494631
 40
0.3646370123
 40
0.4547062003
 40
0.544691655
 40
0.6348492089
 40
0.7253870685
 40
0.8164309615
 40
0.9079969942
 40
1.0
 40
1.0
 40
1.0
 40
1.0
 10
20.1873545624
 20
12.5796839468
 30
0.0
 10
19.9574262635
 20
12.5516660299
 30
0.0
 10
19.5040426781
 20
12.43273119
 30
0.0
 10
18.9005249885
 20
12.079765478
 30
0.0
 10
18.4170011757
 20
11.5794648238
 30
0.0
 10
18.0895355048
 20
10.9694946636
 30
0.0
 10
17.9419528978
 20
10.2953142358
 30
0.0
 10
17.9850915851
 20
9.6070915183
 30
0.0
 10
18.2156958181
 20
8.9560071097
 30
0.0
 10
18.6166891588
 20
8.390454187
 30
0.0
 10
19.1587748443
 20
7.9525614203
 30
0.0
 10
19.8015457635
 20
7.675284606
 30
0.0
 10
20.2664644011
 20
7.6120023061
 30
0.0
 10
20.4982479112
 20
7.6120023061
 30
0.0
  0
SPLINE
  5
3A8
100
AcDbEntity
  8
0
100
AcDbSpline
 62
7
  6
BYLAYER
 70
0
 71
3
 72
18
 73
14
 74
0
 42
0.0000001
 43
0.0000001
 44
0.0000000001
 40
0.0
 40
0.0
 40
0.0
 40
0.0
 40
0.0920079008
 40
0.1835778322
 40
0.274624617
 40
0.3651643777
 40
0.4553228669
 40
0.5453083139
 40
0.635376555
 40
0.7257622004
 40
0.8166357482
 40
0.9080631858
 40
1.0
 40
1.0
 40
1.0
 40
1.0
 10
20.4982479112
 20
7.6120023061
 30
0.0
 10
20.7300437532
 20
7.6120023061
 30
0.0
 10
21.1949849362
 20
7.6752910936
 30
0.0
 10
21.8377781816
 20
7.9525931531
 30
0.0
 10
22.379868034
 20
8.390516984
 30
0.0
 10
22.7808481812
 20
8.9560976672
 30
0.0
 10
23.0114265789
 20
9.6071991041
 30
0.0
 10
23.0545341834
 20
10.2954237233
 30
0.0
 10
22.9069237965
 20
10.9695903942
 30
0.0
 10
22.5794415553
 20
11.5795345911
 30
0.0
 10
22.095918011
 20
12.0798038887
 30
0.0
 10
21.4924193582
 20
12.4327418324
 30
0.0
 10
21.0390573326
 20
12.5516675198
 30
0.0
 10
20.8091412603
 20
12.5796839468
 30
0.0
  0
SPLINE
  5
3A9
100
AcDbEntity
  8
0
100
AcDbSpline
 62
7
  6
BYLAYER
 70
0
 71
3
 72
18
 73
14
 74
0
 42
0.0000001
 43
0.0000001
 44
0.0000000001
 40
0.0
 40
0.0
 40
0.0
 40
0.0
 40
0.0918981163
 40
0.1831954324
 40
0.2735076199
 40
0.3634974365
 40
0.4537609248
 40
0.5437097891
 40
0.6338976685
 40
0.7243114192
 40
0.8155057921
 40
0.9077116879
 40
1.0
 40
1.0
 40
1.0
 40
1.0
 10
20.4982479112
 20
8.3326235076
 30
0.0
 10
20.3269217257
 20
8.3326235076
 30
0.0
 10
19.9834304596
 20
8.3812568761
 30
0.0
 10
19.5125960971
 20
8.5934100425
 30
0.0
 10
19.1218772832
 20
8.9261366008
 30
0.0
 10
18.8411775837
 20
9.3534890241
 30
0.0
 10
18.693298241
 20
9.8424426222
 30
0.0
 10
18.6912052424
 20
10.3536280068
 30
0.0
 10
18.8352077615
 20
10.8444083163
 30
0.0
 10
19.1139303017
 20
11.2759102464
 30
0.0
 10
19.506099294
 20
11.6135968513
 30
0.0
 10
19.9802569985
 20
11.8287446035
 30
0.0
 10
20.3261942813
 20
11.8779327501
 30
0.0
 10
20.4982479112
 20
11.8779327501
 30
0.0
  0
SPLINE
  5
3AA
100
AcDbEntity
  8
0
100
AcDbSpline
 62
7
  6
BYLAYER
 70
0
 71
3
 72
18
 73
14
 74
0
 42
0.0000001
 43
0.0000001
 44
0.0000000001
 40
0.0
 40
0.0
 40
0.0
 40
0.0
 40
0.0918981163
 40
0.1831954324
 40
0.2735076199
 40
0.3634974365
 40
0.4537609248
 40
0.5437097891
 40
0.6338976685
 40
0.7243114192
 40
0.8155057921
 40
0.9077116879
 40
1.0
 40
1.0
 40
1.0
 40
1.0
 10
20.4982479112
 20
11.8779327501
 30
0.0
 10
20.6695740968
 20
11.8779327501
 30
0.0
 10
21.0130653629
 20
11.8292993817
 30
0.0
 10
21.4838997254
 20
11.6171462153
 30
0.0
 10
21.8746185393
 20
11.284419657
 30
0.0
 10
22.1553182388
 20
10.8570672336
 30
0.0
 10
22.3031975815
 20
10.3681136355
 30
0.0
 10
22.3052905801
 20
9.8569282509
 30
0.0
 10
22.161288061
 20
9.3661479414
 30
0.0
 10
21.8825655208
 20
8.9346460113
 30
0.0
 10
21.4903965285
 20
8.5969594065
 30
0.0
 10
21.016238824
 20
8.3818116542
 30
0.0
 10
20.6703015412
 20
8.3326235076
 30
0.0
 10
20.4982479112
 20
8.3326235076
 30
0.0
  0
SPLINE
  5
3AB
100
AcDbEntity
  8
0
100
AcDbSpline
 62
7
  6
BYLAYER
 70
0
 71
3
 72
33
 73
29
 74
0
 42
0.0000001
 43
0.0000001
 44
0.0000000001
 40
0.0
 40
0.0
 40
0.0
 40
0.0
 40
0.0845599029
 40
0.1323516475
 40
0.1622513119
 40
0.1822500229
 40
0.1956753095
 40
0.2078388266
 40
0.2365984953
 40
0.2595405411
 40
0.2809382854
 40
0.2988646365
 40
0.3206977852
 40
0.3444934609
 40
0.3732802457
 40
0.414323935
 40
0.4481664841
 40
0.488033758
 40
0.5078504239
 40
0.5196491255
 40
0.534100009
 40
0.5526710838
 40
0.577057703
 40
0.6099020423
 40
0.655836406
 40
0.7234970309
 40
0.8274297694
 40
1.0
 40
1.0
 40
1.0
 40
1.0
 10
20.1873545571
 20
12.57968394
 30
0.0
 10
20.1653488799
 20
12.57968394
 30
0.0
 10
20.1309023063
 20
12.5798557684
 30
0.0
 10
20.0886955035
 20
12.5811311221
 30
0.0
 10
20.0633025805
 20
12.5824518547
 30
0.0
 10
20.0468797453
 20
12.583800866
 30
0.0
 10
20.035061967
 20
12.5849010619
 30
0.0
 10
20.0210358668
 20
12.5865611701
 30
0.0
 10
20.0044638653
 20
12.5893794872
 30
0.0
 10
19.9866302896
 20
12.594294946
 30
0.0
 10
19.9700368444
 20
12.6013515974
 30
0.0
 10
19.9687335849
 20
12.6202853438
 30
0.0
 10
19.9827074515
 20
12.6312966615
 30
0.0
 10
19.9986448804
 20
12.6416551184
 30
0.0
 10
20.0206523049
 20
12.6525345037
 30
0.0
 10
20.0457029131
 20
12.6624751715
 30
0.0
 10
20.0740526988
 20
12.6719151797
 30
0.0
 10
20.0973409666
 20
12.6790133824
 30
0.0
 10
20.1153768687
 20
12.683578208
 30
0.0
 10
20.1269801501
 20
12.6865916536
 30
0.0
 10
20.1383255532
 20
12.6893021433
 30
0.0
 10
20.1528892295
 20
12.6926342166
 30
0.0
 10
20.1721800365
 20
12.6967622169
 30
0.0
 10
20.1985357829
 20
12.7018862097
 30
0.0
 10
20.2361004339
 20
12.7083297085
 30
0.0
 10
20.2921805508
 20
12.7161348085
 30
0.0
 10
20.3813404444
 20
12.7249348884
 30
0.0
 10
20.453338626
 20
12.7274866143
 30
0.0
 10
20.4982479112
 20
12.7274866143
 30
0.0
  0
SPLINE
  5
3AC
100
AcDbEntity
  8
0
100
AcDbSpline
 62
7
  6
BYLAYER
 70
0
 71
3
 72
12
 73
8
 74
0
 42
0.0000001
 43
0.0000001
 44
0.0000000001
 40
0.0
 40
0.0
 40
0.0
 40
0.0
 40
0.1986155812
 40
0.3979175379
 40
0.5980172965
 40
0.7988089474
 40
1.0
 40
1.0
 40
1.0
 40
1.0
 10
17.8526854882
 20
9.4001460009
 30
0.0
 10
17.9122208818
 20
9.1712565148
 30
0.0
 10
18.094110488
 20
8.7265018627
 30
0.0
 10
18.5326931275
 20
8.1553767916
 30
0.0
 10
19.1074591136
 20
7.7165342265
 30
0.0
 10
19.7776778673
 20
7.4407380403
 30
0.0
 10
20.2586755988
 20
7.378033715
 30
0.0
 10
20.4982479112
 20
7.378033715
 30
0.0
  0
SPLINE
  5
3AD
100
AcDbEntity
  8
0
100
AcDbSpline
 62
7
  6
BYLAYER
 70
0
 71
3
 72
12
 73
8
 74
0
 42
0.0000001
 43
0.0000001
 44
0.0000000001
 40
0.0
 40
0.0
 40
0.0
 40
0.0
 40
0.2011923232
 40
0.4019846199
 40
0.6020841161
 40
0.8013851679
 40
1.0
 40
1.0
 40
1.0
 40
1.0
 10
20.4982479112
 20
7.378033715
 30
0.0
 10
20.7380168929
 20
7.378033715
 30
0.0
 10
21.2194125716
 20
7.4408420536
 30
0.0
 10
21.8901020612
 20
7.7170854323
 30
0.0
 10
22.4651089063
 20
8.1566055338
 30
0.0
 10
22.9036182053
 20
8.7285407203
 30
0.0
 10
23.0852173602
 20
9.1738469099
 30
0.0
 10
23.1445477995
 20
9.4029877012
 30
0.0
  0
SPLINE
  5
3AE
100
AcDbEntity
  8
0
100
AcDbSpline
 62
7
  6
BYLAYER
 70
0
 71
3
 72
14
 73
10
 74
0
 42
0.0000001
 43
0.0000001
 44
0.0000000001
 40
0.0
 40
0.0
 40
0.0
 40
0.0
 40
0.1416996187
 40
0.2836885489
 40
0.4259692735
 40
0.568743266
 40
0.7120802507
 40
0.8559010942
 40
1.0
 40
1.0
 40
1.0
 40
1.0
 10
23.144889269
 20
9.4043079083
 30
0.0
 10
23.2029490577
 20
9.6290224467
 30
0.0
 10
23.2600896237
 20
10.0965808686
 30
0.0
 10
23.1595974952
 20
10.7948772648
 30
0.0
 10
22.8799054197
 20
11.4449065358
 30
0.0
 10
22.4400527613
 20
12.0017934598
 30
0.0
 10
21.8697634876
 20
12.4283719858
 30
0.0
 10
21.2080744935
 20
12.6961748745
 30
0.0
 10
20.7342670075
 20
12.7570094609
 30
0.0
 10
20.4982479112
 20
12.7570094609
 30
0.0
  0
SPLINE
  5
3AF
100
AcDbEntity
  8
0
100
AcDbSpline
 62
7
  6
BYLAYER
 70
0
 71
3
 72
9
 73
5
 74
0
 42
0.0000001
 43
0.0000001
 44
0.0000000001
 40
0.0
 40
0.0
 40
0.0
 40
0.0
 40
0.020611737
 40
1.0
 40
1.0
 40
1.0
 40
1.0
 10
18.2797277057
 20
8.470131498
 30
0.0
 10
18.2773800898
 20
8.4741788526
 30
0.0
 10
18.1640331172
 20
8.6708673564
 30
0.0
 10
18.0774808401
 20
8.883290954
 30
0.0
 10
18.0220273947
 20
9.0977586589
 30
0.0
  0
SPLINE
  5
3B0
100
AcDbEntity
  8
0
100
AcDbSpline
 62
7
  6
BYLAYER
 70
0
 71
3
 72
9
 73
5
 74
0
 42
0.0000001
 43
0.0000001
 44
0.0000000001
 40
0.0
 40
0.0
 40
0.0
 40
0.0
 40
0.9844757922
 40
1.0
 40
1.0
 40
1.0
 40
1.0
 10
22.9733621922
 20
9.0934958502
 30
0.0
 10
22.917601293
 20
8.8794051236
 30
0.0
 10
22.831275441
 20
8.6684988848
 30
0.0
 10
22.7185242236
 20
8.4731605549
 30
0.0
 10
22.7167675009
 20
8.4701318558
 30
0.0
  0
SPLINE
  5
3B1
100
AcDbEntity
  8
0
100
AcDbSpline
 62
7
  6
BYLAYER
 70
0
 71
3
 72
18
 73
14
 74
0
 42
0.0000001
 43
0.0000001
 44
0.0000000001
 40
0.0
 40
0.0
 40
0.0
 40
0.0
 40
0.0918981163
 40
0.1831954324
 40
0.2735076199
 40
0.3634974365
 40
0.4537609248
 40
0.5437097891
 40
0.6338976685
 40
0.7243114192
 40
0.8155057921
 40
0.9077116879
 40
1.0
 40
1.0
 40
1.0
 40
1.0
 10
20.4982479112
 20
11.8932575096
 30
0.0
 10
20.713012753
 20
11.8932575096
 30
0.0
 10
21.143594028
 20
11.8322934623
 30
0.0
 10
21.7338054253
 20
11.5663502204
 30
0.0
 10
22.2235884901
 20
11.1492629758
 30
0.0
 10
22.5754577993
 20
10.6135580847
 30
0.0
 10
22.7608310015
 20
10.0006334358
 30
0.0
 10
22.7634546664
 20
9.3598402734
 30
0.0
 10
22.5829412316
 20
8.7446257621
 30
0.0
 10
22.2335503779
 20
8.2037192833
 30
0.0
 10
21.7419494512
 20
7.7804144042
 30
0.0
 10
21.1475720999
 20
7.5107173184
 30
0.0
 10
20.7139246362
 20
7.4490578325
 30
0.0
 10
20.4982479112
 20
7.4490578325
 30
0.0
  0
SPLINE
  5
3B2
100
AcDbEntity
  8
0
100
AcDbSpline
 62
7
  6
BYLAYER
 70
0
 71
3
 72
18
 73
14
 74
0
 42
0.0000001
 43
0.0000001
 44
0.0000000001
 40
0.0
 40
0.0
 40
0.0
 40
0.0
 40
0.0918981163
 40
0.1831954324
 40
0.2735076199
 40
0.3634974365
 40
0.4537609248
 40
0.5437097891
 40
0.6338976685
 40
0.7243114192
 40
0.8155057921
 40
0.9077116879
 40
1.0
 40
1.0
 40
1.0
 40
1.0
 10
20.4982479112
 20
7.4490578325
 30
0.0
 10
20.2834830695
 20
7.4490578325
 30
0.0
 10
19.8529017945
 20
7.5100218798
 30
0.0
 10
19.2626903972
 20
7.7759651217
 30
0.0
 10
18.7729073324
 20
8.1930523662
 30
0.0
 10
18.4210380232
 20
8.7287572574
 30
0.0
 10
18.235664821
 20
9.3416819063
 30
0.0
 10
18.2330411561
 20
9.9824750687
 30
0.0
 10
18.4135545908
 20
10.59768958
 30
0.0
 10
18.7629454446
 20
11.1385960588
 30
0.0
 10
19.2545463713
 20
11.5619009379
 30
0.0
 10
19.8489237226
 20
11.8315980237
 30
0.0
 10
20.2825711863
 20
11.8932575096
 30
0.0
 10
20.4982479112
 20
11.8932575096
 30
0.0
  0
SPLINE
  5
3B3
100
AcDbEntity
  8
0
100
AcDbSpline
 62
7
  6
BYLAYER
 70
0
 71
3
 72
14
 73
10
 74
0
 42
0.0000001
 43
0.0000001
 44
0.0000000001
 40
0.0
 40
0.0
 40
0.0
 40
0.0
 40
0.1384668015
 40
0.2809754615
 40
0.4237845348
 40
0.5670980708
 40
0.7109833171
 40
0.8553549617
 40
1.0
 40
1.0
 40
1.0
 40
1.0
 10
17.8521571333
 20
9.4014114088
 30
0.0
 10
17.7947132338
 20
9.6220984973
 30
0.0
 10
17.7361909943
 20
10.0844736579
 30
0.0
 10
17.8310474232
 20
10.7817767269
 30
0.0
 10
18.108127068
 20
11.4372329351
 30
0.0
 10
18.5475019421
 20
11.9997751658
 30
0.0
 10
19.1194066426
 20
12.431171895
 30
0.0
 10
19.784313732
 20
12.702227395
 30
0.0
 10
20.2608758566
 20
12.7638243024
 30
0.0
 10
20.4982479112
 20
12.7638243024
 30
0.0
  0
SPLINE
  5
3B4
100
AcDbEntity
  8
0
100
AcDbSpline
 62
7
  6
BYLAYER
 70
0
 71
3
 72
14
 73
10
 74
0
 42
0.0000001
 43
0.0000001
 44
0.0000000001
 40
0.0
 40
0.0
 40
0.0
 40
0.0
 40
0.1447380692
 40
0.2891841709
 40
0.4331327842
 40
0.5765090958
 40
0.7193910815
 40
0.8619908784
 40
1.0
 40
1.0
 40
1.0
 40
1.0
 10
20.4982479112
 20
12.7638243024
 30
0.0
 10
20.735631226
 20
12.7638243024
 30
0.0
 10
21.2121859988
 20
12.7022253412
 30
0.0
 10
21.87704973
 20
12.4311858222
 30
0.0
 10
22.4488899258
 20
11.9998634748
 30
0.0
 10
22.8882444353
 20
11.4374289739
 30
0.0
 10
23.1653729668
 20
10.7820464352
 30
0.0
 10
23.2601838227
 20
10.0856511075
 30
0.0
 10
23.2020532669
 20
9.6241475224
 30
0.0
 10
23.1450782198
 20
9.4042590889
 30
0.0
  0
SPLINE
  5
3B5
100
AcDbEntity
  8
0
100
AcDbSpline
 62
7
  6
BYLAYER
 70
0
 71
3
 72
14
 73
10
 74
0
 42
0.0000001
 43
0.0000001
 44
0.0000000001
 40
0.0
 40
0.0
 40
0.0
 40
0.0
 40
0.1440991612
 40
0.2879199451
 40
0.431256407
 40
0.5740295367
 40
0.716309449
 40
0.8582981515
 40
1.0
 40
1.0
 40
1.0
 40
1.0
 10
20.4982479112
 20
12.7570094609
 30
0.0
 10
20.262088297
 20
12.7570094609
 30
0.0
 10
19.7879965807
 20
12.6961017236
 30
0.0
 10
19.1259687395
 20
12.4279838042
 30
0.0
 10
18.5555002354
 20
12.0009268404
 30
0.0
 10
18.1156873256
 20
11.4434638577
 30
0.0
 10
17.836287505
 20
10.7928441497
 30
0.0
 10
17.7363419473
 20
10.0940345861
 30
0.0
 10
17.7939999178
 20
9.6262468986
 30
0.0
 10
17.85234409
 20
9.401459934
 30
0.0
  0
ELLIPSE
  5
3B6
100
AcDbEntity
  8
0
100
AcDbEllipse
 62
7
  6
BYLAYER
 10
20.2982479112
 20
19.0451848705
 30
0.0
 11
0.0
 21
-2.3253269412
 31
0.0
 40
0.984807753
 41
0.0
 42
6.2831853072
  0
ELLIPSE
  5
3B7
100
AcDbEntity
  8
0
100
AcDbEllipse
 62
7
  6
BYLAYER
 10
10.4982479112
 20
19.0451848705
 30
0.0
 11
0.0
 21
-2.3253269412
 31
0.0
 40
0.984807753
 41
0.0
 42
6.2831853072
  0
ELLIPSE
  5
3B8
100
AcDbEntity
  8
0
100
AcDbEllipse
 62
7
  6
BYLAYER
 10
20.2982479112
 20
38.5795765449
 30
0.0
 11
0.0
 21
2.3253269412
 31
0.0
 40
0.984807753
 41
0.0
 42
6.2831853072
  0
ELLIPSE
  5
3B9
100
AcDbEntity
  8
0
100
AcDbEllipse
 62
7
  6
BYLAYER
 10
30.4982479112
 20
38.5795765601
 30
0.0
 11
0.0
 21
2.3253269412
 31
0.0
 40
0.984807753
 41
0.0
 42
6.2831853072
  0
ELLIPSE
  5
3BA
100
AcDbEntity
  8
0
100
AcDbEllipse
 62
7
  6
BYLAYER
 10
30.4982479112
 20
19.0451848552
 30
0.0
 11
0.0
 21
-2.3253269412
 31
0.0
 40
0.984807753
 41
0.0
 42
6.2831853072
  0
ELLIPSE
  5
3BB
100
AcDbEntity
  8
0
100
AcDbEllipse
 62
7
  6
BYLAYER
 10
10.4982479112
 20
38.5795765449
 30
0.0
 11
0.0
 21
2.3253269412
 31
0.0
 40
0.984807753
 41
0.0
 42
6.2831853072
  0
ELLIPSE
  5
3BC
100
AcDbEntity
  8
0
100
AcDbEllipse
 62
7
  6
BYLAYER
 10
20.4982479112
 20
10.9379661169
 30
0.0
 11
-0.0
 21
1.8829796668
 31
0.0
 40
0.9848057673
 41
0.0
 42
6.2831853072
  0
ELLIPSE
  5
3BD
100
AcDbEntity
  8
0
100
AcDbEllipse
 62
7
  6
BYLAYER
 10
20.4982479112
 20
10.2571635576
 30
0.0
 11
1.8104314346
 21
0.0
 31
0.0
 40
0.9216129175
 41
0.0
 42
6.2831853072
  0
ENDSEC
  0
SECTION
  2
OBJECTS
  0
DICTIONARY
  5
C
100
AcDbDictionary
280
0
281
1
  3
ACAD_GROUP
350
D
  3
ACAD_MLINESTYLE
350
17
  3
ACAD_LAYOUT
350
1A
  3
ACAD_PLOTSETTINGS
350
19
  3
ACAD_PLOTSTYLENAME
350
E
  0
DICTIONARY
  5
D
102
{ACAD_REACTORS
330
C
102
}
100
AcDbDictionary
280
0
281
1
  0
ACDBDICTIONARYWDFLT
  5
E
102
{ACAD_REACTORS
330
C
102
}
100
AcDbDictionary
281
1
  3
Normal
350
F
100
AcDbDictionaryWithDefault
340
F
  0
DICTIONARY
  5
17
102
{ACAD_REACTORS
330
C
102
}
100
AcDbDictionary
280
0
281
1
  3
Standard
350
18
  0
DICTIONARY
  5
19
102
{ACAD_REACTORS
330
C
102
}
100
AcDbDictionary
281
1
  0
DICTIONARY
  5
1A
102
{ACAD_REACTORS
330
C
102
}
100
AcDbDictionary
281
1
  3
Model
350
3BE
  3
Layout1
350
3BF
  0
ACDBPLACEHOLDER
  5
F
102
{ACAD_REACTORS
330
E
102
}
  0
MLINESTYLE
  5
18
102
{ACAD_REACTORS
330
17
102
}
100
AcDbMlineStyle
  2
STANDARD
 70
0
  3

 62
256
 51
90.0
 52
90.0
 71
2
 49
0.5
 62
256
  6
BYLAYER
 49
-0.5
 62
256
  6
BYLAYER
  0
LAYOUT
  5
3BE
102
{ACAD_REACTORS
330
1A
102
}
100
AcDbPlotSettings
  1

  2
none_device
  4

  6

 40
0.0
 41
0.0
 42
0.0
 43
0.0
 44
210.0
 45
297.0
 46
0.0
 47
0.0
 48
0.0
 49
0.0
140
0.0
141
0.0
142
1.0
143
1.0
 70
1024
 72
1
 73
0
 74
0
  7

 75
0
147
1.0
148
0.0
149
0.0
100
AcDbLayout
  1
Model
 70
0
 71
0
 10
0.0
 20
0.0
 11
210.0
 21
297.0
 12
0.0
 22
0.0
 32
0.0
 14
0.0
 24
0.0
 34
0.0
 15
0.0
 25
0.0
 35
0.0
146
0.0
 13
0.0
 23
0.0
 33
0.0
 16
1.0
 26
0.0
 36
0.0
 17
0.0
 27
1.0
 37
0.0
 76
0
330
210
345
0
346
0
  0
LAYOUT
  5
3BF
102
{ACAD_REACTORS
330
1A
102
}
100
AcDbPlotSettings
  1

  2
none_device
  4

  6

 40
0.0
 41
0.0
 42
0.0
 43
0.0
 44
210.0
 45
297.0
 46
0.0
 47
0.0
 48
0.0
 49
0.0
140
0.0
141
0.0
142
1.0
143
1.0
 70
0
 72
1
 73
0
 74
0
  7

 75
0
147
1.0
148
0.0
149
0.0
100
AcDbLayout
  1
Layout1
 70
0
 71
1
 10
0.0
 20
0.0
 11
210.0
 21
297.0
 12
0.0
 22
0.0
 32
0.0
 14
0.0
 24
0.0
 34
0.0
 15
0.0
 25
0.0
 35
0.0
146
0.0
 13
0.0
 23
0.0
 33
0.0
 16
1.0
 26
0.0
 36
0.0
 17
0.0
 27
1.0
 37
0.0
 76
0
330
211
345
0
346
0
  0
ENDSEC
  0
EOF
