999
DXF file: C:\Users\sesa63760\Dev\_Creo\CAD\MCADID0003544_3D-CAD\drw0001_7.dxf
999
Pro/ENGINEER 2019471 by Parametric Technology Corporation
  0
SECTION
  2
HEADER
  9
$ACADVER
  1
AC1024
  9
$DWGCODEPAGE
  3
ANSI_1252
  9
$EXTMAX
 10
67.512792795
 20
95.4823783815
 30
0.0
  9
$EXTMIN
 10
0.0
 20
0.0
 30
0.0
  9
$LIMMIN
 10
0.0
 20
0.0
  9
$LIMMAX
 10
67.512792795
 20
95.4823783815
  9
$VIEWCTR
 10
33.7563963975
 20
47.7411891908
  9
$VIEWSIZE
 40
95.4823783815
  9
$CLAYER
  8
0
  9
$LTSCALE
 40
6.2240365167
  9
$CELTYPE
  6
BYLAYER
  9
$DIMSCALE
 40
1.0
  9
$DIMASZ
 40
0.8037237238
  9
$DIMEXO
 40
1.0
  9
$DIMDLI
 40
4.3002434116
  9
$DIMEXE
 40
1.0
  9
$DIMCEN
 40
1.0184787027
  9
$DIMLFAC
 40
1.0
  9
$DIMBLK
  1
_FILLED
  9
$DIMALT
 70
0
  9
$DIMALTF
 40
0.0393700787
  9
$DIMTXT
 40
1.1252132133
  9
$DIMTOL
 70
1
  9
$DIMLIM
 70
0
  9
$DIMTFAC
 40
1.0
  9
$DIMTP
 40
0.01
  9
$DIMTM
 40
0.01
  9
$DIMGAP
 40
0.625
  9
$DIMDSEP
 70
46
  9
$AUNITS
 70
0
  9
$PDMODE
 70
3
  9
$PDSIZE
 40
0.3125
  9
$HANDSEED
  5
277
  9
$TILEMODE
 70
1
  9
$MEASUREMENT
 70
1
  9
$INSUNITS
 70
4
  0
ENDSEC
  0
SECTION
  2
CLASSES
  0
CLASS
  1
ACDBDICTIONARYWDFLT
  2
AcDbDictionaryWithDefault
  3
AutoCAD 2000
 90
0
 91
1
280
0
281
0
  0
CLASS
  1
ACDBPLACEHOLDER
  2
AcDbPlaceHolder
  3
AutoCAD 2000
 90
0
 91
1
280
0
281
0
  0
CLASS
  1
LAYOUT
  2
AcDbLayout
  3
AutoCAD 2000
 90
0
 91
0
280
0
281
0
  0
ENDSEC
  0
SECTION
  2
TABLES
  0
TABLE
  2
VPORT
  5
8
100
AcDbSymbolTable
 70
2
  0
VPORT
  5
1F4
100
AcDbSymbolTableRecord
100
AcDbViewportTableRecord
  2
*ACTIVE
 70
0
 10
0.0
 20
0.0
 11
1.0
 21
1.0
 12
33.7563963975
 22
47.7411891908
 13
0.0
 23
0.0
 14
1.0
 24
1.0
 15
0.0
 25
0.0
 16
0.0
 26
0.0
 36
1.0
 17
0.0
 27
0.0
 37
0.0
 40
95.4823783815
 41
0.7070707071
 42
50.0
 43
0.0
 44
0.0
 50
0.0
 51
0.0
 71
0
 72
100
 73
1
 74
1
 75
0
 76
0
 77
0
 78
0
  0
ENDTAB
  0
TABLE
  2
LTYPE
  5
5
100
AcDbSymbolTable
 70
6
  0
LTYPE
  5
14
100
AcDbSymbolTableRecord
100
AcDbLinetypeTableRecord
  2
BYBLOCK
 70
0
  3

 72
65
 73
0
 40
0.0
  0
LTYPE
  5
15
100
AcDbSymbolTableRecord
100
AcDbLinetypeTableRecord
  2
BYLAYER
 70
0
  3

 72
65
 73
0
 40
0.0
  0
LTYPE
  5
16
100
AcDbSymbolTableRecord
100
AcDbLinetypeTableRecord
  2
CONTINUOUS
 70
64
  3
Solid line
 72
65
 73
0
 40
0.0
  0
LTYPE
  5
1F5
100
AcDbSymbolTableRecord
100
AcDbLinetypeTableRecord
  2
CENTER
 70
64
  3
____ _ ____ _ ____ _ ____ _ ____ _ ____ _ ____
 72
65
 73
4
 40
0.6
 49
0.375
 74
0
 49
-0.075
 74
0
 49
0.075
 74
0
 49
-0.075
 74
0
  0
LTYPE
  5
1F6
100
AcDbSymbolTableRecord
100
AcDbLinetypeTableRecord
  2
HIDDEN
 70
64
  3
- - - - - - - - - - - - - - - - - - - -
 72
65
 73
2
 40
0.2
 49
0.1
 74
0
 49
-0.1
 74
0
  0
LTYPE
  5
1F7
100
AcDbSymbolTableRecord
100
AcDbLinetypeTableRecord
  2
PHANTOM
 70
64
  3
_____ _ _ _____ _ _ _____ _ _ _____
 72
65
 73
6
 40
0.8
 49
0.45
 74
0
 49
-0.05
 74
0
 49
0.1
 74
0
 49
-0.05
 74
0
 49
0.1
 74
0
 49
-0.05
 74
0
  0
LTYPE
  5
1F8
100
AcDbSymbolTableRecord
100
AcDbLinetypeTableRecord
  2
DOT
 70
64
  3
. . . . . . . . . . . . . . . . . . . .
 72
65
 73
2
 40
0.2
 49
0.1
 74
0
 49
-0.1
 74
0
  0
LTYPE
  5
1F9
100
AcDbSymbolTableRecord
100
AcDbLinetypeTableRecord
  2
DASHED
 70
64
  3
- - - - - - - - - - - - - - - - - - - -
 72
65
 73
2
 40
0.2
 49
0.1
 74
0
 49
-0.1
 74
0
  0
ENDTAB
  0
TABLE
  2
LAYER
  5
2
100
AcDbSymbolTable
 70
36
  0
LAYER
  5
10
100
AcDbSymbolTableRecord
100
AcDbLayerTableRecord
  2
0
 70
0
 62
7
  6
CONTINUOUS
370
-3
390
F
  0
LAYER
  5
1FA
100
AcDbSymbolTableRecord
100
AcDbLayerTableRecord
  2
DEFAULT_1
 70
0
 62
7
  6
CENTER
370
-3
390
F
  0
LAYER
  5
1FB
100
AcDbSymbolTableRecord
100
AcDbLayerTableRecord
  2
DEFAULT_2
 70
0
 62
7
  6
HIDDEN
370
-3
390
F
  0
LAYER
  5
1FC
100
AcDbSymbolTableRecord
100
AcDbLayerTableRecord
  2
DEFAULT_3
 70
0
 62
7
  6
PHANTOM
370
-3
390
F
  0
LAYER
  5
1FD
100
AcDbSymbolTableRecord
100
AcDbLayerTableRecord
  2
00_COMPONENTS
 70
0
 62
7
  6
CONTINUOUS
370
-3
390
F
  0
LAYER
  5
1FE
100
AcDbSymbolTableRecord
100
AcDbLayerTableRecord
  2
01_1_DEFAULT_DATUMS
 70
0
 62
7
  6
CONTINUOUS
370
-3
390
F
  0
LAYER
  5
1FF
100
AcDbSymbolTableRecord
100
AcDbLayerTableRecord
  2
01_PLANES
 70
0
 62
7
  6
CONTINUOUS
370
-3
390
F
  0
LAYER
  5
200
100
AcDbSymbolTableRecord
100
AcDbLayerTableRecord
  2
02_COORD_SYS
 70
0
 62
7
  6
CONTINUOUS
370
-3
390
F
  0
LAYER
  5
201
100
AcDbSymbolTableRecord
100
AcDbLayerTableRecord
  2
03_AXES
 70
0
 62
7
  6
CONTINUOUS
370
-3
390
F
  0
LAYER
  5
202
100
AcDbSymbolTableRecord
100
AcDbLayerTableRecord
  2
04_POINTS
 70
0
 62
7
  6
CONTINUOUS
370
-3
390
F
  0
LAYER
  5
203
100
AcDbSymbolTableRecord
100
AcDbLayerTableRecord
  2
05_CURVES
 70
0
 62
7
  6
CONTINUOUS
370
-3
390
F
  0
LAYER
  5
204
100
AcDbSymbolTableRecord
100
AcDbLayerTableRecord
  2
06_SURFS
 70
0
 62
7
  6
CONTINUOUS
370
-3
390
F
  0
LAYER
  5
205
100
AcDbSymbolTableRecord
100
AcDbLayerTableRecord
  2
07_COSMETICS
 70
0
 62
7
  6
CONTINUOUS
370
-3
390
F
  0
LAYER
  5
206
100
AcDbSymbolTableRecord
100
AcDbLayerTableRecord
  2
10_NOTES
 70
0
 62
7
  6
CONTINUOUS
370
-3
390
F
  0
LAYER
  5
207
100
AcDbSymbolTableRecord
100
AcDbLayerTableRecord
  2
11_NOTES_PUB
 70
0
 62
7
  6
CONTINUOUS
370
-3
390
F
  0
LAYER
  5
208
100
AcDbSymbolTableRecord
100
AcDbLayerTableRecord
  2
13_REF_GTOL
 70
0
 62
7
  6
CONTINUOUS
370
-3
390
F
  0
LAYER
  5
209
100
AcDbSymbolTableRecord
100
AcDbLayerTableRecord
  2
16_MISC
 70
0
 62
7
  6
CONTINUOUS
370
-3
390
F
  0
LAYER
  5
20A
100
AcDbSymbolTableRecord
100
AcDbLayerTableRecord
  2
17_NO_PRINT
 70
0
 62
7
  6
CONTINUOUS
370
-3
390
F
  0
LAYER
  5
20B
100
AcDbSymbolTableRecord
100
AcDbLayerTableRecord
  2
18_DATUM_CAMS_JOINTS
 70
0
 62
7
  6
CONTINUOUS
370
-3
390
F
  0
LAYER
  5
20C
100
AcDbSymbolTableRecord
100
AcDbLayerTableRecord
  2
19_DATUM_FUNCTIONAL
 70
0
 62
7
  6
CONTINUOUS
370
-3
390
F
  0
LAYER
  5
20D
100
AcDbSymbolTableRecord
100
AcDbLayerTableRecord
  2
20_DATUM_KINEMATIC_SCHEME
 70
0
 62
7
  6
CONTINUOUS
370
-3
390
F
  0
LAYER
  5
20E
100
AcDbSymbolTableRecord
100
AcDbLayerTableRecord
  2
INTFCLR_17482
 70
0
 62
7
  6
CONTINUOUS
370
-3
390
F
  0
ENDTAB
  0
TABLE
  2
STYLE
  5
3
100
AcDbSymbolTable
 70
1
  0
STYLE
  5
11
100
AcDbSymbolTableRecord
100
AcDbTextStyleTableRecord
  2
STANDARD
 70
0
 40
0.0
 41
1.0
 50
0.0
 71
0
 42
0.2
  3
ARIAL.TTF
  4

  0
STYLE
  5
20F
100
AcDbSymbolTableRecord
100
AcDbTextStyleTableRecord
  2
TEXTSTYLE_1
 70
0
 40
0.0
 41
0.8
 50
0.0
 71
0
 42
0.2
  3
gdt
  4

  0
ENDTAB
  0
TABLE
  2
VIEW
  5
6
100
AcDbSymbolTable
 70
0
  0
ENDTAB
  0
TABLE
  2
UCS
  5
7
100
AcDbSymbolTable
 70
0
  0
ENDTAB
  0
TABLE
  2
APPID
  5
9
100
AcDbSymbolTable
 70
1
  0
APPID
  5
210
100
AcDbSymbolTableRecord
100
AcDbRegAppTableRecord
  2
ACAD
 70
0
  0
ENDTAB
  0
TABLE
  2
BLOCK_RECORD
  5
1
100
AcDbSymbolTable
 70
0
  0
BLOCK_RECORD
  5
211
100
AcDbSymbolTableRecord
100
AcDbBlockTableRecord
  2
*Model_Space
  0
BLOCK_RECORD
  5
212
100
AcDbSymbolTableRecord
100
AcDbBlockTableRecord
  2
*Paper_Space
  0
BLOCK_RECORD
  5
213
100
AcDbSymbolTableRecord
100
AcDbBlockTableRecord
  2
_FILLED
  0
ENDTAB
  0
TABLE
  2
DIMSTYLE
  5
A
100
AcDbSymbolTable
 70
1
100
AcDbDimStyleTable
 71
0
  0
DIMSTYLE
105
214
100
AcDbSymbolTableRecord
100
AcDbDimStyleTableRecord
  2
STANDARD
 70
0
  3

  4

 40
1.0
 41
0.8037237238
 42
1.0
 43
0.38
 44
1.0
 45
0.0
 46
0.0
 47
0.01
 48
0.01
140
1.1252132133
141
0.09
142
0.0
143
25.4
144
1.0
145
0.0
146
1.0
147
0.625
 71
1
 72
0
 73
0
 74
0
 75
0
 76
0
 77
1
 78
8
 79
2
170
0
171
1
172
0
173
0
174
0
175
0
176
0
177
0
178
0
270
2
179
2
271
2
272
2
273
2
274
2
275
0
280
0
281
0
282
0
283
1
284
8
285
0
286
0
287
3
288
0
340
11
278
46
341
213
342
213
343
213
344
213
  0
ENDTAB
  0
ENDSEC
  0
SECTION
  2
BLOCKS
  0
BLOCK
  5
20
100
AcDbEntity
  8
0
100
AcDbBlockBegin
  2
*Model_Space
 70
0
 10
0.0
 20
0.0
 30
0.0
  3
*Model_Space
  1

  0
ENDBLK
  5
21
100
AcDbEntity
  8
0
100
AcDbBlockEnd
  0
BLOCK
  5
1C
100
AcDbEntity
  8
0
100
AcDbBlockBegin
  2
*Paper_Space
 70
0
 10
0.0
 20
0.0
 30
0.0
  3
*Paper_Space
  1

  0
ENDBLK
  5
1D
100
AcDbEntity
  8
0
100
AcDbBlockEnd
  0
BLOCK
  5
215
100
AcDbEntity
  8
0
100
AcDbBlockBegin
  2
_FILLED
 70
64
 10
0.0
 20
0.0
  3
_FILLED
  1

  0
SOLID
  5
216
100
AcDbEntity
  8
0
  6
BYBLOCK
 62
0
100
AcDbTrace
 10
0.0
 20
0.0
 11
-1.0
 21
0.25
 12
-1.0
 22
-0.25
 13
-1.0
 23
-0.25
  0
ENDBLK
  5
217
100
AcDbEntity
  8
0
  6
BYBLOCK
 62
0
100
AcDbBlockEnd
  0
ENDSEC
  0
SECTION
  2
ENTITIES
  0
LINE
  5
218
100
AcDbEntity
  8
0
100
AcDbLine
 62
7
  6
BYLAYER
 10
35.5779457618
 20
19.4395185719
 11
59.3779459773
 21
19.4395185719
  0
LINE
  5
219
100
AcDbEntity
  8
0
100
AcDbLine
 62
7
  6
BYLAYER
 10
60.5779457715
 20
19.5395185719
 11
59.8574507433
 21
19.5395185719
  0
LINE
  5
21A
100
AcDbEntity
  8
0
100
AcDbLine
 62
7
  6
BYLAYER
 10
35.1025435823
 20
19.5395185719
 11
30.5779457715
 21
19.5395185719
  0
LINE
  5
21B
100
AcDbEntity
  8
0
100
AcDbLine
 62
7
  6
BYLAYER
 10
59.3779458955
 20
19.7395185697
 11
35.5779457726
 21
19.739518567
  0
LINE
  5
21C
100
AcDbEntity
  8
0
100
AcDbLine
 62
7
  6
BYLAYER
 10
49.6779457715
 20
21.2395185719
 11
41.3279457715
 21
21.2395185719
  0
LINE
  5
21D
100
AcDbEntity
  8
0
100
AcDbLine
 62
7
  6
BYLAYER
 10
41.3279457715
 20
23.0395185719
 11
49.6779457715
 21
23.0395185719
  0
LINE
  5
21E
100
AcDbEntity
  8
0
100
AcDbLine
 62
7
  6
BYLAYER
 10
38.0779457713
 20
70.9395185722
 11
37.5779457717
 21
70.4395185717
  0
LINE
  5
21F
100
AcDbEntity
  8
0
100
AcDbLine
 62
7
  6
BYLAYER
 10
30.5779457715
 20
19.5395185719
 11
30.5779457715
 21
67.6295185719
  0
LINE
  5
220
100
AcDbEntity
  8
0
100
AcDbLine
 62
7
  6
BYLAYER
 10
31.2779460501
 20
23.5042123142
 11
31.2779448537
 21
58.6329098515
  0
LINE
  5
221
100
AcDbEntity
  8
0
100
AcDbLine
 62
7
  6
BYLAYER
 10
31.2779457709
 20
60.2461318594
 11
31.2779457714
 21
67.7957714937
  0
LINE
  5
222
100
AcDbEntity
  8
0
100
AcDbLine
 62
7
  6
BYLAYER
 10
39.4341723086
 20
73.0558711211
 11
39.1417445823
 21
72.155871121
  0
LINE
  5
223
100
AcDbEntity
  8
0
100
AcDbLine
 62
7
  6
BYLAYER
 10
39.9093638615
 20
71.9595185719
 11
39.5779457717
 21
70.9395185719
  0
LINE
  5
224
100
AcDbEntity
  8
0
100
AcDbLine
 62
7
  6
BYLAYER
 10
19.3707106058
 20
25.4119800563
 11
15.6282418404
 21
19.0280997676
  0
LINE
  5
225
100
AcDbEntity
  8
0
100
AcDbLine
 62
7
  6
BYLAYER
 10
35.5779457687
 20
19.4395185719
 11
35.5779457687
 21
19.7395185684
  0
LINE
  5
226
100
AcDbEntity
  8
0
100
AcDbLine
 62
7
  6
BYLAYER
 10
36.2029457715
 20
65.4395185719
 11
36.2029457715
 21
66.9395185719
  0
LINE
  5
227
100
AcDbEntity
  8
0
100
AcDbLine
 62
7
  6
BYLAYER
 10
36.8029457715
 20
66.9395185719
 11
36.8029457715
 21
65.4395185719
  0
LINE
  5
228
100
AcDbEntity
  8
0
100
AcDbLine
 62
7
  6
BYLAYER
 10
37.5779457715
 20
68.9227614522
 11
37.5779457715
 21
70.4395185719
  0
LINE
  5
229
100
AcDbEntity
  8
0
100
AcDbLine
 62
7
  6
BYLAYER
 10
39.2279457715
 20
65.9895185719
 11
39.2279457715
 21
65.4395185719
  0
LINE
  5
22A
100
AcDbEntity
  8
0
100
AcDbLine
 62
7
  6
BYLAYER
 10
7.1685860159
 20
27.4877555921
 11
13.5524663045
 21
31.2302243575
  0
LINE
  5
22B
100
AcDbEntity
  8
0
100
AcDbLine
 62
7
  6
BYLAYER
 10
40.0779457715
 20
65.9895185719
 11
40.0779457715
 21
66.9395185719
  0
LINE
  5
22C
100
AcDbEntity
  8
0
100
AcDbLine
 62
7
  6
BYLAYER
 10
41.3279457715
 20
23.0395185719
 11
41.3279457715
 21
21.2395185719
  0
LINE
  5
22D
100
AcDbEntity
  8
0
100
AcDbLine
 62
7
  6
BYLAYER
 10
41.4779457715
 20
23.0395185719
 11
41.4779457715
 21
21.2395185719
  0
LINE
  5
22E
100
AcDbEntity
  8
0
100
AcDbLine
 62
7
  6
BYLAYER
 10
42.0779457715
 20
73.1595185719
 11
42.0779457715
 21
79.0965020731
  0
LINE
  5
22F
100
AcDbEntity
  8
0
100
AcDbLine
 62
7
  6
BYLAYER
 10
59.5830892315
 20
60.1908180231
 11
59.8779464187
 21
60.2461284121
  0
LINE
  5
230
100
AcDbEntity
  8
0
100
AcDbLine
 62
7
  6
BYLAYER
 10
31.5728022144
 20
58.6882196389
 11
31.27794502
 21
58.632909288
  0
LINE
  5
231
100
AcDbEntity
  8
0
100
AcDbLine
 62
7
  6
BYLAYER
 10
31.1466939644
 20
59.4395188227
 11
31.5029473148
 21
59.4395186185
  0
LINE
  5
232
100
AcDbEntity
  8
0
100
AcDbLine
 62
7
  6
BYLAYER
 10
59.6529434465
 20
59.4395186676
 11
60.0091981757
 21
59.4395184009
  0
LINE
  5
233
100
AcDbEntity
  8
0
100
AcDbLine
 62
7
  6
BYLAYER
 10
31.5728029142
 20
60.1908212353
 11
31.2779457713
 21
60.2461318609
  0
LINE
  5
234
100
AcDbEntity
  8
0
100
AcDbLine
 62
7
  6
BYLAYER
 10
49.0779457715
 20
79.0965020731
 11
49.0779457715
 21
73.1595185719
  0
LINE
  5
235
100
AcDbEntity
  8
0
100
AcDbLine
 62
7
  6
BYLAYER
 10
49.6779457715
 20
23.0395185719
 11
49.6779457715
 21
21.2395185719
  0
LINE
  5
236
100
AcDbEntity
  8
0
100
AcDbLine
 62
7
  6
BYLAYER
 10
59.8779457717
 20
58.6329052829
 11
59.5830886289
 21
58.6882159084
  0
LINE
  5
237
100
AcDbEntity
  8
0
100
AcDbLine
 62
7
  6
BYLAYER
 10
51.0779457715
 20
66.9395185719
 11
51.0779457715
 21
65.9895185719
  0
LINE
  5
238
100
AcDbEntity
  8
0
100
AcDbLine
 62
7
  6
BYLAYER
 10
51.9279457715
 20
65.4395185719
 11
51.9279457715
 21
65.9895185719
  0
LINE
  5
239
100
AcDbEntity
  8
0
100
AcDbLine
 62
7
  6
BYLAYER
 10
54.9529457715
 20
65.4395185719
 11
36.2029457715
 21
65.4395185719
  0
LINE
  5
23A
100
AcDbEntity
  8
0
100
AcDbLine
 62
7
  6
BYLAYER
 10
39.2279457715
 20
65.9895185719
 11
51.9279457715
 21
65.9895185719
  0
LINE
  5
23B
100
AcDbEntity
  8
0
100
AcDbLine
 62
7
  6
BYLAYER
 10
36.2029457715
 20
66.9395185719
 11
54.9529457715
 21
66.9395185719
  0
LINE
  5
23C
100
AcDbEntity
  8
0
100
AcDbLine
 62
7
  6
BYLAYER
 10
53.5779457715
 20
70.4395185719
 11
53.5779457715
 21
68.9227614522
  0
LINE
  5
23D
100
AcDbEntity
  8
0
100
AcDbLine
 62
7
  6
BYLAYER
 10
54.3529457715
 20
66.9395185719
 11
54.3529457715
 21
65.4395185719
  0
LINE
  5
23E
100
AcDbEntity
  8
0
100
AcDbLine
 62
7
  6
BYLAYER
 10
54.9529457715
 20
66.9395185719
 11
54.9529457715
 21
65.4395185719
  0
LINE
  5
23F
100
AcDbEntity
  8
0
100
AcDbLine
 62
7
  6
BYLAYER
 10
37.5779457715
 20
70.4395185719
 11
53.5779457715
 21
70.4395185719
  0
LINE
  5
240
100
AcDbEntity
  8
0
100
AcDbLine
 62
7
  6
BYLAYER
 10
38.0779457715
 20
70.9395185719
 11
53.0779457715
 21
70.9395185719
  0
LINE
  5
241
100
AcDbEntity
  8
0
100
AcDbLine
 62
7
  6
BYLAYER
 10
51.8714884835
 20
71.9595185719
 11
39.2844030596
 21
71.9595185719
  0
LINE
  5
242
100
AcDbEntity
  8
0
100
AcDbLine
 62
7
  6
BYLAYER
 10
52.0141469607
 20
72.155871121
 11
39.1417445823
 21
72.155871121
  0
LINE
  5
243
100
AcDbEntity
  8
0
100
AcDbLine
 62
7
  6
BYLAYER
 10
39.4341723086
 20
73.0558711211
 11
51.7217192344
 21
73.0558711211
  0
LINE
  5
244
100
AcDbEntity
  8
0
100
AcDbLine
 62
7
  6
BYLAYER
 10
51.2465276816
 20
71.9595185719
 11
51.5779457713
 21
70.9395185719
  0
LINE
  5
245
100
AcDbEntity
  8
0
100
AcDbLine
 62
7
  6
BYLAYER
 10
51.7217192345
 20
73.0558711211
 11
52.0141469607
 21
72.155871121
  0
LINE
  5
246
100
AcDbEntity
  8
0
100
AcDbLine
 62
7
  6
BYLAYER
 10
59.3779459984
 20
19.4395185719
 11
59.3779459984
 21
19.7395185684
  0
LINE
  5
247
100
AcDbEntity
  8
0
100
AcDbLine
 62
7
  6
BYLAYER
 10
59.8779458917
 20
58.6329059788
 11
59.8779470667
 21
19.9595311929
  0
LINE
  5
248
100
AcDbEntity
  8
0
100
AcDbLine
 62
7
  6
BYLAYER
 10
59.8779458872
 20
67.7957714669
 11
59.8779462184
 21
60.2461293128
  0
LINE
  5
249
100
AcDbEntity
  8
0
100
AcDbLine
 62
7
  6
BYLAYER
 10
60.5779457715
 20
19.5395185719
 11
60.5779457715
 21
67.6295185711
  0
LINE
  5
24A
100
AcDbEntity
  8
0
100
AcDbLine
 62
7
  6
BYLAYER
 10
39.5768307862
 20
73.1595185719
 11
51.5790607568
 21
73.1595185719
  0
LINE
  5
24B
100
AcDbEntity
  8
0
100
AcDbLine
 62
7
  6
BYLAYER
 10
53.5779457713
 20
70.4395185717
 11
53.0779457717
 21
70.9395185722
  0
LINE
  5
24C
100
AcDbEntity
  8
0
100
AcDbLine
 62
7
  6
BYLAYER
 10
42.0779457715
 20
79.0965020731
 11
49.0779457715
 21
79.0965020731
  0
LINE
  5
24D
100
AcDbEntity
  8
0
100
AcDbLine
 62
7
  6
BYLAYER
 10
48.9112791049
 20
79.2937047325
 11
42.2446356911
 21
79.2937086629
  0
LINE
  5
24E
100
AcDbEntity
  8
0
100
AcDbLine
 62
7
  6
BYLAYER
 10
44.5779619974
 20
79.4895185719
 11
46.5779380609
 21
79.4895185719
  0
LINE
  5
24F
100
AcDbEntity
  8
0
100
AcDbLine
 62
7
  6
BYLAYER
 10
60.0797627299
 20
19.6661466199
 11
60.0888231677
 21
19.6727438683
  0
LINE
  5
250
100
AcDbEntity
  8
0
100
AcDbLine
 62
7
  6
BYLAYER
 10
60.0786961047
 20
19.6653784534
 11
60.0797627299
 21
19.6661466199
  0
ARC
  5
251
100
AcDbEntity
  8
0
100
AcDbCircle
 62
7
  6
BYLAYER
 10
27.6142566701
 20
39.4737704218
 40
23.7
100
AcDbArc
 50
210.3804226091
 51
239.6195773908
  0
ARC
  5
252
100
AcDbEntity
  8
0
100
AcDbCircle
 62
7
  6
BYLAYER
 10
25.0855615583
 20
35.1603377943
 40
18.7
100
AcDbArc
 50
239.6195773908
 51
302.8965275073
  0
ARC
  5
253
100
AcDbEntity
  8
0
100
AcDbCircle
 62
7
  6
BYLAYER
 10
27.6142566701
 20
39.4737704218
 40
16.3
100
AcDbArc
 50
210.3804226091
 51
239.6195773908
  0
ARC
  5
254
100
AcDbEntity
  8
0
100
AcDbCircle
 62
7
  6
BYLAYER
 10
25.0855615583
 20
35.1603377943
 40
11.3
100
AcDbArc
 50
239.6195773908
 51
301.8999884376
  0
ARC
  5
255
100
AcDbEntity
  8
0
100
AcDbCircle
 62
7
  6
BYLAYER
 10
35.5779457715
 20
24.4395185719
 40
5.0
100
AcDbArc
 50
180.000000047
 51
269.9999998864
  0
ARC
  5
256
100
AcDbEntity
  8
0
100
AcDbCircle
 62
7
  6
BYLAYER
 10
35.7765650018
 20
24.0614614331
 40
4.532993491
100
AcDbArc
 50
187.0613244591
 51
205.2831455054
  0
ARC
  5
257
100
AcDbEntity
  8
0
100
AcDbCircle
 62
7
  6
BYLAYER
 10
35.5779457715
 20
59.4395185719
 40
4.375
100
AcDbArc
 50
190.6242704632
 51
169.3756685371
  0
CIRCLE
  5
258
100
AcDbEntity
  8
0
100
AcDbCircle
 62
7
  6
BYLAYER
 10
35.5779457715
 20
59.4395185719
 40
4.075
  0
CIRCLE
  5
259
100
AcDbEntity
  8
0
100
AcDbCircle
 62
7
  6
BYLAYER
 10
35.5779457715
 20
59.4395185719
 40
2.125
  0
ARC
  5
25A
100
AcDbEntity
  8
0
100
AcDbCircle
 62
7
  6
BYLAYER
 10
39.5768307862
 20
73.0095185719
 40
0.15
100
AcDbArc
 50
90.0
 51
161.9999999985
  0
ARC
  5
25B
100
AcDbEntity
  8
0
100
AcDbCircle
 62
7
  6
BYLAYER
 10
39.2844030596
 20
72.1095185719
 40
0.15
100
AcDbArc
 50
161.9999999985
 51
270.0
  0
ARC
  5
25C
100
AcDbEntity
  8
0
100
AcDbCircle
 62
7
  6
BYLAYER
 10
45.5779457715
 20
6.0295185719
 40
63.4
100
AcDbArc
 50
76.3144531748
 51
103.6855468254
  0
ARC
  5
25D
100
AcDbEntity
  8
0
100
AcDbCircle
 62
7
  6
BYLAYER
 10
59.3779457715
 20
20.6395185719
 40
1.2
100
AcDbArc
 50
270.0000083835
 51
305.7294546772
  0
ARC
  5
25E
100
AcDbEntity
  8
0
100
AcDbCircle
 62
7
  6
BYLAYER
 10
59.3779457715
 20
20.6395185719
 40
1.2
100
AcDbArc
 50
306.3273507749
 51
0.0002639428
  0
ARC
  5
25F
100
AcDbEntity
  8
0
100
AcDbCircle
 62
7
  6
BYLAYER
 10
44.5779457716
 20
65.4895185716
 40
14.0000000003
100
AcDbArc
 50
89.9999335947
 51
99.593971713
  0
ARC
  5
260
100
AcDbEntity
  8
0
100
AcDbCircle
 62
7
  6
BYLAYER
 10
46.5779457715
 20
65.4895185716
 40
14.0000000003
100
AcDbArc
 50
80.4059317733
 51
90.0
  0
ARC
  5
261
100
AcDbEntity
  8
0
100
AcDbCircle
 62
7
  6
BYLAYER
 10
55.5779457715
 20
59.4395185719
 40
4.375
100
AcDbArc
 50
10.6242976074
 51
349.3756777628
  0
CIRCLE
  5
262
100
AcDbEntity
  8
0
100
AcDbCircle
 62
7
  6
BYLAYER
 10
55.5779457715
 20
59.4395185719
 40
4.075
  0
CIRCLE
  5
263
100
AcDbEntity
  8
0
100
AcDbCircle
 62
7
  6
BYLAYER
 10
55.5779457715
 20
59.4395185719
 40
2.125
  0
ARC
  5
264
100
AcDbEntity
  8
0
100
AcDbCircle
 62
7
  6
BYLAYER
 10
42.2779457715
 20
79.0965020731
 40
0.2
100
AcDbArc
 50
99.587312264
 51
180.0
  0
ARC
  5
265
100
AcDbEntity
  8
0
100
AcDbCircle
 62
7
  6
BYLAYER
 10
48.8779457715
 20
79.0965020731
 40
0.2
100
AcDbArc
 50
0.0
 51
80.4126880888
  0
ARC
  5
266
100
AcDbEntity
  8
0
100
AcDbCircle
 62
7
  6
BYLAYER
 10
51.5790607568
 20
73.0095185719
 40
0.15
100
AcDbArc
 50
18.0000000015
 51
90.0
  0
ARC
  5
267
100
AcDbEntity
  8
0
100
AcDbCircle
 62
7
  6
BYLAYER
 10
51.8714884835
 20
72.1095185719
 40
0.15
100
AcDbArc
 50
270.0
 51
18.0000000015
  0
SPLINE
  5
268
100
AcDbEntity
  8
0
100
AcDbSpline
 62
7
  6
BYLAYER
 70
0
 71
3
 72
19
 73
15
 74
0
 42
0.0000001
 43
0.0000001
 44
0.0000000001
 40
0.0
 40
0.0
 40
0.0
 40
0.0
 40
0.0087445946
 40
0.023221801
 40
0.0458201101
 40
0.0776322467
 40
0.1192477014
 40
0.1703727399
 40
0.2304689115
 40
0.2989764325
 40
0.4576343805
 40
0.6352047847
 40
0.8195452258
 40
1.0
 40
1.0
 40
1.0
 40
1.0
 10
30.6921672938
 20
23.3768950888
 30
0.0
 10
30.6917923362
 20
23.3786190908
 30
0.0
 10
30.6938233189
 20
23.3835042446
 30
0.0
 10
30.7013381254
 20
23.3889602561
 30
0.0
 10
30.7136217019
 20
23.3955377485
 30
0.0
 10
30.7316799162
 20
23.4026331194
 30
0.0
 10
30.7555605546
 20
23.4104714281
 30
0.0
 10
30.785240822
 20
23.4188648912
 30
0.0
 10
30.8204082615
 20
23.4277200467
 30
0.0
 10
30.876932969
 20
23.4405496813
 30
0.0
 10
30.9570784508
 20
23.456279395
 30
0.0
 10
31.0606090288
 20
23.4740041404
 30
0.0
 10
31.1688396877
 20
23.4901914283
 30
0.0
 10
31.2418103909
 20
23.4998310294
 30
0.0
 10
31.2779438748
 20
23.5042975054
 30
0.0
  0
SPLINE
  5
269
100
AcDbEntity
  8
0
100
AcDbSpline
 62
7
  6
BYLAYER
 70
0
 71
3
 72
16
 73
12
 74
0
 42
0.0000001
 43
0.0000001
 44
0.0000000001
 40
0.0
 40
0.0
 40
0.0
 40
0.0
 40
0.1624512488
 40
0.3212900955
 40
0.4729487321
 40
0.6143434374
 40
0.7415670553
 40
0.8503342631
 40
0.9369196508
 40
0.9713269348
 40
1.0
 40
1.0
 40
1.0
 40
1.0
 10
59.8779457715
 20
19.9595308851
 30
0.0
 10
59.923289081
 20
19.9884338444
 30
0.0
 10
60.0123354667
 20
20.0466205479
 30
0.0
 10
60.1389130441
 20
20.1389218513
 30
0.0
 10
60.2535514999
 20
20.2351443044
 30
0.0
 10
60.3559768279
 20
20.3293129346
 30
0.0
 10
60.4439618382
 20
20.4181312878
 30
0.0
 10
60.5135831486
 20
20.4991024086
 30
0.0
 10
60.55602696
 20
20.56295737
 30
0.0
 10
60.574328938
 20
20.6091748587
 30
0.0
 10
60.5779457758
 20
20.630036814
 30
0.0
 10
60.5779457715
 20
20.6395276597
 30
0.0
  0
SPLINE
  5
26A
100
AcDbEntity
  8
0
100
AcDbSpline
 62
7
  6
BYLAYER
 70
0
 71
3
 72
9
 73
5
 74
0
 42
0.0000001
 43
0.0000001
 44
0.0000000001
 40
0.0
 40
0.0
 40
0.0
 40
0.0
 40
0.4999882044
 40
1.0
 40
1.0
 40
1.0
 40
1.0
 10
60.0091957712
 20
59.4395183981
 30
0.0
 10
60.0091866859
 20
59.3028859958
 30
0.0
 10
59.9865473093
 20
59.02916555
 30
0.0
 10
59.9205873741
 20
58.7627197571
 30
0.0
 10
59.8779457715
 20
58.6329050087
 30
0.0
  0
SPLINE
  5
26B
100
AcDbEntity
  8
0
100
AcDbSpline
 62
7
  6
BYLAYER
 70
0
 71
3
 72
9
 73
5
 74
0
 42
0.0000001
 43
0.0000001
 44
0.0000000001
 40
0.0
 40
0.0
 40
0.0
 40
0.0
 40
0.5000113763
 40
1.0
 40
1.0
 40
1.0
 40
1.0
 10
59.8779457715
 20
60.2461312393
 30
0.0
 10
59.9205848837
 20
60.1163158963
 30
0.0
 10
59.9865481653
 20
59.8498714006
 30
0.0
 10
60.0091862214
 20
59.5761508173
 30
0.0
 10
60.0091957712
 20
59.4395183981
 30
0.0
  0
SPLINE
  5
26C
100
AcDbEntity
  8
0
100
AcDbSpline
 62
7
  6
BYLAYER
 70
0
 71
3
 72
17
 73
13
 74
0
 42
0.0000001
 43
0.0000001
 44
0.0000000001
 40
0.0
 40
0.0
 40
0.0
 40
0.0
 40
0.1741707658
 40
0.3526924027
 40
0.5250799878
 40
0.6793068559
 40
0.8047473328
 40
0.8970490987
 40
0.9307347012
 40
0.9575633724
 40
0.9797214588
 40
1.0
 40
1.0
 40
1.0
 40
1.0
 10
59.8779386638
 20
19.9595225116
 30
0.0
 10
59.8946222682
 20
19.9456965939
 30
0.0
 10
59.9277857333
 20
19.9169436512
 30
0.0
 10
59.975155474
 20
19.8719175187
 30
0.0
 10
60.0181924756
 20
19.8260900136
 30
0.0
 10
60.0540078679
 20
19.7826129645
 30
0.0
 10
60.0796895854
 20
19.7440857165
 30
0.0
 10
60.0934574445
 20
19.7156571013
 30
0.0
 10
60.0975156023
 20
19.6969784871
 30
0.0
 10
60.0973988735
 20
19.6865706081
 30
0.0
 10
60.094529635
 20
19.6782413674
 30
0.0
 10
60.0908432147
 20
19.6742292956
 30
0.0
 10
60.0888107533
 20
19.6727348066
 30
0.0
  0
SPLINE
  5
26D
100
AcDbEntity
  8
0
100
AcDbSpline
 62
7
  6
BYLAYER
 70
0
 71
3
 72
9
 73
5
 74
0
 42
0.0000001
 43
0.0000001
 44
0.0000000001
 40
0.0
 40
0.0
 40
0.0
 40
0.0
 40
0.4994758831
 40
1.0
 40
1.0
 40
1.0
 40
1.0
 10
59.7452577451
 20
19.838138276
 30
0.0
 10
59.6918296346
 20
19.8029494405
 30
0.0
 10
59.5706118358
 20
19.7533961612
 30
0.0
 10
59.4420549374
 20
19.7397302925
 30
0.0
 10
59.3779458955
 20
19.7395185697
 30
0.0
  0
SPLINE
  5
26E
100
AcDbEntity
  8
0
100
AcDbSpline
 62
7
  6
BYLAYER
 70
0
 71
3
 72
18
 73
14
 74
0
 42
0.0000001
 43
0.0000001
 44
0.0000000001
 40
0.0
 40
0.0
 40
0.0
 40
0.0
 40
0.0131729729
 40
0.0302079493
 40
0.0540626065
 40
0.086367617
 40
0.1280082874
 40
0.1788590331
 40
0.3063348685
 40
0.4634627381
 40
0.6392581274
 40
0.821633695
 40
1.0
 40
1.0
 40
1.0
 40
1.0
 10
59.8779460386
 20
19.5486475637
 30
0.0
 10
59.879245329
 20
19.5492430903
 30
0.0
 10
59.881748526
 20
19.5517001838
 30
0.0
 10
59.8832661443
 20
19.5575216403
 30
0.0
 10
59.8832282658
 20
19.5654946361
 30
0.0
 10
59.8814932704
 20
19.5759979811
 30
0.0
 10
59.8779677749
 20
19.5890825154
 30
0.0
 10
59.8702572799
 20
19.6116828502
 30
0.0
 10
59.8559448775
 20
19.6451938539
 30
0.0
 10
59.8336361728
 20
19.6899047365
 30
0.0
 10
59.8066667266
 20
19.7388959461
 30
0.0
 10
59.7768453206
 20
19.788902156
 30
0.0
 10
59.7558569675
 20
19.8219461341
 30
0.0
 10
59.7452582316
 20
19.8381385944
 30
0.0
  0
SPLINE
  5
26F
100
AcDbEntity
  8
0
100
AcDbSpline
 62
7
  6
BYLAYER
 70
0
 71
3
 72
9
 73
5
 74
0
 42
0.0000001
 43
0.0000001
 44
0.0000000001
 40
0.0
 40
0.0
 40
0.0
 40
0.0
 40
0.4999894187
 40
1.0
 40
1.0
 40
1.0
 40
1.0
 10
31.146695774
 20
59.4395188227
 30
0.0
 10
31.1467026158
 20
59.5761515794
 30
0.0
 10
31.1693415546
 20
59.8498721092
 30
0.0
 10
31.2353000062
 20
60.1163188043
 30
0.0
 10
31.2779457715
 20
60.2461318596
 30
0.0
  0
SPLINE
  5
270
100
AcDbEntity
  8
0
100
AcDbSpline
 62
7
  6
BYLAYER
 70
0
 71
3
 72
9
 73
5
 74
0
 42
0.0000001
 43
0.0000001
 44
0.0000000001
 40
0.0
 40
0.0
 40
0.0
 40
0.0
 40
0.5000118148
 40
1.0
 40
1.0
 40
1.0
 40
1.0
 10
31.2779457715
 20
58.6329058799
 30
0.0
 10
31.2353044038
 20
58.7627206376
 30
0.0
 10
31.1693438579
 20
59.0291661165
 30
0.0
 10
31.1467048335
 20
59.3028864952
 30
0.0
 10
31.146695774
 20
59.4395188227
 30
0.0
  0
SPLINE
  5
271
100
AcDbEntity
  8
0
100
AcDbSpline
 62
7
  6
BYLAYER
 70
0
 71
3
 72
18
 73
14
 74
0
 42
0.0000001
 43
0.0000001
 44
0.0000000001
 40
0.0
 40
0.0
 40
0.0
 40
0.0
 40
0.0098662379
 40
0.0260897265
 40
0.0506425922
 40
0.0839125679
 40
0.1257694471
 40
0.1758906393
 40
0.2992461846
 40
0.4493693025
 40
0.6206612729
 40
0.8067941677
 40
1.0
 40
1.0
 40
1.0
 40
1.0
 10
31.2779459442
 20
21.8880481089
 30
0.0
 10
31.277157603
 20
21.8893764804
 30
0.0
 10
31.2776589761
 20
21.8940044089
 30
0.0
 10
31.2824419354
 20
21.9003226419
 30
0.0
 10
31.2905409198
 20
21.9086747032
 30
0.0
 10
31.3026067059
 20
21.9185950989
 30
0.0
 10
31.318385857
 20
21.9302457278
 30
0.0
 10
31.3463135109
 20
21.9491435266
 30
0.0
 10
31.3895053337
 20
21.9756625245
 30
0.0
 10
31.4500557077
 20
22.0100664402
 30
0.0
 10
31.5201460222
 20
22.0475231038
 30
0.0
 10
31.597022145
 20
22.0865459749
 30
0.0
 10
31.6504759295
 20
22.1124376321
 30
0.0
 10
31.6778182925
 20
22.1253754539
 30
0.0
  0
SPLINE
  5
272
100
AcDbEntity
  8
0
100
AcDbSpline
 62
7
  6
BYLAYER
 70
0
 71
3
 72
17
 73
13
 74
0
 42
0.0000001
 43
0.0000001
 44
0.0000000001
 40
0.0
 40
0.0
 40
0.0
 40
0.0
 40
0.0259182507
 40
0.0600236437
 40
0.1022526407
 40
0.1515825798
 40
0.2671777744
 40
0.3990813949
 40
0.5416727763
 40
0.6910845492
 40
0.8445887627
 40
1.0
 40
1.0
 40
1.0
 40
1.0
 10
30.5779457715
 20
24.4395185688
 30
0.0
 10
30.5779458198
 20
24.4293722274
 30
0.0
 10
30.5832264342
 20
24.4060299391
 30
0.0
 10
30.5992447335
 20
24.3693340502
 30
0.0
 10
30.623250525
 20
24.3263053702
 30
0.0
 10
30.6670147561
 20
24.2580143935
 30
0.0
 10
30.7352041269
 20
24.1638347749
 30
0.0
 10
30.8287659662
 20
24.0431420866
 30
0.0
 10
30.9329818513
 20
23.9139850858
 30
0.0
 10
31.0441131656
 20
23.7795700402
 30
0.0
 10
31.1596826494
 20
23.6423205407
 30
0.0
 10
31.2383048333
 20
23.5504323773
 30
0.0
 10
31.2779457715
 20
23.5042799078
 30
0.0
  0
SPLINE
  5
273
100
AcDbEntity
  8
0
100
AcDbSpline
 62
7
  6
BYLAYER
 70
0
 71
3
 72
9
 73
5
 74
0
 42
0.0000001
 43
0.0000001
 44
0.0000000001
 40
0.0
 40
0.0
 40
0.0
 40
0.0
 40
0.2521883926
 40
1.0
 40
1.0
 40
1.0
 40
1.0
 10
59.7452575622
 20
19.8381385555
 30
0.0
 10
59.7579352157
 20
19.8464368286
 30
0.0
 10
59.8066354831
 20
19.881740911
 30
0.0
 10
59.8492782511
 20
19.9249361076
 30
0.0
 10
59.8779468833
 20
19.9595313448
 30
0.0
  0
SPLINE
  5
274
100
AcDbEntity
  8
0
100
AcDbSpline
 62
7
  6
BYLAYER
 70
0
 71
3
 72
16
 73
12
 74
0
 42
0.0000001
 43
0.0000001
 44
0.0000000001
 40
0.0
 40
0.0
 40
0.0
 40
0.0
 40
0.1249602551
 40
0.249982299
 40
0.3749598189
 40
0.499942004
 40
0.6249364494
 40
0.7499412678
 40
0.8124721357
 40
0.8750113105
 40
1.0
 40
1.0
 40
1.0
 40
1.0
 10
31.6777866858
 20
22.1254527232
 30
0.0
 10
31.7631225654
 20
21.943778949
 30
0.0
 10
31.9644130872
 20
21.5940697908
 30
0.0
 10
32.340110081
 20
21.1208305802
 30
0.0
 10
32.7794836434
 20
20.7058373393
 30
0.0
 10
33.2733774485
 20
20.3575074375
 30
0.0
 10
33.8120807249
 20
20.0837887239
 30
0.0
 10
34.2878565035
 20
19.9185648333
 30
0.0
 10
34.6790398172
 20
19.826076643
 30
0.0
 10
35.0756317752
 20
19.7609213613
 30
0.0
 10
35.377189908
 20
19.741248352
 30
0.0
 10
35.5779457726
 20
19.739518567
 30
0.0
  0
ENDSEC
  0
SECTION
  2
OBJECTS
  0
DICTIONARY
  5
C
100
AcDbDictionary
280
0
281
1
  3
ACAD_GROUP
350
D
  3
ACAD_MLINESTYLE
350
17
  3
ACAD_LAYOUT
350
1A
  3
ACAD_PLOTSETTINGS
350
19
  3
ACAD_PLOTSTYLENAME
350
E
  0
DICTIONARY
  5
D
102
{ACAD_REACTORS
330
C
102
}
100
AcDbDictionary
280
0
281
1
  0
ACDBDICTIONARYWDFLT
  5
E
102
{ACAD_REACTORS
330
C
102
}
100
AcDbDictionary
281
1
  3
Normal
350
F
100
AcDbDictionaryWithDefault
340
F
  0
DICTIONARY
  5
17
102
{ACAD_REACTORS
330
C
102
}
100
AcDbDictionary
280
0
281
1
  3
Standard
350
18
  0
DICTIONARY
  5
19
102
{ACAD_REACTORS
330
C
102
}
100
AcDbDictionary
281
1
  0
DICTIONARY
  5
1A
102
{ACAD_REACTORS
330
C
102
}
100
AcDbDictionary
281
1
  3
Model
350
275
  3
Layout1
350
276
  0
ACDBPLACEHOLDER
  5
F
102
{ACAD_REACTORS
330
E
102
}
  0
MLINESTYLE
  5
18
102
{ACAD_REACTORS
330
17
102
}
100
AcDbMlineStyle
  2
STANDARD
 70
0
  3

 62
256
 51
90.0
 52
90.0
 71
2
 49
0.5
 62
256
  6
BYLAYER
 49
-0.5
 62
256
  6
BYLAYER
  0
LAYOUT
  5
275
102
{ACAD_REACTORS
330
1A
102
}
100
AcDbPlotSettings
  1

  2
none_device
  4

  6

 40
0.0
 41
0.0
 42
0.0
 43
0.0
 44
210.0
 45
297.0
 46
0.0
 47
0.0
 48
0.0
 49
0.0
140
0.0
141
0.0
142
1.0
143
1.0
 70
1024
 72
1
 73
0
 74
0
  7

 75
0
147
1.0
148
0.0
149
0.0
100
AcDbLayout
  1
Model
 70
0
 71
0
 10
0.0
 20
0.0
 11
210.0
 21
297.0
 12
0.0
 22
0.0
 32
0.0
 14
0.0
 24
0.0
 34
0.0
 15
0.0
 25
0.0
 35
0.0
146
0.0
 13
0.0
 23
0.0
 33
0.0
 16
1.0
 26
0.0
 36
0.0
 17
0.0
 27
1.0
 37
0.0
 76
0
330
211
345
0
346
0
  0
LAYOUT
  5
276
102
{ACAD_REACTORS
330
1A
102
}
100
AcDbPlotSettings
  1

  2
none_device
  4

  6

 40
0.0
 41
0.0
 42
0.0
 43
0.0
 44
210.0
 45
297.0
 46
0.0
 47
0.0
 48
0.0
 49
0.0
140
0.0
141
0.0
142
1.0
143
1.0
 70
0
 72
1
 73
0
 74
0
  7

 75
0
147
1.0
148
0.0
149
0.0
100
AcDbLayout
  1
Layout1
 70
0
 71
1
 10
0.0
 20
0.0
 11
210.0
 21
297.0
 12
0.0
 22
0.0
 32
0.0
 14
0.0
 24
0.0
 34
0.0
 15
0.0
 25
0.0
 35
0.0
146
0.0
 13
0.0
 23
0.0
 33
0.0
 16
1.0
 26
0.0
 36
0.0
 17
0.0
 27
1.0
 37
0.0
 76
0
330
212
345
0
346
0
  0
ENDSEC
  0
EOF
