999
DXF file: C:\Users\sesa63760\Dev\_Creo\CAD\MCADID0001232_3D-CAD\drw0001_7.dxf
999
Pro/ENGINEER 2019471 by Parametric Technology Corporation
  0
SECTION
  2
HEADER
  9
$ACADVER
  1
AC1024
  9
$DWGCODEPAGE
  3
ANSI_1252
  9
$EXTMAX
 10
94.4876993044
 20
133.6326033019
 30
0.0
  9
$EXTMIN
 10
0.0
 20
0.0
 30
0.0
  9
$LIMMIN
 10
0.0
 20
0.0
  9
$LIMMAX
 10
94.4876993044
 20
133.6326033019
  9
$VIEWCTR
 10
47.2438496522
 20
66.816301651
  9
$VIEWSIZE
 40
133.6326033019
  9
$CLAYER
  8
0
  9
$LTSCALE
 40
8.710865993
  9
$CELTYPE
  6
BYLAYER
  9
$DIMSCALE
 40
1.0
  9
$DIMASZ
 40
1.1248535631
  9
$DIMEXO
 40
1.0
  9
$DIMDLI
 40
6.0184165043
  9
$DIMEXE
 40
1.0
  9
$DIMCEN
 40
1.4254144352
  9
$DIMLFAC
 40
1.0
  9
$DIMBLK
  1
_FILLED
  9
$DIMALT
 70
0
  9
$DIMALTF
 40
0.0393700787
  9
$DIMTXT
 40
1.5747949884
  9
$DIMTOL
 70
1
  9
$DIMLIM
 70
0
  9
$DIMTFAC
 40
1.0
  9
$DIMTP
 40
0.01
  9
$DIMTM
 40
0.01
  9
$DIMGAP
 40
0.625
  9
$DIMDSEP
 70
46
  9
$AUNITS
 70
0
  9
$PDMODE
 70
3
  9
$PDSIZE
 40
0.3125
  9
$HANDSEED
  5
296
  9
$TILEMODE
 70
1
  9
$MEASUREMENT
 70
1
  9
$INSUNITS
 70
4
  0
ENDSEC
  0
SECTION
  2
CLASSES
  0
CLASS
  1
ACDBDICTIONARYWDFLT
  2
AcDbDictionaryWithDefault
  3
AutoCAD 2000
 90
0
 91
1
280
0
281
0
  0
CLASS
  1
ACDBPLACEHOLDER
  2
AcDbPlaceHolder
  3
AutoCAD 2000
 90
0
 91
1
280
0
281
0
  0
CLASS
  1
LAYOUT
  2
AcDbLayout
  3
AutoCAD 2000
 90
0
 91
0
280
0
281
0
  0
ENDSEC
  0
SECTION
  2
TABLES
  0
TABLE
  2
VPORT
  5
8
100
AcDbSymbolTable
 70
2
  0
VPORT
  5
1F4
100
AcDbSymbolTableRecord
100
AcDbViewportTableRecord
  2
*ACTIVE
 70
0
 10
0.0
 20
0.0
 11
1.0
 21
1.0
 12
47.2438496522
 22
66.816301651
 13
0.0
 23
0.0
 14
1.0
 24
1.0
 15
0.0
 25
0.0
 16
0.0
 26
0.0
 36
1.0
 17
0.0
 27
0.0
 37
0.0
 40
133.6326033019
 41
0.7070707071
 42
50.0
 43
0.0
 44
0.0
 50
0.0
 51
0.0
 71
0
 72
100
 73
1
 74
1
 75
0
 76
0
 77
0
 78
0
  0
ENDTAB
  0
TABLE
  2
LTYPE
  5
5
100
AcDbSymbolTable
 70
6
  0
LTYPE
  5
14
100
AcDbSymbolTableRecord
100
AcDbLinetypeTableRecord
  2
BYBLOCK
 70
0
  3

 72
65
 73
0
 40
0.0
  0
LTYPE
  5
15
100
AcDbSymbolTableRecord
100
AcDbLinetypeTableRecord
  2
BYLAYER
 70
0
  3

 72
65
 73
0
 40
0.0
  0
LTYPE
  5
16
100
AcDbSymbolTableRecord
100
AcDbLinetypeTableRecord
  2
CONTINUOUS
 70
64
  3
Solid line
 72
65
 73
0
 40
0.0
  0
LTYPE
  5
1F5
100
AcDbSymbolTableRecord
100
AcDbLinetypeTableRecord
  2
CENTER
 70
64
  3
____ _ ____ _ ____ _ ____ _ ____ _ ____ _ ____
 72
65
 73
4
 40
0.6
 49
0.375
 74
0
 49
-0.075
 74
0
 49
0.075
 74
0
 49
-0.075
 74
0
  0
LTYPE
  5
1F6
100
AcDbSymbolTableRecord
100
AcDbLinetypeTableRecord
  2
HIDDEN
 70
64
  3
- - - - - - - - - - - - - - - - - - - -
 72
65
 73
2
 40
0.2
 49
0.1
 74
0
 49
-0.1
 74
0
  0
LTYPE
  5
1F7
100
AcDbSymbolTableRecord
100
AcDbLinetypeTableRecord
  2
PHANTOM
 70
64
  3
_____ _ _ _____ _ _ _____ _ _ _____
 72
65
 73
6
 40
0.8
 49
0.45
 74
0
 49
-0.05
 74
0
 49
0.1
 74
0
 49
-0.05
 74
0
 49
0.1
 74
0
 49
-0.05
 74
0
  0
LTYPE
  5
1F8
100
AcDbSymbolTableRecord
100
AcDbLinetypeTableRecord
  2
DOT
 70
64
  3
. . . . . . . . . . . . . . . . . . . .
 72
65
 73
2
 40
0.2
 49
0.1
 74
0
 49
-0.1
 74
0
  0
LTYPE
  5
1F9
100
AcDbSymbolTableRecord
100
AcDbLinetypeTableRecord
  2
DASHED
 70
64
  3
- - - - - - - - - - - - - - - - - - - -
 72
65
 73
2
 40
0.2
 49
0.1
 74
0
 49
-0.1
 74
0
  0
ENDTAB
  0
TABLE
  2
LAYER
  5
2
100
AcDbSymbolTable
 70
36
  0
LAYER
  5
10
100
AcDbSymbolTableRecord
100
AcDbLayerTableRecord
  2
0
 70
0
 62
7
  6
CONTINUOUS
370
-3
390
F
  0
LAYER
  5
1FA
100
AcDbSymbolTableRecord
100
AcDbLayerTableRecord
  2
DEFAULT_1
 70
0
 62
7
  6
CENTER
370
-3
390
F
  0
LAYER
  5
1FB
100
AcDbSymbolTableRecord
100
AcDbLayerTableRecord
  2
DEFAULT_2
 70
0
 62
8
  6
HIDDEN
370
-3
390
F
  0
LAYER
  5
1FC
100
AcDbSymbolTableRecord
100
AcDbLayerTableRecord
  2
DEFAULT_3
 70
0
 62
7
  6
PHANTOM
370
-3
390
F
  0
LAYER
  5
1FD
100
AcDbSymbolTableRecord
100
AcDbLayerTableRecord
  2
00_COMPONENTS
 70
0
 62
7
  6
CONTINUOUS
370
-3
390
F
  0
LAYER
  5
1FE
100
AcDbSymbolTableRecord
100
AcDbLayerTableRecord
  2
01_1_DEFAULT_DATUMS
 70
0
 62
7
  6
CONTINUOUS
370
-3
390
F
  0
LAYER
  5
1FF
100
AcDbSymbolTableRecord
100
AcDbLayerTableRecord
  2
01_PLANES
 70
0
 62
7
  6
CONTINUOUS
370
-3
390
F
  0
LAYER
  5
200
100
AcDbSymbolTableRecord
100
AcDbLayerTableRecord
  2
02_COORD_SYS
 70
0
 62
7
  6
CONTINUOUS
370
-3
390
F
  0
LAYER
  5
201
100
AcDbSymbolTableRecord
100
AcDbLayerTableRecord
  2
03_AXES
 70
0
 62
7
  6
CONTINUOUS
370
-3
390
F
  0
LAYER
  5
202
100
AcDbSymbolTableRecord
100
AcDbLayerTableRecord
  2
04_POINTS
 70
0
 62
7
  6
CONTINUOUS
370
-3
390
F
  0
LAYER
  5
203
100
AcDbSymbolTableRecord
100
AcDbLayerTableRecord
  2
05_CURVES
 70
0
 62
7
  6
CONTINUOUS
370
-3
390
F
  0
LAYER
  5
204
100
AcDbSymbolTableRecord
100
AcDbLayerTableRecord
  2
06_SURFS
 70
0
 62
7
  6
CONTINUOUS
370
-3
390
F
  0
LAYER
  5
205
100
AcDbSymbolTableRecord
100
AcDbLayerTableRecord
  2
07_COSMETICS
 70
0
 62
7
  6
CONTINUOUS
370
-3
390
F
  0
LAYER
  5
206
100
AcDbSymbolTableRecord
100
AcDbLayerTableRecord
  2
10_NOTES
 70
0
 62
7
  6
CONTINUOUS
370
-3
390
F
  0
LAYER
  5
207
100
AcDbSymbolTableRecord
100
AcDbLayerTableRecord
  2
11_NOTES_PUB
 70
0
 62
7
  6
CONTINUOUS
370
-3
390
F
  0
LAYER
  5
208
100
AcDbSymbolTableRecord
100
AcDbLayerTableRecord
  2
13_REF_GTOL
 70
0
 62
7
  6
CONTINUOUS
370
-3
390
F
  0
LAYER
  5
209
100
AcDbSymbolTableRecord
100
AcDbLayerTableRecord
  2
16_MISC
 70
0
 62
7
  6
CONTINUOUS
370
-3
390
F
  0
LAYER
  5
20A
100
AcDbSymbolTableRecord
100
AcDbLayerTableRecord
  2
17_NO_PRINT
 70
0
 62
7
  6
CONTINUOUS
370
-3
390
F
  0
LAYER
  5
20B
100
AcDbSymbolTableRecord
100
AcDbLayerTableRecord
  2
18_DATUM_CAMS_JOINTS
 70
0
 62
7
  6
CONTINUOUS
370
-3
390
F
  0
LAYER
  5
20C
100
AcDbSymbolTableRecord
100
AcDbLayerTableRecord
  2
19_DATUM_FUNCTIONAL
 70
0
 62
7
  6
CONTINUOUS
370
-3
390
F
  0
LAYER
  5
20D
100
AcDbSymbolTableRecord
100
AcDbLayerTableRecord
  2
20_DATUM_KINEMATIC_SCHEME
 70
0
 62
7
  6
CONTINUOUS
370
-3
390
F
  0
ENDTAB
  0
TABLE
  2
STYLE
  5
3
100
AcDbSymbolTable
 70
1
  0
STYLE
  5
11
100
AcDbSymbolTableRecord
100
AcDbTextStyleTableRecord
  2
STANDARD
 70
0
 40
0.0
 41
0.8
 50
0.0
 71
0
 42
0.2
  3
txt
  4

  0
STYLE
  5
20E
100
AcDbSymbolTableRecord
100
AcDbTextStyleTableRecord
  2
TEXTSTYLE_1
 70
0
 40
0.0
 41
0.8
 50
0.0
 71
0
 42
0.2
  3
gdt
  4

  0
ENDTAB
  0
TABLE
  2
VIEW
  5
6
100
AcDbSymbolTable
 70
0
  0
ENDTAB
  0
TABLE
  2
UCS
  5
7
100
AcDbSymbolTable
 70
0
  0
ENDTAB
  0
TABLE
  2
APPID
  5
9
100
AcDbSymbolTable
 70
1
  0
APPID
  5
20F
100
AcDbSymbolTableRecord
100
AcDbRegAppTableRecord
  2
ACAD
 70
0
  0
ENDTAB
  0
TABLE
  2
BLOCK_RECORD
  5
1
100
AcDbSymbolTable
 70
0
  0
BLOCK_RECORD
  5
210
100
AcDbSymbolTableRecord
100
AcDbBlockTableRecord
  2
*Model_Space
  0
BLOCK_RECORD
  5
211
100
AcDbSymbolTableRecord
100
AcDbBlockTableRecord
  2
*Paper_Space
  0
BLOCK_RECORD
  5
212
100
AcDbSymbolTableRecord
100
AcDbBlockTableRecord
  2
_FILLED
  0
ENDTAB
  0
TABLE
  2
DIMSTYLE
  5
A
100
AcDbSymbolTable
 70
1
100
AcDbDimStyleTable
 71
0
  0
DIMSTYLE
105
213
100
AcDbSymbolTableRecord
100
AcDbDimStyleTableRecord
  2
STANDARD
 70
0
  3

  4

 40
1.0
 41
1.1248535631
 42
1.0
 43
0.38
 44
1.0
 45
0.0
 46
0.0
 47
0.01
 48
0.01
140
1.5747949884
141
0.09
142
0.0
143
25.4
144
1.0
145
0.0
146
1.0
147
0.625
 71
1
 72
0
 73
0
 74
0
 75
0
 76
0
 77
1
 78
8
 79
2
170
0
171
1
172
0
173
0
174
0
175
0
176
0
177
0
178
0
270
2
179
2
271
2
272
2
273
2
274
2
275
0
280
0
281
0
282
0
283
1
284
8
285
0
286
0
287
3
288
0
340
11
278
46
341
212
342
212
343
212
344
212
  0
ENDTAB
  0
ENDSEC
  0
SECTION
  2
BLOCKS
  0
BLOCK
  5
20
100
AcDbEntity
  8
0
100
AcDbBlockBegin
  2
*Model_Space
 70
0
 10
0.0
 20
0.0
 30
0.0
  3
*Model_Space
  1

  0
ENDBLK
  5
21
100
AcDbEntity
  8
0
100
AcDbBlockEnd
  0
BLOCK
  5
1C
100
AcDbEntity
  8
0
100
AcDbBlockBegin
  2
*Paper_Space
 70
0
 10
0.0
 20
0.0
 30
0.0
  3
*Paper_Space
  1

  0
ENDBLK
  5
1D
100
AcDbEntity
  8
0
100
AcDbBlockEnd
  0
BLOCK
  5
214
100
AcDbEntity
  8
0
100
AcDbBlockBegin
  2
_FILLED
 70
64
 10
0.0
 20
0.0
  3
_FILLED
  1

  0
SOLID
  5
215
100
AcDbEntity
  8
0
  6
BYBLOCK
 62
0
100
AcDbTrace
 10
0.0
 20
0.0
 11
-1.0
 21
0.25
 12
-1.0
 22
-0.25
 13
-1.0
 23
-0.25
  0
ENDBLK
  5
216
100
AcDbEntity
  8
0
  6
BYBLOCK
 62
0
100
AcDbBlockEnd
  0
ENDSEC
  0
SECTION
  2
ENTITIES
  0
LINE
  5
217
100
AcDbEntity
  8
0
100
AcDbLine
 62
7
  6
CONTINUOUS
 10
36.1574209263
 20
9.8956823743
 11
58.657408374
 21
9.8956823743
  0
LINE
  5
218
100
AcDbEntity
  8
0
100
AcDbLine
 62
7
  6
CONTINUOUS
 10
36.1574209263
 20
17.2667484749
 11
58.657408374
 21
17.2667484749
  0
LINE
  5
219
100
AcDbEntity
  8
0
100
AcDbLine
 62
7
  6
CONTINUOUS
 10
57.401834293
 20
19.9403252317
 11
37.4129950073
 21
19.9403252317
  0
LINE
  5
21A
100
AcDbEntity
  8
0
100
AcDbLine
 62
7
  6
CONTINUOUS
 10
57.401834293
 20
25.3127310801
 11
37.4129950073
 21
25.3127310801
  0
LINE
  5
21B
100
AcDbEntity
  8
0
100
AcDbLine
 62
7
  6
CONTINUOUS
 10
41.0239246322
 20
21.8882173854
 11
38.6882353219
 21
23.3362369824
  0
LINE
  5
21C
100
AcDbEntity
  8
0
100
AcDbLine
 62
7
  6
CONTINUOUS
 10
39.5786293092
 20
23.5611675948
 11
41.7257397939
 21
22.2300581681
  0
LINE
  5
21D
100
AcDbEntity
  8
0
100
AcDbLine
 62
7
  6
CONTINUOUS
 10
45.9943568
 20
21.8873868771
 11
43.6586049992
 21
23.3354452154
  0
LINE
  5
21E
100
AcDbEntity
  8
0
100
AcDbLine
 62
7
  6
CONTINUOUS
 10
44.5489989866
 20
23.5603758278
 11
46.6972528864
 21
22.2285575365
  0
LINE
  5
21F
100
AcDbEntity
  8
0
100
AcDbLine
 62
7
  6
CONTINUOUS
 10
50.9589291719
 20
21.8901891719
 11
48.6236549181
 21
23.337951453
  0
LINE
  5
220
100
AcDbEntity
  8
0
100
AcDbLine
 62
7
  6
CONTINUOUS
 10
49.5140489054
 20
23.5628820653
 11
51.6586832158
 21
22.2333077524
  0
LINE
  5
221
100
AcDbEntity
  8
0
100
AcDbLine
 62
7
  6
CONTINUOUS
 10
39.2760102321
 20
110.3507716632
 11
36.1574209263
 21
106.1358013798
  0
LINE
  5
222
100
AcDbEntity
  8
0
100
AcDbLine
 62
7
  6
CONTINUOUS
 10
55.9294925703
 20
21.8892773064
 11
53.5940245951
 21
23.3371596858
  0
LINE
  5
223
100
AcDbEntity
  8
0
100
AcDbLine
 62
7
  6
CONTINUOUS
 10
54.484418583
 20
23.5620902984
 11
56.6301984728
 21
22.2318057791
  0
LINE
  5
224
100
AcDbEntity
  8
0
100
AcDbLine
 62
7
  6
CONTINUOUS
 10
37.4129950073
 20
38.5669450126
 11
57.401834293
 21
38.5669450126
  0
LINE
  5
225
100
AcDbEntity
  8
0
100
AcDbLine
 62
7
  6
CONTINUOUS
 10
37.4129950073
 20
41.1544345683
 11
57.401834293
 21
41.1544345683
  0
LINE
  5
226
100
AcDbEntity
  8
0
100
AcDbLine
 62
7
  6
CONTINUOUS
 10
37.4129950073
 20
43.2785575152
 11
57.401834293
 21
43.2785575152
  0
LINE
  5
227
100
AcDbEntity
  8
0
100
AcDbLine
 62
7
  6
CONTINUOUS
 10
41.0239246322
 20
43.8654443854
 11
38.6810274604
 21
45.3179325239
  0
LINE
  5
228
100
AcDbEntity
  8
0
100
AcDbLine
 62
7
  6
CONTINUOUS
 10
57.401834293
 20
47.2989682447
 11
37.4129950073
 21
47.2989682447
  0
LINE
  5
229
100
AcDbEntity
  8
0
100
AcDbLine
 62
7
  6
CONTINUOUS
 10
39.5714214477
 20
45.5428631363
 11
41.7257397939
 21
44.2072851681
  0
LINE
  5
22A
100
AcDbEntity
  8
0
100
AcDbLine
 62
7
  6
CONTINUOUS
 10
45.9943568
 20
43.8646138771
 11
43.6513971377
 21
45.3171407569
  0
LINE
  5
22B
100
AcDbEntity
  8
0
100
AcDbLine
 62
7
  6
CONTINUOUS
 10
44.5417911251
 20
45.5420713693
 11
46.6972528864
 21
44.2057845365
  0
LINE
  5
22C
100
AcDbEntity
  8
0
100
AcDbLine
 62
7
  6
CONTINUOUS
 10
50.9589291719
 20
43.8674161719
 11
48.6164470567
 21
45.3196469945
  0
LINE
  5
22D
100
AcDbEntity
  8
0
100
AcDbLine
 62
7
  6
CONTINUOUS
 10
49.5068410439
 20
45.5445776069
 11
51.6586832158
 21
44.2105347524
  0
LINE
  5
22E
100
AcDbEntity
  8
0
100
AcDbLine
 62
7
  6
CONTINUOUS
 10
55.9294925703
 20
43.8665043064
 11
53.5868167336
 21
45.3188552274
  0
LINE
  5
22F
100
AcDbEntity
  8
0
100
AcDbLine
 62
7
  6
CONTINUOUS
 10
36.1574209263
 20
9.8956823743
 11
36.1574209263
 21
122.9624099143
  0
LINE
  5
230
100
AcDbEntity
  8
0
100
AcDbLine
 62
7
  6
CONTINUOUS
 10
54.4772107215
 20
45.5437858399
 11
56.6301984728
 21
44.2090327791
  0
LINE
  5
231
100
AcDbEntity
  8
0
100
AcDbLine
 62
7
  6
CONTINUOUS
 10
37.4129950073
 20
19.9403252317
 11
37.4129950073
 21
65.3078572942
  0
LINE
  5
232
100
AcDbEntity
  8
0
100
AcDbLine
 62
7
  6
CONTINUOUS
 10
38.7368265401
 20
122.9624099143
 11
38.7368265401
 21
124.3911809194
  0
LINE
  5
233
100
AcDbEntity
  8
0
100
AcDbLine
 62
7
  6
CONTINUOUS
 10
39.2760102297
 20
110.3507716634
 11
39.2760102297
 21
88.654343089
  0
LINE
  5
234
100
AcDbEntity
  8
0
100
AcDbLine
 62
7
  6
CONTINUOUS
 10
41.0239246325
 20
21.8882173854
 11
41.0239246325
 21
22.6651511844
  0
LINE
  5
235
100
AcDbEntity
  8
0
100
AcDbLine
 62
7
  6
CONTINUOUS
 10
41.0239246325
 20
43.8654443854
 11
41.0239246325
 21
44.6423781844
  0
LINE
  5
236
100
AcDbEntity
  8
0
100
AcDbLine
 62
7
  6
CONTINUOUS
 10
55.5388190671
 20
88.6543430856
 11
58.657408374
 21
92.8693133704
  0
LINE
  5
237
100
AcDbEntity
  8
0
100
AcDbLine
 62
7
  6
CONTINUOUS
 10
37.4129950073
 20
60.5531821771
 11
57.401834293
 21
60.5531821771
  0
LINE
  5
238
100
AcDbEntity
  8
0
100
AcDbLine
 62
7
  6
CONTINUOUS
 10
37.4129950073
 20
63.1406717308
 11
57.401834293
 21
63.1406717308
  0
LINE
  5
239
100
AcDbEntity
  8
0
100
AcDbLine
 62
7
  6
CONTINUOUS
 10
45.9930171706
 20
21.8882173856
 11
45.9930171706
 21
22.6651511848
  0
LINE
  5
23A
100
AcDbEntity
  8
0
100
AcDbLine
 62
7
  6
CONTINUOUS
 10
45.9930171706
 20
43.8654443856
 11
45.9930171706
 21
44.6423781848
  0
LINE
  5
23B
100
AcDbEntity
  8
0
100
AcDbLine
 62
7
  6
CONTINUOUS
 10
57.401834293
 20
65.3078572942
 11
37.4129950073
 21
65.3078572942
  0
LINE
  5
23C
100
AcDbEntity
  8
0
100
AcDbLine
 62
7
  6
CONTINUOUS
 10
50.9621097094
 20
21.8882173854
 11
50.9621097094
 21
22.6651511845
  0
LINE
  5
23D
100
AcDbEntity
  8
0
100
AcDbLine
 62
7
  6
CONTINUOUS
 10
50.9621097094
 20
43.8654443854
 11
50.9621097094
 21
44.6423781845
  0
LINE
  5
23E
100
AcDbEntity
  8
0
100
AcDbLine
 62
7
  6
CONTINUOUS
 10
55.51954749
 20
122.9624099143
 11
55.51954749
 21
124.3911809194
  0
LINE
  5
23F
100
AcDbEntity
  8
0
100
AcDbLine
 62
7
  6
CONTINUOUS
 10
55.5388190671
 20
110.3507716633
 11
55.5388190671
 21
88.6543430856
  0
LINE
  5
240
100
AcDbEntity
  8
0
100
AcDbLine
 62
7
  6
CONTINUOUS
 10
36.1574209263
 20
92.8693133691
 11
39.2760102321
 21
88.6543430858
  0
LINE
  5
241
100
AcDbEntity
  8
0
100
AcDbLine
 62
7
  6
CONTINUOUS
 10
55.9312022481
 20
21.8882173857
 11
55.9312022481
 21
22.6651511848
  0
LINE
  5
242
100
AcDbEntity
  8
0
100
AcDbLine
 62
7
  6
CONTINUOUS
 10
55.9312022481
 20
43.8654443857
 11
55.9312022481
 21
44.6423781848
  0
LINE
  5
243
100
AcDbEntity
  8
0
100
AcDbLine
 62
7
  6
CONTINUOUS
 10
57.401834293
 20
65.3078572942
 11
57.401834293
 21
19.9403252317
  0
LINE
  5
244
100
AcDbEntity
  8
0
100
AcDbLine
 62
7
  6
CONTINUOUS
 10
58.657408374
 20
9.8956823743
 11
58.657408374
 21
122.9624099143
  0
LINE
  5
245
100
AcDbEntity
  8
0
100
AcDbLine
 62
7
  6
CONTINUOUS
 10
45.9930171707
 20
43.8654443854
 11
46.6948323322
 21
44.2072851681
  0
LINE
  5
246
100
AcDbEntity
  8
0
100
AcDbLine
 62
7
  6
CONTINUOUS
 10
58.657408374
 20
88.654343089
 11
55.538819069
 21
88.654343089
  0
LINE
  5
247
100
AcDbEntity
  8
0
100
AcDbLine
 62
7
  6
CONTINUOUS
 10
39.2760102297
 20
88.654343089
 11
36.1574209263
 21
88.654343089
  0
LINE
  5
248
100
AcDbEntity
  8
0
100
AcDbLine
 62
7
  6
CONTINUOUS
 10
55.5388190669
 20
110.3507716634
 11
58.657408374
 21
106.1358013784
  0
LINE
  5
249
100
AcDbEntity
  8
0
100
AcDbLine
 62
7
  6
CONTINUOUS
 10
45.9930171707
 20
21.8882173854
 11
46.6948323322
 21
22.2300581681
  0
LINE
  5
24A
100
AcDbEntity
  8
0
100
AcDbLine
 62
7
  6
CONTINUOUS
 10
58.657408374
 20
110.3507716634
 11
55.5388190669
 21
110.3507716634
  0
LINE
  5
24B
100
AcDbEntity
  8
0
100
AcDbLine
 62
7
  6
CONTINUOUS
 10
39.2760102325
 20
110.3507716634
 11
36.1574209263
 21
110.3507716634
  0
LINE
  5
24C
100
AcDbEntity
  8
0
100
AcDbLine
 62
7
  6
CONTINUOUS
 10
36.1574209263
 20
113.3564144674
 11
58.657408374
 21
113.3564144674
  0
LINE
  5
24D
100
AcDbEntity
  8
0
100
AcDbLine
 62
7
  6
CONTINUOUS
 10
58.657408374
 20
121.8565584517
 11
36.1574209263
 21
121.8565584517
  0
LINE
  5
24E
100
AcDbEntity
  8
0
100
AcDbLine
 62
7
  6
CONTINUOUS
 10
36.1574209263
 20
122.9624099143
 11
58.657408374
 21
122.9624099143
  0
LINE
  5
24F
100
AcDbEntity
  8
0
100
AcDbLine
 62
7
  6
CONTINUOUS
 10
55.51954749
 20
124.3911809194
 11
38.7368265401
 21
124.3911809194
  0
ARC
  5
250
100
AcDbEntity
  8
0
100
AcDbCircle
 62
7
  6
CONTINUOUS
 10
48.5465790365
 20
23.0286946816
 40
0.8989849332
100
AcDbArc
 50
209.4083027577
 51
212.4340143197
  0
ARC
  5
251
100
AcDbEntity
  8
0
100
AcDbCircle
 62
7
  6
CONTINUOUS
 10
53.5199757932
 20
23.0286315386
 40
0.8988606448
100
AcDbArc
 50
209.38915053
 51
212.4362083996
  0
ARC
  5
252
100
AcDbEntity
  8
0
100
AcDbCircle
 62
7
  6
CONTINUOUS
 10
38.617714386
 20
23.0285580595
 40
0.8987160203
100
AcDbArc
 50
209.3668201578
 51
212.4387918903
  0
ARC
  5
253
100
AcDbEntity
  8
0
100
AcDbCircle
 62
7
  6
CONTINUOUS
 10
48.5448715589
 20
45.0049202782
 40
0.8970057582
100
AcDbArc
 50
209.406134696
 51
212.2295140322
  0
ARC
  5
254
100
AcDbEntity
  8
0
100
AcDbCircle
 62
7
  6
CONTINUOUS
 10
53.5182668991
 20
45.004856783
 40
0.8968800741
100
AcDbArc
 50
209.3869647117
 51
212.2314957409
  0
ARC
  5
255
100
AcDbEntity
  8
0
100
AcDbCircle
 62
7
  6
CONTINUOUS
 10
38.6160038394
 20
45.0047828935
 40
0.8967338218
100
AcDbArc
 50
209.3646135795
 51
212.2338315392
  0
ARC
  5
256
100
AcDbEntity
  8
0
100
AcDbCircle
 62
7
  6
CONTINUOUS
 10
38.5652281428
 20
22.9990976259
 40
0.838526998
100
AcDbArc
 50
203.5872404519
 51
209.3712275061
  0
ARC
  5
257
100
AcDbEntity
  8
0
100
AcDbCircle
 62
7
  6
CONTINUOUS
 10
48.4832308795
 20
22.9937887668
 40
0.8266600942
100
AcDbArc
 50
203.5284675992
 51
209.4566682056
  0
ARC
  5
258
100
AcDbEntity
  8
0
100
AcDbCircle
 62
7
  6
CONTINUOUS
 10
53.4566650002
 20
22.9937603369
 40
0.8265851569
100
AcDbArc
 50
203.5361495178
 51
209.436670109
  0
ARC
  5
259
100
AcDbEntity
  8
0
100
AcDbCircle
 62
7
  6
CONTINUOUS
 10
48.4817793052
 20
44.9702806103
 40
0.8250346469
100
AcDbArc
 50
203.2923936012
 51
209.4617872746
  0
ARC
  5
25A
100
AcDbEntity
  8
0
100
AcDbCircle
 62
7
  6
CONTINUOUS
 10
53.4552131955
 20
44.9702523214
 40
0.8249595526
100
AcDbArc
 50
203.3000017244
 51
209.4417666362
  0
ARC
  5
25B
100
AcDbEntity
  8
0
100
AcDbCircle
 62
7
  6
CONTINUOUS
 10
38.5529949161
 20
44.9702193679
 40
0.8248720848
100
AcDbArc
 50
203.3088789781
 51
209.4184253431
  0
SPLINE
  5
25C
100
AcDbEntity
  8
0
100
AcDbSpline
 62
7
  6
CONTINUOUS
 70
0
 71
3
 72
11
 73
7
 74
0
 42
0.0000001
 43
0.0000001
 44
0.0000000001
 40
0.0
 40
0.0
 40
0.0
 40
0.0
 40
0.2102047643
 40
0.4402446013
 40
0.702172341
 40
1.0
 40
1.0
 40
1.0
 40
1.0
 10
37.7358791792
 20
22.3717691816
 30
0.0
 10
37.7358791792
 20
22.458557368
 30
0.0
 10
37.7733420297
 20
22.6417127979
 30
0.0
 10
37.9299213939
 20
22.8911754735
 30
0.0
 10
38.1738771948
 20
23.1120651232
 30
0.0
 10
38.3748188062
 20
23.2292196873
 30
0.0
 10
38.4855256358
 20
23.2827406974
 30
0.0
  0
SPLINE
  5
25D
100
AcDbEntity
  8
0
100
AcDbSpline
 62
7
  6
CONTINUOUS
 70
0
 71
3
 72
17
 73
13
 74
0
 42
0.0000001
 43
0.0000001
 44
0.0000000001
 40
0.0
 40
0.0
 40
0.0
 40
0.0
 40
0.1323286361
 40
0.2767169038
 40
0.4254576215
 40
0.5701427342
 40
0.7030206807
 40
0.8185223606
 40
0.8692633409
 40
0.9157109337
 40
0.95882581
 40
1.0
 40
1.0
 40
1.0
 40
1.0
 10
38.4855256358
 20
23.2827406974
 30
0.0
 10
38.6538439589
 20
23.3641138765
 30
0.0
 10
39.0262370127
 20
23.4929618993
 30
0.0
 10
39.6221143584
 20
23.5883077753
 30
0.0
 10
40.2431662028
 20
23.5900578193
 30
0.0
 10
40.8411379658
 20
23.4978115653
 30
0.0
 10
41.3699382753
 20
23.3189452487
 30
0.0
 10
41.7367409951
 20
23.098168715
 30
0.0
 10
41.9516633161
 20
22.8862148248
 30
0.0
 10
42.0655269994
 20
22.7222461725
 30
0.0
 10
42.1354792623
 20
22.5495214236
 30
0.0
 10
42.1515954941
 20
22.4299408199
 30
0.0
 10
42.1515954941
 20
22.3717691816
 30
0.0
  0
SPLINE
  5
25E
100
AcDbEntity
  8
0
100
AcDbSpline
 62
7
  6
CONTINUOUS
 70
0
 71
3
 72
11
 73
7
 74
0
 42
0.0000001
 43
0.0000001
 44
0.0000000001
 40
0.0
 40
0.0
 40
0.0
 40
0.0
 40
0.2102923014
 40
0.4403658691
 40
0.7022565972
 40
1.0
 40
1.0
 40
1.0
 40
1.0
 10
42.7093830879
 20
22.3717691816
 30
0.0
 10
42.7093830879
 20
22.4583977091
 30
0.0
 10
42.7466975162
 20
22.6411876321
 30
0.0
 10
42.9027041554
 20
22.890254642
 30
0.0
 10
43.1458324254
 20
23.1108948854
 30
0.0
 10
43.3461384314
 20
23.2279962349
 30
0.0
 10
43.4564993922
 20
23.2815156033
 30
0.0
  0
SPLINE
  5
25F
100
AcDbEntity
  8
0
100
AcDbSpline
 62
7
  6
CONTINUOUS
 70
0
 71
3
 72
17
 73
13
 74
0
 42
0.0000001
 43
0.0000001
 44
0.0000000001
 40
0.0
 40
0.0
 40
0.0
 40
0.0
 40
0.1322522848
 40
0.2766041467
 40
0.4253444954
 40
0.5700542742
 40
0.7029676359
 40
0.8185011252
 40
0.8692531231
 40
0.9157074484
 40
0.9588252316
 40
1.0
 40
1.0
 40
1.0
 40
1.0
 10
43.4564993922
 20
23.2815156033
 30
0.0
 10
43.6247326186
 20
23.3631000329
 30
0.0
 10
43.9971100337
 20
23.4923329907
 30
0.0
 10
44.5931597817
 20
23.5881316502
 30
0.0
 10
45.2146069917
 20
23.5902314583
 30
0.0
 10
45.8131040349
 20
23.4982038384
 30
0.0
 10
46.3424591629
 20
23.3194187107
 30
0.0
 10
46.7096988206
 20
23.0986002319
 30
0.0
 10
46.9248992422
 20
22.8865435392
 30
0.0
 10
47.0389129691
 20
22.7224816072
 30
0.0
 10
47.1089606417
 20
22.5496451111
 30
0.0
 10
47.1250994028
 20
22.4299800381
 30
0.0
 10
47.1250994028
 20
22.3717691816
 30
0.0
  0
SPLINE
  5
260
100
AcDbEntity
  8
0
100
AcDbSpline
 62
7
  6
CONTINUOUS
 70
0
 71
3
 72
11
 73
7
 74
0
 42
0.0000001
 43
0.0000001
 44
0.0000000001
 40
0.0
 40
0.0
 40
0.0
 40
0.0
 40
0.2100164421
 40
0.4399839642
 40
0.701991528
 40
1.0
 40
1.0
 40
1.0
 40
1.0
 10
47.6645119968
 20
22.3717691816
 30
0.0
 10
47.6645119968
 20
22.4589014077
 30
0.0
 10
47.7022958631
 20
22.6428448465
 30
0.0
 10
47.8601125558
 20
22.8931586434
 30
0.0
 10
48.1058548189
 20
23.1145829895
 30
0.0
 10
48.3081680734
 20
23.2318498751
 30
0.0
 10
48.4196211953
 20
23.2853728438
 30
0.0
  0
SPLINE
  5
261
100
AcDbEntity
  8
0
100
AcDbSpline
 62
7
  6
CONTINUOUS
 70
0
 71
3
 72
17
 73
13
 74
0
 42
0.0000001
 43
0.0000001
 44
0.0000000001
 40
0.0
 40
0.0
 40
0.0
 40
0.0
 40
0.1324928758
 40
0.2769593209
 40
0.425700697
 40
0.5703326741
 40
0.7031344426
 40
0.8185677739
 40
0.8692851142
 40
0.9157182915
 40
0.9588269846
 40
1.0
 40
1.0
 40
1.0
 40
1.0
 10
48.4196211953
 20
23.2853728438
 30
0.0
 10
48.5881204611
 20
23.3662909982
 30
0.0
 10
48.9605435249
 20
23.4943107857
 30
0.0
 10
49.5560456166
 20
23.5886821601
 30
0.0
 10
50.1762433166
 20
23.5896801202
 30
0.0
 10
50.7730824244
 20
23.4969642161
 30
0.0
 10
51.3006874196
 20
23.3179240898
 30
0.0
 10
51.6665492267
 20
23.0972385978
 30
0.0
 10
51.8808728969
 20
22.8855065007
 30
0.0
 10
51.9944136187
 20
22.7217389299
 30
0.0
 10
52.064160559
 20
22.5492549762
 30
0.0
 10
52.0802283117
 20
22.4298563287
 30
0.0
 10
52.0802283117
 20
22.3717691816
 30
0.0
  0
SPLINE
  5
262
100
AcDbEntity
  8
0
100
AcDbSpline
 62
7
  6
CONTINUOUS
 70
0
 71
3
 72
11
 73
7
 74
0
 42
0.0000001
 43
0.0000001
 44
0.0000000001
 40
0.0
 40
0.0
 40
0.0
 40
0.0
 40
0.2101030718
 40
0.4401038167
 40
0.702074627
 40
1.0
 40
1.0
 40
1.0
 40
1.0
 10
52.6380159056
 20
22.3717691816
 30
0.0
 10
52.6380159056
 20
22.4587430514
 30
0.0
 10
52.6756518112
 20
22.642323714
 30
0.0
 10
52.8328984386
 20
22.8922460036
 30
0.0
 10
53.0778178676
 20
23.113424701
 30
0.0
 10
53.2794994345
 20
23.2306402855
 30
0.0
 10
53.3906088803
 20
23.2841626209
 30
0.0
  0
SPLINE
  5
263
100
AcDbEntity
  8
0
100
AcDbSpline
 62
7
  6
CONTINUOUS
 70
0
 71
3
 72
17
 73
13
 74
0
 42
0.0000001
 43
0.0000001
 44
0.0000000001
 40
0.0
 40
0.0
 40
0.0
 40
0.0
 40
0.1324173272
 40
0.2768478346
 40
0.4255889308
 40
0.5702453627
 40
0.7030821716
 40
0.8185469296
 40
0.8692751337
 40
0.9157149307
 40
0.9588264562
 40
1.0
 40
1.0
 40
1.0
 40
1.0
 10
53.3906088803
 20
23.2841626209
 30
0.0
 10
53.5590252723
 20
23.3652901843
 30
0.0
 10
53.9314351484
 20
23.4936909852
 30
0.0
 10
54.5271106004
 20
23.5885107082
 30
0.0
 10
55.1477018218
 20
23.5898545689
 30
0.0
 10
55.7450624021
 20
23.4973545878
 30
0.0
 10
56.2732175427
 20
23.3183942702
 30
0.0
 10
56.6395123324
 20
23.0976667618
 30
0.0
 10
56.8541114486
 20
22.8858325309
 30
0.0
 10
56.9678007638
 20
22.7219723921
 30
0.0
 10
57.0376421651
 20
22.5493776044
 30
0.0
 10
57.0537322205
 20
22.4298952157
 30
0.0
 10
57.0537322205
 20
22.3717691816
 30
0.0
  0
SPLINE
  5
264
100
AcDbEntity
  8
0
100
AcDbSpline
 62
7
  6
CONTINUOUS
 70
0
 71
3
 72
11
 73
7
 74
0
 42
0.0000001
 43
0.0000001
 44
0.0000000001
 40
0.0
 40
0.0
 40
0.0
 40
0.0
 40
0.2102466404
 40
0.4403026043
 40
0.702212631
 40
1.0
 40
1.0
 40
1.0
 40
1.0
 10
52.6380159056
 20
44.3552855673
 30
0.0
 10
52.6380159056
 20
44.4419973555
 30
0.0
 10
52.6754076911
 20
44.6249778724
 30
0.0
 10
52.8317128838
 20
44.8742512724
 30
0.0
 10
53.0752725835
 20
45.0950216793
 30
0.0
 10
53.2759099779
 20
45.2121508658
 30
0.0
 10
53.3864512693
 20
45.2656711482
 30
0.0
  0
SPLINE
  5
265
100
AcDbEntity
  8
0
100
AcDbSpline
 62
7
  6
CONTINUOUS
 70
0
 71
3
 72
17
 73
13
 74
0
 42
0.0000001
 43
0.0000001
 44
0.0000000001
 40
0.0
 40
0.0
 40
0.0
 40
0.0
 40
0.1322921117
 40
0.2766629689
 40
0.425403515
 40
0.5701004302
 40
0.7029953181
 40
0.818512212
 40
0.8692584605
 40
0.9157092715
 40
0.9588255359
 40
1.0
 40
1.0
 40
1.0
 40
1.0
 10
53.3864512693
 20
45.2656711482
 30
0.0
 10
53.5547289621
 20
45.3471454058
 30
0.0
 10
53.9271146681
 20
45.4761775781
 30
0.0
 10
54.5230746479
 20
45.571740072
 30
0.0
 10
55.1443157589
 20
45.5736574226
 30
0.0
 10
55.7425389013
 20
45.481515733
 30
0.0
 10
56.271604688
 20
45.3026882241
 30
0.0
 10
56.6386164638
 20
45.0818915952
 30
0.0
 10
56.853671836
 20
44.8698885032
 30
0.0
 10
56.9676073034
 20
44.7058752128
 30
0.0
 10
57.0376052107
 20
44.533096992
 30
0.0
 10
57.0537322205
 20
44.4134759712
 30
0.0
 10
57.0537322205
 20
44.3552855673
 30
0.0
  0
SPLINE
  5
266
100
AcDbEntity
  8
0
100
AcDbSpline
 62
7
  6
CONTINUOUS
 70
0
 71
3
 72
11
 73
7
 74
0
 42
0.0000001
 43
0.0000001
 44
0.0000000001
 40
0.0
 40
0.0
 40
0.0
 40
0.0
 40
0.2103486327
 40
0.4404439456
 40
0.7023108874
 40
1.0
 40
1.0
 40
1.0
 40
1.0
 10
37.7358791792
 20
44.3552855673
 30
0.0
 10
37.7358791792
 20
44.4418114388
 30
0.0
 10
37.773098361
 20
44.6243664135
 30
0.0
 10
37.928737252
 20
44.8731787933
 30
0.0
 10
38.1713339531
 20
45.0936582509
 30
0.0
 10
38.3712315973
 20
45.2107250205
 30
0.0
 10
38.4813703305
 20
45.2642430885
 30
0.0
  0
SPLINE
  5
267
100
AcDbEntity
  8
0
100
AcDbSpline
 62
7
  6
CONTINUOUS
 70
0
 71
3
 72
17
 73
13
 74
0
 42
0.0000001
 43
0.0000001
 44
0.0000000001
 40
0.0
 40
0.0
 40
0.0
 40
0.0
 40
0.1322031491
 40
0.2765315607
 40
0.4252716509
 40
0.5699972918
 40
0.7029334455
 40
0.8184874176
 40
0.8692465154
 40
0.9157051838
 40
0.9588248485
 40
1.0
 40
1.0
 40
1.0
 40
1.0
 10
38.4813703305
 20
45.2642430885
 30
0.0
 10
38.6495484644
 20
45.3459633748
 30
0.0
 10
39.0219152504
 20
45.4754440263
 30
0.0
 10
39.6180752639
 20
45.5715339946
 30
0.0
 10
40.2397763407
 20
45.5738589394
 30
0.0
 10
40.8386110051
 20
45.4819721235
 30
0.0
 10
41.3683229007
 20
45.3032393751
 30
0.0
 10
41.7358435928
 20
45.0823940287
 30
0.0
 10
41.9512229201
 20
44.8702712792
 30
0.0
 10
42.0653331765
 20
44.7061493832
 30
0.0
 10
42.1354422366
 20
44.5332410366
 30
0.0
 10
42.1515954941
 20
44.4135216426
 30
0.0
 10
42.1515954941
 20
44.3552855673
 30
0.0
  0
SPLINE
  5
268
100
AcDbEntity
  8
0
100
AcDbSpline
 62
7
  6
CONTINUOUS
 70
0
 71
3
 72
11
 73
7
 74
0
 42
0.0000001
 43
0.0000001
 44
0.0000000001
 40
0.0
 40
0.0
 40
0.0
 40
0.0
 40
0.2104364268
 40
0.4405656909
 40
0.7023956099
 40
1.0
 40
1.0
 40
1.0
 40
1.0
 10
42.7093830879
 20
44.3552855673
 30
0.0
 10
42.7093830879
 20
44.4416515808
 30
0.0
 10
42.7464542372
 20
44.6238407859
 30
0.0
 10
42.9015212393
 20
44.8722562949
 30
0.0
 10
43.1432909657
 20
45.0924847111
 30
0.0
 10
43.3425531906
 20
45.2094970653
 30
0.0
 10
43.4523461103
 20
45.263012727
 30
0.0
  0
SPLINE
  5
269
100
AcDbEntity
  8
0
100
AcDbSpline
 62
7
  6
CONTINUOUS
 70
0
 71
3
 72
17
 73
13
 74
0
 42
0.0000001
 43
0.0000001
 44
0.0000000001
 40
0.0
 40
0.0
 40
0.0
 40
0.0
 40
0.1321265652
 40
0.2764183941
 40
0.4251580485
 40
0.5699083937
 40
0.7028800726
 40
0.8184659883
 40
0.8692361666
 40
0.9157016205
 40
0.9588242345
 40
1.0
 40
1.0
 40
1.0
 40
1.0
 10
43.4523461103
 20
45.263012727
 30
0.0
 10
43.6204378635
 20
45.3449446167
 30
0.0
 10
43.9927872023
 20
45.4748112799
 30
0.0
 10
44.5891180124
 20
45.5713551637
 30
0.0
 10
45.2112138826
 20
45.5740310831
 30
0.0
 10
45.8105741118
 20
45.4823638863
 30
0.0
 10
46.3408416287
 20
45.3037129804
 30
0.0
 10
46.7088001032
 20
45.0828259544
 30
0.0
 10
46.9244581743
 20
44.8706004054
 30
0.0
 10
47.0387188351
 20
44.7063851511
 30
0.0
 10
47.1089235549
 20
44.533364917
 30
0.0
 10
47.1250994028
 20
44.4135609182
 30
0.0
 10
47.1250994028
 20
44.3552855673
 30
0.0
  0
SPLINE
  5
26A
100
AcDbEntity
  8
0
100
AcDbSpline
 62
7
  6
CONTINUOUS
 70
0
 71
3
 72
11
 73
7
 74
0
 42
0.0000001
 43
0.0000001
 44
0.0000000001
 40
0.0
 40
0.0
 40
0.0
 40
0.0
 40
0.2101597539
 40
0.440182276
 40
0.7021290695
 40
1.0
 40
1.0
 40
1.0
 40
1.0
 10
47.6645119968
 20
44.3552855673
 30
0.0
 10
47.6645119968
 20
44.4421559119
 30
0.0
 10
47.7020513596
 20
44.6254994724
 30
0.0
 10
47.8589258069
 20
44.8751655832
 30
0.0
 10
48.1033078185
 20
45.0961832603
 30
0.0
 10
48.3045767348
 20
45.213364939
 30
0.0
 10
48.4154616586
 20
45.266886613
 30
0.0
  0
SPLINE
  5
26B
100
AcDbEntity
  8
0
100
AcDbSpline
 62
7
  6
CONTINUOUS
 70
0
 71
3
 72
17
 73
13
 74
0
 42
0.0000001
 43
0.0000001
 44
0.0000000001
 40
0.0
 40
0.0
 40
0.0
 40
0.0
 40
0.1323678927
 40
0.2767748633
 40
0.4255157552
 40
0.5701881769
 40
0.7030479148
 40
0.8185332485
 40
0.8692685708
 40
0.9157127097
 40
0.9588260995
 40
1.0
 40
1.0
 40
1.0
 40
1.0
 10
48.4154616586
 20
45.266886613
 30
0.0
 10
48.5838234927
 20
45.3481511068
 30
0.0
 10
48.9562241708
 20
45.4768011891
 30
0.0
 10
49.5520123701
 20
45.5719142036
 30
0.0
 10
50.1728605129
 20
45.5734844475
 30
0.0
 10
50.7705618868
 20
45.4811258561
 30
0.0
 10
51.2990767209
 20
45.3022178915
 30
0.0
 10
51.6656546695
 20
45.0814630175
 30
0.0
 10
51.8804339539
 20
44.869562059
 30
0.0
 10
51.994220468
 20
44.7056414162
 30
0.0
 10
52.0641236654
 20
44.5329741706
 30
0.0
 10
52.0802283117
 20
44.4134370265
 30
0.0
 10
52.0802283117
 20
44.3552855673
 30
0.0
  0
SPLINE
  5
26C
100
AcDbEntity
  8
0
100
AcDbSpline
 62
7
  6
CONTINUOUS
 70
0
 71
3
 72
9
 73
5
 74
0
 42
0.0000001
 43
0.0000001
 44
0.0000000001
 40
0.0
 40
0.0
 40
0.0
 40
0.0
 40
0.2624452273
 40
1.0
 40
1.0
 40
1.0
 40
1.0
 10
51.6586832158
 20
44.2105347524
 30
0.0
 10
51.6809357522
 20
44.2273685454
 30
0.0
 10
51.7640047216
 20
44.2937042539
 30
0.0
 10
51.8400214551
 20
44.3692401632
 30
0.0
 10
51.8893930751
 20
44.4301611164
 30
0.0
  0
SPLINE
  5
26D
100
AcDbEntity
  8
0
100
AcDbSpline
 62
7
  6
CONTINUOUS
 70
0
 71
3
 72
9
 73
5
 74
0
 42
0.0000001
 43
0.0000001
 44
0.0000000001
 40
0.0
 40
0.0
 40
0.0
 40
0.0
 40
0.2598602579
 40
1.0
 40
1.0
 40
1.0
 40
1.0
 10
51.8893930751
 20
44.4301611164
 30
0.0
 10
51.9022365466
 20
44.446009017
 30
0.0
 10
51.9499205024
 20
44.5083636265
 30
0.0
 10
51.990283373
 20
44.5764830261
 30
0.0
 10
52.0143349839
 20
44.6293712462
 30
0.0
  0
SPLINE
  5
26E
100
AcDbEntity
  8
0
100
AcDbSpline
 62
7
  6
CONTINUOUS
 70
0
 71
3
 72
15
 73
11
 74
0
 42
0.0000001
 43
0.0000001
 44
0.0000000001
 40
0.0
 40
0.0
 40
0.0
 40
0.0
 40
0.0925047399
 40
0.1985765537
 40
0.3180154722
 40
0.4485236734
 40
0.5864754685
 40
0.7274280395
 40
0.8668664796
 40
1.0
 40
1.0
 40
1.0
 40
1.0
 10
47.7860777395
 20
44.5265362591
 30
0.0
 10
47.8423174608
 20
44.4372835189
 30
0.0
 10
47.9958669164
 20
44.2660011942
 30
0.0
 10
48.2971372065
 20
44.0600490851
 30
0.0
 10
48.6700079358
 20
43.8946785075
 30
0.0
 10
49.097946376
 20
43.7772627322
 30
0.0
 10
49.561584269
 20
43.712832832
 30
0.0
 10
50.0397433518
 20
43.7042406721
 30
0.0
 10
50.5099735058
 20
43.7521588543
 30
0.0
 10
50.8139369809
 20
43.8223730857
 30
0.0
 10
50.9589291719
 20
43.8674161719
 30
0.0
  0
SPLINE
  5
26F
100
AcDbEntity
  8
0
100
AcDbSpline
 62
7
  6
CONTINUOUS
 70
0
 71
3
 72
9
 73
5
 74
0
 42
0.0000001
 43
0.0000001
 44
0.0000000001
 40
0.0
 40
0.0
 40
0.0
 40
0.0
 40
0.2402932034
 40
1.0
 40
1.0
 40
1.0
 40
1.0
 10
42.7461269432
 20
44.7033062508
 30
0.0
 10
42.7534228346
 20
44.6815629781
 30
0.0
 10
42.7879321434
 20
44.5924738946
 30
0.0
 10
42.8385081138
 20
44.5100068572
 30
0.0
 10
42.8826315386
 20
44.4524672136
 30
0.0
  0
SPLINE
  5
270
100
AcDbEntity
  8
0
100
AcDbSpline
 62
7
  6
CONTINUOUS
 70
0
 71
3
 72
9
 73
5
 74
0
 42
0.0000001
 43
0.0000001
 44
0.0000000001
 40
0.0
 40
0.0
 40
0.0
 40
0.0
 40
0.2428464094
 40
1.0
 40
1.0
 40
1.0
 40
1.0
 10
42.8826315386
 20
44.4524672136
 30
0.0
 10
42.8915695509
 20
44.4408114991
 30
0.0
 10
42.9293842466
 20
44.393593077
 30
0.0
 10
42.9710478665
 20
44.3494969287
 30
0.0
 10
43.0041906629
 20
44.3178936162
 30
0.0
  0
SPLINE
  5
271
100
AcDbEntity
  8
0
100
AcDbSpline
 62
7
  6
CONTINUOUS
 70
0
 71
3
 72
13
 73
9
 74
0
 42
0.0000001
 43
0.0000001
 44
0.0000000001
 40
0.0
 40
0.0
 40
0.0
 40
0.0
 40
0.1002847562
 40
0.2123547975
 40
0.3348469008
 40
0.4653377526
 40
0.7370337245
 40
1.0
 40
1.0
 40
1.0
 40
1.0
 10
43.0041906629
 20
44.3178936162
 30
0.0
 10
43.0801179923
 20
44.2454931136
 30
0.0
 10
43.2591538513
 20
44.1109986061
 30
0.0
 10
43.5726027209
 20
43.9518101089
 30
0.0
 10
43.9352716911
 20
43.8284833425
 30
0.0
 10
44.4737795683
 20
43.7166396691
 30
0.0
 10
45.1743800458
 20
43.6893526861
 30
0.0
 10
45.7313712516
 20
43.7838653318
 30
0.0
 10
45.9943568
 20
43.8646138771
 30
0.0
  0
SPLINE
  5
272
100
AcDbEntity
  8
0
100
AcDbSpline
 62
7
  6
CONTINUOUS
 70
0
 71
3
 72
9
 73
5
 74
0
 42
0.0000001
 43
0.0000001
 44
0.0000000001
 40
0.0
 40
0.0
 40
0.0
 40
0.0
 40
0.2625201649
 40
1.0
 40
1.0
 40
1.0
 40
1.0
 10
46.6972528864
 20
44.2057845365
 30
0.0
 10
46.719816053
 20
44.2226825447
 30
0.0
 10
46.8040355169
 20
44.2892768762
 30
0.0
 10
46.8811729082
 20
44.3652077075
 30
0.0
 10
46.9312993721
 20
44.4265139472
 30
0.0
  0
SPLINE
  5
273
100
AcDbEntity
  8
0
100
AcDbSpline
 62
7
  6
CONTINUOUS
 70
0
 71
3
 72
9
 73
5
 74
0
 42
0.0000001
 43
0.0000001
 44
0.0000000001
 40
0.0
 40
0.0
 40
0.0
 40
0.0
 40
0.2600563511
 40
1.0
 40
1.0
 40
1.0
 40
1.0
 10
46.9312993721
 20
44.4265139472
 30
0.0
 10
46.9444543513
 20
44.4426029
 30
0.0
 10
46.9932509758
 20
44.5058875901
 30
0.0
 10
47.0345197895
 20
44.5751550344
 30
0.0
 10
47.0590268845
 20
44.6289701161
 30
0.0
  0
SPLINE
  5
274
100
AcDbEntity
  8
0
100
AcDbSpline
 62
7
  6
CONTINUOUS
 70
0
 71
3
 72
15
 73
11
 74
0
 42
0.0000001
 43
0.0000001
 44
0.0000000001
 40
0.0
 40
0.0
 40
0.0
 40
0.0
 40
0.0924997639
 40
0.1985401228
 40
0.3179280633
 40
0.448381886
 40
0.5862960525
 40
0.7272486344
 40
0.8667426628
 40
1.0
 40
1.0
 40
1.0
 40
1.0
 10
37.8574760957
 20
44.5264867413
 30
0.0
 10
37.9136085713
 20
44.4374175808
 30
0.0
 10
38.0667722545
 20
44.266468254
 30
0.0
 10
38.3672402582
 20
44.0607953657
 30
0.0
 10
38.7391047598
 20
43.8955233746
 30
0.0
 10
39.1659369778
 20
43.7779914501
 30
0.0
 10
39.6284912604
 20
43.7132168133
 30
0.0
 10
40.1057183183
 20
43.7040567786
 30
0.0
 10
40.5752953871
 20
43.7512071799
 30
0.0
 10
40.8789840316
 20
43.8207647847
 30
0.0
 10
41.0239246322
 20
43.8654443854
 30
0.0
  0
SPLINE
  5
275
100
AcDbEntity
  8
0
100
AcDbSpline
 62
7
  6
CONTINUOUS
 70
0
 71
3
 72
9
 73
5
 74
0
 42
0.0000001
 43
0.0000001
 44
0.0000000001
 40
0.0
 40
0.0
 40
0.0
 40
0.0
 40
0.262501885
 40
1.0
 40
1.0
 40
1.0
 40
1.0
 10
41.7257397939
 20
44.2072851681
 30
0.0
 10
41.7482100739
 20
44.2241657315
 30
0.0
 10
41.8320831522
 20
44.2906896126
 30
0.0
 10
41.9088783994
 20
44.3665137528
 30
0.0
 10
41.9587710897
 20
44.4277130375
 30
0.0
  0
SPLINE
  5
276
100
AcDbEntity
  8
0
100
AcDbSpline
 62
7
  6
CONTINUOUS
 70
0
 71
3
 72
9
 73
5
 74
0
 42
0.0000001
 43
0.0000001
 44
0.0000000001
 40
0.0
 40
0.0
 40
0.0
 40
0.0
 40
0.2599970517
 40
1.0
 40
1.0
 40
1.0
 40
1.0
 10
41.9587710897
 20
44.4277130375
 30
0.0
 10
41.971831026
 20
44.4437325938
 30
0.0
 10
42.0202873135
 20
44.506749837
 30
0.0
 10
42.0612751358
 20
44.5756844593
 30
0.0
 10
42.0856375608
 20
44.6292293454
 30
0.0
  0
SPLINE
  5
277
100
AcDbEntity
  8
0
100
AcDbSpline
 62
7
  6
CONTINUOUS
 70
0
 71
3
 72
9
 73
5
 74
0
 42
0.0000001
 43
0.0000001
 44
0.0000000001
 40
0.0
 40
0.0
 40
0.0
 40
0.0
 40
0.2624452273
 40
1.0
 40
1.0
 40
1.0
 40
1.0
 10
51.6586832158
 20
22.2333077524
 30
0.0
 10
51.6809357522
 20
22.2501415454
 30
0.0
 10
51.7640047216
 20
22.3164772539
 30
0.0
 10
51.8400214551
 20
22.3920131632
 30
0.0
 10
51.8893930751
 20
22.4529341164
 30
0.0
  0
SPLINE
  5
278
100
AcDbEntity
  8
0
100
AcDbSpline
 62
7
  6
CONTINUOUS
 70
0
 71
3
 72
9
 73
5
 74
0
 42
0.0000001
 43
0.0000001
 44
0.0000000001
 40
0.0
 40
0.0
 40
0.0
 40
0.0
 40
0.2597713702
 40
1.0
 40
1.0
 40
1.0
 40
1.0
 10
51.8893930751
 20
22.4529341164
 30
0.0
 10
51.9021139479
 20
22.4686307393
 30
0.0
 10
51.9493754403
 20
22.5303988688
 30
0.0
 10
51.9894567954
 20
22.5978208061
 30
0.0
 10
52.0134311637
 20
22.6501638913
 30
0.0
  0
SPLINE
  5
279
100
AcDbEntity
  8
0
100
AcDbSpline
 62
7
  6
CONTINUOUS
 70
0
 71
3
 72
15
 73
11
 74
0
 42
0.0000001
 43
0.0000001
 44
0.0000000001
 40
0.0
 40
0.0
 40
0.0
 40
0.0
 40
0.0925963437
 40
0.1987479892
 40
0.3182310256
 40
0.4487423726
 40
0.5866614116
 40
0.7275569054
 40
0.8669286794
 40
1.0
 40
1.0
 40
1.0
 40
1.0
 10
47.7878270536
 20
22.546543939
 30
0.0
 10
47.8443840258
 20
22.4574868897
 30
0.0
 10
47.9983762333
 20
22.2866703987
 30
0.0
 10
48.299921679
 20
22.081326733
 30
0.0
 10
48.6727626219
 20
21.9165123952
 30
0.0
 10
49.100402986
 20
21.7995632413
 30
0.0
 10
49.5635363813
 20
21.7354803671
 30
0.0
 10
50.0410631969
 20
21.7270943654
 30
0.0
 10
50.5106208506
 20
21.7750654246
 30
0.0
 10
50.8141422948
 20
21.8452098683
 30
0.0
 10
50.9589291719
 20
21.8901891719
 30
0.0
  0
SPLINE
  5
27A
100
AcDbEntity
  8
0
100
AcDbSpline
 62
7
  6
CONTINUOUS
 70
0
 71
3
 72
13
 73
9
 74
0
 42
0.0000001
 43
0.0000001
 44
0.0000000001
 40
0.0
 40
0.0
 40
0.0
 40
0.0
 40
0.0971468559
 40
0.1984690432
 40
0.3070218425
 40
0.4249855434
 40
0.6923500505
 40
1.0
 40
1.0
 40
1.0
 40
1.0
 10
57.0537322205
 20
44.3552855673
 30
0.0
 10
57.0537322205
 20
44.2998907952
 30
0.0
 10
57.0391938307
 20
44.1862851036
 30
0.0
 10
56.9758273972
 20
44.0215402444
 30
0.0
 10
56.8723931295
 20
43.8643268552
 30
0.0
 10
56.6768889123
 20
43.6599055607
 30
0.0
 10
56.3409048277
 20
43.4426073747
 30
0.0
 10
56.0320853916
 20
43.3266938001
 30
0.0
 10
55.8633916067
 20
43.2785575152
 30
0.0
  0
SPLINE
  5
27B
100
AcDbEntity
  8
0
100
AcDbSpline
 62
7
  6
CONTINUOUS
 70
0
 71
3
 72
13
 73
9
 74
0
 42
0.0000001
 43
0.0000001
 44
0.0000000001
 40
0.0
 40
0.0
 40
0.0
 40
0.0
 40
0.3076499495
 40
0.5750144566
 40
0.6929781575
 40
0.8015309568
 40
0.9028531441
 40
1.0
 40
1.0
 40
1.0
 40
1.0
 10
38.926219793
 20
43.2785575152
 30
0.0
 10
38.7575260081
 20
43.3266938001
 30
0.0
 10
38.448706572
 20
43.4426073748
 30
0.0
 10
38.1127224874
 20
43.6599055607
 30
0.0
 10
37.9172182702
 20
43.8643268552
 30
0.0
 10
37.8137840025
 20
44.0215402444
 30
0.0
 10
37.750417569
 20
44.1862851036
 30
0.0
 10
37.7358791792
 20
44.2998907952
 30
0.0
 10
37.7358791792
 20
44.3552855673
 30
0.0
  0
SPLINE
  5
27C
100
AcDbEntity
  8
0
100
AcDbSpline
 62
7
  6
CONTINUOUS
 70
0
 71
3
 72
9
 73
5
 74
0
 42
0.0000001
 43
0.0000001
 44
0.0000000001
 40
0.0
 40
0.0
 40
0.0
 40
0.0
 40
0.2624714718
 40
1.0
 40
1.0
 40
1.0
 40
1.0
 10
56.6301984728
 20
44.2090327791
 30
0.0
 10
56.6525514851
 20
44.2258882509
 30
0.0
 10
56.7359915025
 20
44.2923111433
 30
0.0
 10
56.8123674151
 20
44.3679804125
 30
0.0
 10
56.8619794019
 20
44.4290300376
 30
0.0
  0
SPLINE
  5
27D
100
AcDbEntity
  8
0
100
AcDbSpline
 62
7
  6
CONTINUOUS
 70
0
 71
3
 72
9
 73
5
 74
0
 42
0.0000001
 43
0.0000001
 44
0.0000000001
 40
0.0
 40
0.0
 40
0.0
 40
0.0
 40
0.25992344
 40
1.0
 40
1.0
 40
1.0
 40
1.0
 10
56.8619794019
 20
44.4290300376
 30
0.0
 10
56.8749227254
 20
44.4449573387
 30
0.0
 10
56.9229630242
 20
44.5076184917
 30
0.0
 10
56.9636142055
 20
44.5761146837
 30
0.0
 10
56.9878093398
 20
44.6293063249
 30
0.0
  0
SPLINE
  5
27E
100
AcDbEntity
  8
0
100
AcDbSpline
 62
7
  6
CONTINUOUS
 70
0
 71
3
 72
9
 73
5
 74
0
 42
0.0000001
 43
0.0000001
 44
0.0000000001
 40
0.0
 40
0.0
 40
0.0
 40
0.0
 40
0.2624714718
 40
1.0
 40
1.0
 40
1.0
 40
1.0
 10
56.6301984728
 20
22.2318057791
 30
0.0
 10
56.6525514851
 20
22.2486612509
 30
0.0
 10
56.7359915025
 20
22.3150841433
 30
0.0
 10
56.8123674151
 20
22.3907534125
 30
0.0
 10
56.8619794019
 20
22.4518030376
 30
0.0
  0
SPLINE
  5
27F
100
AcDbEntity
  8
0
100
AcDbSpline
 62
7
  6
CONTINUOUS
 70
0
 71
3
 72
9
 73
5
 74
0
 42
0.0000001
 43
0.0000001
 44
0.0000000001
 40
0.0
 40
0.0
 40
0.0
 40
0.0
 40
0.2598346146
 40
1.0
 40
1.0
 40
1.0
 40
1.0
 10
56.8619794019
 20
22.4518030376
 30
0.0
 10
56.8748000661
 20
22.4675794013
 30
0.0
 10
56.9224179513
 20
22.5296555055
 30
0.0
 10
56.9627879611
 20
22.5974550911
 30
0.0
 10
56.9869067958
 20
22.6501022063
 30
0.0
  0
SPLINE
  5
280
100
AcDbEntity
  8
0
100
AcDbSpline
 62
7
  6
CONTINUOUS
 70
0
 71
3
 72
13
 73
9
 74
0
 42
0.0000001
 43
0.0000001
 44
0.0000000001
 40
0.0
 40
0.0
 40
0.0
 40
0.0
 40
0.0971468559
 40
0.1984690432
 40
0.3070218425
 40
0.4249855434
 40
0.6923500505
 40
1.0
 40
1.0
 40
1.0
 40
1.0
 10
42.1515954941
 20
44.3552855673
 30
0.0
 10
42.1515954941
 20
44.2998907952
 30
0.0
 10
42.1370571043
 20
44.1862851036
 30
0.0
 10
42.0736906708
 20
44.0215402444
 30
0.0
 10
41.9702564031
 20
43.8643268552
 30
0.0
 10
41.7747521859
 20
43.6599055607
 30
0.0
 10
41.4387681014
 20
43.4426073748
 30
0.0
 10
41.1299486652
 20
43.3266938001
 30
0.0
 10
40.9612548803
 20
43.2785575152
 30
0.0
  0
SPLINE
  5
281
100
AcDbEntity
  8
0
100
AcDbSpline
 62
7
  6
CONTINUOUS
 70
0
 71
3
 72
13
 73
9
 74
0
 42
0.0000001
 43
0.0000001
 44
0.0000000001
 40
0.0
 40
0.0
 40
0.0
 40
0.0
 40
0.3076499495
 40
0.5750144566
 40
0.6929781575
 40
0.8015309568
 40
0.9028531441
 40
1.0
 40
1.0
 40
1.0
 40
1.0
 10
43.8997237017
 20
43.2785575152
 30
0.0
 10
43.7310299168
 20
43.3266938001
 30
0.0
 10
43.4222104807
 20
43.4426073748
 30
0.0
 10
43.0862263961
 20
43.6599055607
 30
0.0
 10
42.8907221789
 20
43.8643268552
 30
0.0
 10
42.7872879112
 20
44.0215402444
 30
0.0
 10
42.7239214777
 20
44.1862851036
 30
0.0
 10
42.7093830879
 20
44.2998907952
 30
0.0
 10
42.7093830879
 20
44.3552855673
 30
0.0
  0
SPLINE
  5
282
100
AcDbEntity
  8
0
100
AcDbSpline
 62
7
  6
CONTINUOUS
 70
0
 71
3
 72
15
 73
11
 74
0
 42
0.0000001
 43
0.0000001
 44
0.0000000001
 40
0.0
 40
0.0
 40
0.0
 40
0.0
 40
0.0925940707
 40
0.1987312136
 40
0.3181907346
 40
0.4486769923
 40
0.586578665
 40
0.7274741562
 40
0.8668715672
 40
1.0
 40
1.0
 40
1.0
 40
1.0
 10
52.7613471724
 20
22.5465184041
 30
0.0
 10
52.8178545451
 20
22.4575462426
 30
0.0
 10
52.9716685604
 20
22.2868836577
 30
0.0
 10
53.2728434962
 20
22.081669137
 30
0.0
 10
53.6452197763
 20
21.9169004899
 30
0.0
 10
54.0723493443
 20
21.7998978385
 30
0.0
 10
54.5349824174
 20
21.7356559026
 30
0.0
 10
55.0120789067
 20
21.7270078141
 30
0.0
 10
55.4813349942
 20
21.774624488
 30
0.0
 10
55.7847295274
 20
21.844465802
 30
0.0
 10
55.9294925703
 20
21.8892773064
 30
0.0
  0
SPLINE
  5
283
100
AcDbEntity
  8
0
100
AcDbSpline
 62
7
  6
CONTINUOUS
 70
0
 71
3
 72
13
 73
9
 74
0
 42
0.0000001
 43
0.0000001
 44
0.0000000001
 40
0.0
 40
0.0
 40
0.0
 40
0.0
 40
0.0971468559
 40
0.1984690432
 40
0.3070218425
 40
0.4249855434
 40
0.6923500505
 40
1.0
 40
1.0
 40
1.0
 40
1.0
 10
47.1250994028
 20
44.3552855673
 30
0.0
 10
47.1250994028
 20
44.2998907952
 30
0.0
 10
47.110561013
 20
44.1862851036
 30
0.0
 10
47.0471945795
 20
44.0215402444
 30
0.0
 10
46.9437603119
 20
43.8643268552
 30
0.0
 10
46.7482560946
 20
43.6599055607
 30
0.0
 10
46.4122720101
 20
43.4426073748
 30
0.0
 10
46.1034525739
 20
43.3266938001
 30
0.0
 10
45.934758789
 20
43.2785575152
 30
0.0
  0
SPLINE
  5
284
100
AcDbEntity
  8
0
100
AcDbSpline
 62
7
  6
CONTINUOUS
 70
0
 71
3
 72
13
 73
9
 74
0
 42
0.0000001
 43
0.0000001
 44
0.0000000001
 40
0.0
 40
0.0
 40
0.0
 40
0.0
 40
0.3076499495
 40
0.5750144566
 40
0.6929781575
 40
0.8015309568
 40
0.9028531441
 40
1.0
 40
1.0
 40
1.0
 40
1.0
 10
48.8548526106
 20
43.2785575152
 30
0.0
 10
48.6861588257
 20
43.3266938001
 30
0.0
 10
48.3773393896
 20
43.4426073748
 30
0.0
 10
48.041355305
 20
43.6599055607
 30
0.0
 10
47.8458510878
 20
43.8643268552
 30
0.0
 10
47.7424168201
 20
44.0215402444
 30
0.0
 10
47.6790503866
 20
44.1862851036
 30
0.0
 10
47.6645119968
 20
44.2998907952
 30
0.0
 10
47.6645119968
 20
44.3552855673
 30
0.0
  0
SPLINE
  5
285
100
AcDbEntity
  8
0
100
AcDbSpline
 62
7
  6
CONTINUOUS
 70
0
 71
3
 72
13
 73
9
 74
0
 42
0.0000001
 43
0.0000001
 44
0.0000000001
 40
0.0
 40
0.0
 40
0.0
 40
0.0
 40
0.0971468559
 40
0.1984690432
 40
0.3070218425
 40
0.4249855434
 40
0.6923500505
 40
1.0
 40
1.0
 40
1.0
 40
1.0
 10
52.0802283117
 20
44.3552855673
 30
0.0
 10
52.0802283117
 20
44.2998907952
 30
0.0
 10
52.0656899219
 20
44.1862851036
 30
0.0
 10
52.0023234884
 20
44.0215402444
 30
0.0
 10
51.8988892208
 20
43.8643268552
 30
0.0
 10
51.7033850035
 20
43.6599055607
 30
0.0
 10
51.367400919
 20
43.4426073748
 30
0.0
 10
51.0585814828
 20
43.3266938001
 30
0.0
 10
50.8898876979
 20
43.2785575152
 30
0.0
  0
SPLINE
  5
286
100
AcDbEntity
  8
0
100
AcDbSpline
 62
7
  6
CONTINUOUS
 70
0
 71
3
 72
13
 73
9
 74
0
 42
0.0000001
 43
0.0000001
 44
0.0000000001
 40
0.0
 40
0.0
 40
0.0
 40
0.0
 40
0.3076499495
 40
0.5750144566
 40
0.6929781575
 40
0.8015309568
 40
0.9028531441
 40
1.0
 40
1.0
 40
1.0
 40
1.0
 10
53.8283565194
 20
43.2785575152
 30
0.0
 10
53.6596627345
 20
43.3266938001
 30
0.0
 10
53.3508432984
 20
43.4426073748
 30
0.0
 10
53.0148592138
 20
43.6599055607
 30
0.0
 10
52.8193549966
 20
43.8643268552
 30
0.0
 10
52.7159207289
 20
44.0215402444
 30
0.0
 10
52.6525542954
 20
44.1862851036
 30
0.0
 10
52.6380159056
 20
44.2998907952
 30
0.0
 10
52.6380159056
 20
44.3552855673
 30
0.0
  0
SPLINE
  5
287
100
AcDbEntity
  8
0
100
AcDbSpline
 62
7
  6
CONTINUOUS
 70
0
 71
3
 72
15
 73
11
 74
0
 42
0.0000001
 43
0.0000001
 44
0.0000000001
 40
0.0
 40
0.0
 40
0.0
 40
0.0
 40
0.0925024081
 40
0.1985596615
 40
0.3179750093
 40
0.4484580819
 40
0.5863925014
 40
0.7273450994
 40
0.8668092509
 40
1.0
 40
1.0
 40
1.0
 40
1.0
 10
52.7595959422
 20
44.526513552
 30
0.0
 10
52.8157861287
 20
44.4373455711
 30
0.0
 10
52.9691573888
 20
44.2662169713
 30
0.0
 10
53.2700571414
 20
44.0603936821
 30
0.0
 10
53.6424631903
 20
43.8950684692
 30
0.0
 10
54.0698908581
 20
43.7775988522
 30
0.0
 10
54.5330285576
 20
43.713009519
 30
0.0
 10
55.0107576294
 20
43.7041548759
 30
0.0
 10
55.4806867965
 20
43.7517182889
 30
0.0
 10
55.7845238791
 20
43.8216291434
 30
0.0
 10
55.9294925703
 20
43.8665043064
 30
0.0
  0
SPLINE
  5
288
100
AcDbEntity
  8
0
100
AcDbSpline
 62
7
  6
CONTINUOUS
 70
0
 71
3
 72
9
 73
5
 74
0
 42
0.0000001
 43
0.0000001
 44
0.0000000001
 40
0.0
 40
0.0
 40
0.0
 40
0.0
 40
0.262501885
 40
1.0
 40
1.0
 40
1.0
 40
1.0
 10
41.7257397939
 20
22.2300581681
 30
0.0
 10
41.7482100739
 20
22.2469387315
 30
0.0
 10
41.8320831522
 20
22.3134626126
 30
0.0
 10
41.9088783994
 20
22.3892867528
 30
0.0
 10
41.9587710897
 20
22.4504860375
 30
0.0
  0
SPLINE
  5
289
100
AcDbEntity
  8
0
100
AcDbSpline
 62
7
  6
CONTINUOUS
 70
0
 71
3
 72
9
 73
5
 74
0
 42
0.0000001
 43
0.0000001
 44
0.0000000001
 40
0.0
 40
0.0
 40
0.0
 40
0.0
 40
0.2599082985
 40
1.0
 40
1.0
 40
1.0
 40
1.0
 10
41.9587710897
 20
22.4504860375
 30
0.0
 10
41.9717082967
 20
22.4663550518
 30
0.0
 10
42.0197422297
 20
22.5287889082
 30
0.0
 10
42.060449276
 20
22.5970279181
 30
0.0
 10
42.0847364947
 20
22.6500289853
 30
0.0
  0
SPLINE
  5
28A
100
AcDbEntity
  8
0
100
AcDbSpline
 62
7
  6
CONTINUOUS
 70
0
 71
3
 72
21
 73
17
 74
0
 42
0.0000001
 43
0.0000001
 44
0.0000000001
 40
0.0
 40
0.0
 40
0.0
 40
0.0
 40
0.0438874865
 40
0.0913864916
 40
0.1448066979
 40
0.2051435342
 40
0.2721566104
 40
0.3447941717
 40
0.4999890301
 40
0.6551842224
 40
0.7278246047
 40
0.7948421964
 40
0.8551847198
 40
0.9086096003
 40
0.9561118761
 40
1.0
 40
1.0
 40
1.0
 40
1.0
 10
42.1515954941
 20
22.3717691816
 30
0.0
 10
42.1515954942
 20
22.2916523572
 30
0.0
 10
42.1200372426
 20
22.1236675524
 30
0.0
 10
41.9865896033
 20
21.8910974526
 30
0.0
 10
41.7762860556
 20
21.6812942989
 30
0.0
 10
41.4986504956
 20
21.4996680843
 30
0.0
 10
41.1636019552
 20
21.3513248824
 30
0.0
 10
40.645251838
 20
21.2015766083
 30
0.0
 10
39.9437981454
 20
21.1292421323
 30
0.0
 10
39.2423373877
 20
21.201554399
 30
0.0
 10
38.7239683936
 20
21.3512898961
 30
0.0
 10
38.3888961147
 20
21.4996367752
 30
0.0
 10
38.1112256551
 20
21.681259783
 30
0.0
 10
37.9009005642
 20
21.8910779441
 30
0.0
 10
37.7674409845
 20
22.1236593574
 30
0.0
 10
37.7358791792
 20
22.2916511938
 30
0.0
 10
37.7358791792
 20
22.3717691816
 30
0.0
  0
SPLINE
  5
28B
100
AcDbEntity
  8
0
100
AcDbSpline
 62
7
  6
CONTINUOUS
 70
0
 71
3
 72
21
 73
17
 74
0
 42
0.0000001
 43
0.0000001
 44
0.0000000001
 40
0.0
 40
0.0
 40
0.0
 40
0.0
 40
0.0438874865
 40
0.0913864916
 40
0.1448066979
 40
0.2051435342
 40
0.2721566104
 40
0.3447941717
 40
0.4999890301
 40
0.6551842224
 40
0.7278246047
 40
0.7948421964
 40
0.8551847198
 40
0.9086096003
 40
0.9561118761
 40
1.0
 40
1.0
 40
1.0
 40
1.0
 10
47.1250994028
 20
22.3717691816
 30
0.0
 10
47.1250994028
 20
22.2916523572
 30
0.0
 10
47.0935411513
 20
22.1236675524
 30
0.0
 10
46.960093512
 20
21.8910974526
 30
0.0
 10
46.7497899643
 20
21.681294299
 30
0.0
 10
46.4721544043
 20
21.4996680843
 30
0.0
 10
46.1371058639
 20
21.3513248824
 30
0.0
 10
45.6187557467
 20
21.2015766083
 30
0.0
 10
44.9173020541
 20
21.1292421323
 30
0.0
 10
44.2158412964
 20
21.201554399
 30
0.0
 10
43.6974723023
 20
21.3512898961
 30
0.0
 10
43.3624000234
 20
21.4996367752
 30
0.0
 10
43.0847295638
 20
21.681259783
 30
0.0
 10
42.8744044729
 20
21.8910779441
 30
0.0
 10
42.7409448932
 20
22.1236593574
 30
0.0
 10
42.7093830879
 20
22.2916511938
 30
0.0
 10
42.7093830879
 20
22.3717691816
 30
0.0
  0
SPLINE
  5
28C
100
AcDbEntity
  8
0
100
AcDbSpline
 62
7
  6
CONTINUOUS
 70
0
 71
3
 72
21
 73
17
 74
0
 42
0.0000001
 43
0.0000001
 44
0.0000000001
 40
0.0
 40
0.0
 40
0.0
 40
0.0
 40
0.0438874865
 40
0.0913864916
 40
0.1448066979
 40
0.2051435342
 40
0.2721566104
 40
0.3447941717
 40
0.4999890301
 40
0.6551842224
 40
0.7278246047
 40
0.7948421964
 40
0.8551847198
 40
0.9086096003
 40
0.9561118761
 40
1.0
 40
1.0
 40
1.0
 40
1.0
 10
52.0802283117
 20
22.3717691816
 30
0.0
 10
52.0802283117
 20
22.2916523572
 30
0.0
 10
52.0486700602
 20
22.1236675524
 30
0.0
 10
51.9152224209
 20
21.8910974526
 30
0.0
 10
51.7049188732
 20
21.681294299
 30
0.0
 10
51.4272833132
 20
21.4996680843
 30
0.0
 10
51.0922347728
 20
21.3513248824
 30
0.0
 10
50.5738846556
 20
21.2015766083
 30
0.0
 10
49.872430963
 20
21.1292421323
 30
0.0
 10
49.1709702053
 20
21.201554399
 30
0.0
 10
48.6526012112
 20
21.3512898961
 30
0.0
 10
48.3175289323
 20
21.4996367752
 30
0.0
 10
48.0398584727
 20
21.681259783
 30
0.0
 10
47.8295333818
 20
21.8910779441
 30
0.0
 10
47.6960738021
 20
22.1236593574
 30
0.0
 10
47.6645119968
 20
22.2916511938
 30
0.0
 10
47.6645119968
 20
22.3717691816
 30
0.0
  0
SPLINE
  5
28D
100
AcDbEntity
  8
0
100
AcDbSpline
 62
7
  6
CONTINUOUS
 70
0
 71
3
 72
15
 73
11
 74
0
 42
0.0000001
 43
0.0000001
 44
0.0000000001
 40
0.0
 40
0.0
 40
0.0
 40
0.0
 40
0.0925914952
 40
0.1987118108
 40
0.3181439889
 40
0.4486010428
 40
0.5864824734
 40
0.7273779141
 40
0.8668051151
 40
1.0
 40
1.0
 40
1.0
 40
1.0
 10
37.8592295625
 20
22.546488295
 30
0.0
 10
37.9156791482
 20
22.4576151038
 30
0.0
 10
38.0692855891
 20
22.287132003
 30
0.0
 10
38.3700288068
 20
22.082068262
 30
0.0
 10
38.7418635594
 20
21.9173532163
 30
0.0
 10
39.1683976497
 20
21.8002886583
 30
0.0
 10
39.6304471562
 20
21.7358618519
 30
0.0
 10
40.1070412643
 20
21.7269088345
 30
0.0
 10
40.5759445789
 20
21.774112945
 30
0.0
 10
40.8791900696
 20
21.8436012983
 30
0.0
 10
41.0239246322
 20
21.8882173854
 30
0.0
  0
SPLINE
  5
28E
100
AcDbEntity
  8
0
100
AcDbSpline
 62
7
  6
CONTINUOUS
 70
0
 71
3
 72
21
 73
17
 74
0
 42
0.0000001
 43
0.0000001
 44
0.0000000001
 40
0.0
 40
0.0
 40
0.0
 40
0.0
 40
0.0438874865
 40
0.0913864916
 40
0.1448066979
 40
0.2051435342
 40
0.2721566104
 40
0.3447941717
 40
0.4999890301
 40
0.6551842224
 40
0.7278246047
 40
0.7948421964
 40
0.8551847198
 40
0.9086096003
 40
0.9561118761
 40
1.0
 40
1.0
 40
1.0
 40
1.0
 10
57.0537322205
 20
22.3717691816
 30
0.0
 10
57.0537322205
 20
22.2916523572
 30
0.0
 10
57.022173969
 20
22.1236675524
 30
0.0
 10
56.8887263297
 20
21.8910974526
 30
0.0
 10
56.678422782
 20
21.681294299
 30
0.0
 10
56.400787222
 20
21.4996680843
 30
0.0
 10
56.0657386816
 20
21.3513248824
 30
0.0
 10
55.5473885644
 20
21.2015766083
 30
0.0
 10
54.8459348718
 20
21.1292421323
 30
0.0
 10
54.1444741141
 20
21.201554399
 30
0.0
 10
53.62610512
 20
21.3512898961
 30
0.0
 10
53.2910328411
 20
21.4996367752
 30
0.0
 10
53.0133623815
 20
21.681259783
 30
0.0
 10
52.8030372906
 20
21.8910779441
 30
0.0
 10
52.6695777109
 20
22.1236593574
 30
0.0
 10
52.6380159056
 20
22.2916511938
 30
0.0
 10
52.6380159056
 20
22.3717691816
 30
0.0
  0
SPLINE
  5
28F
100
AcDbEntity
  8
0
100
AcDbSpline
 62
7
  6
CONTINUOUS
 70
0
 71
3
 72
9
 73
5
 74
0
 42
0.0000001
 43
0.0000001
 44
0.0000000001
 40
0.0
 40
0.0
 40
0.0
 40
0.0
 40
0.2401756823
 40
1.0
 40
1.0
 40
1.0
 40
1.0
 10
42.7477039742
 20
22.7214299917
 30
0.0
 10
42.7551724579
 20
22.6996469035
 30
0.0
 10
42.7904256482
 20
22.6103814322
 30
0.0
 10
42.8417541827
 20
22.5278684492
 30
0.0
 10
42.8864267337
 20
22.4703213028
 30
0.0
  0
SPLINE
  5
290
100
AcDbEntity
  8
0
100
AcDbSpline
 62
7
  6
CONTINUOUS
 70
0
 71
3
 72
9
 73
5
 74
0
 42
0.0000001
 43
0.0000001
 44
0.0000000001
 40
0.0
 40
0.0
 40
0.0
 40
0.0
 40
0.2430872142
 40
1.0
 40
1.0
 40
1.0
 40
1.0
 10
42.8864267337
 20
22.4703213028
 30
0.0
 10
42.8951342164
 20
22.4591043301
 30
0.0
 10
42.93188531
 20
22.4136864133
 30
0.0
 10
42.972191354
 20
22.3711795563
 30
0.0
 10
43.0041906629
 20
22.3406666162
 30
0.0
  0
SPLINE
  5
291
100
AcDbEntity
  8
0
100
AcDbSpline
 62
7
  6
CONTINUOUS
 70
0
 71
3
 72
13
 73
9
 74
0
 42
0.0000001
 43
0.0000001
 44
0.0000000001
 40
0.0
 40
0.0
 40
0.0
 40
0.0
 40
0.1002847562
 40
0.2123547975
 40
0.3348469008
 40
0.4653377526
 40
0.7370337245
 40
1.0
 40
1.0
 40
1.0
 40
1.0
 10
43.0041906629
 20
22.3406666162
 30
0.0
 10
43.0801179923
 20
22.2682661136
 30
0.0
 10
43.2591538513
 20
22.1337716061
 30
0.0
 10
43.5726027209
 20
21.9745831089
 30
0.0
 10
43.9352716911
 20
21.8512563425
 30
0.0
 10
44.4737795683
 20
21.7394126691
 30
0.0
 10
45.1743800458
 20
21.7121256861
 30
0.0
 10
45.7313712516
 20
21.8066383318
 30
0.0
 10
45.9943568
 20
21.8873868771
 30
0.0
  0
SPLINE
  5
292
100
AcDbEntity
  8
0
100
AcDbSpline
 62
7
  6
CONTINUOUS
 70
0
 71
3
 72
9
 73
5
 74
0
 42
0.0000001
 43
0.0000001
 44
0.0000000001
 40
0.0
 40
0.0
 40
0.0
 40
0.0
 40
0.2625201649
 40
1.0
 40
1.0
 40
1.0
 40
1.0
 10
46.6972528864
 20
22.2285575365
 30
0.0
 10
46.719816053
 20
22.2454555447
 30
0.0
 10
46.8040355169
 20
22.3120498762
 30
0.0
 10
46.8811729082
 20
22.3879807075
 30
0.0
 10
46.9312993721
 20
22.4492869472
 30
0.0
  0
SPLINE
  5
293
100
AcDbEntity
  8
0
100
AcDbSpline
 62
7
  6
CONTINUOUS
 70
0
 71
3
 72
9
 73
5
 74
0
 42
0.0000001
 43
0.0000001
 44
0.0000000001
 40
0.0
 40
0.0
 40
0.0
 40
0.0
 40
0.2599677554
 40
1.0
 40
1.0
 40
1.0
 40
1.0
 10
46.9312993721
 20
22.4492869472
 30
0.0
 10
46.9443316707
 20
22.4652258578
 30
0.0
 10
46.9927063219
 20
22.5279291971
 30
0.0
 10
47.0336947945
 20
22.5965026521
 30
0.0
 10
47.0581274678
 20
22.6497750921
 30
0.0
  0
ENDSEC
  0
SECTION
  2
OBJECTS
  0
DICTIONARY
  5
C
100
AcDbDictionary
280
0
281
1
  3
ACAD_GROUP
350
D
  3
ACAD_MLINESTYLE
350
17
  3
ACAD_LAYOUT
350
1A
  3
ACAD_PLOTSETTINGS
350
19
  3
ACAD_PLOTSTYLENAME
350
E
  0
DICTIONARY
  5
D
102
{ACAD_REACTORS
330
C
102
}
100
AcDbDictionary
280
0
281
1
  0
ACDBDICTIONARYWDFLT
  5
E
102
{ACAD_REACTORS
330
C
102
}
100
AcDbDictionary
281
1
  3
Normal
350
F
100
AcDbDictionaryWithDefault
340
F
  0
DICTIONARY
  5
17
102
{ACAD_REACTORS
330
C
102
}
100
AcDbDictionary
280
0
281
1
  3
Standard
350
18
  0
DICTIONARY
  5
19
102
{ACAD_REACTORS
330
C
102
}
100
AcDbDictionary
281
1
  0
DICTIONARY
  5
1A
102
{ACAD_REACTORS
330
C
102
}
100
AcDbDictionary
281
1
  3
Model
350
294
  3
Layout1
350
295
  0
ACDBPLACEHOLDER
  5
F
102
{ACAD_REACTORS
330
E
102
}
  0
MLINESTYLE
  5
18
102
{ACAD_REACTORS
330
17
102
}
100
AcDbMlineStyle
  2
STANDARD
 70
0
  3

 62
256
 51
90.0
 52
90.0
 71
2
 49
0.5
 62
256
  6
BYLAYER
 49
-0.5
 62
256
  6
BYLAYER
  0
LAYOUT
  5
294
102
{ACAD_REACTORS
330
1A
102
}
100
AcDbPlotSettings
  1

  2
none_device
  4

  6

 40
0.0
 41
0.0
 42
0.0
 43
0.0
 44
210.0
 45
297.0
 46
0.0
 47
0.0
 48
0.0
 49
0.0
140
0.0
141
0.0
142
1.0
143
1.0
 70
1024
 72
1
 73
0
 74
0
  7

 75
0
147
1.0
148
0.0
149
0.0
100
AcDbLayout
  1
Model
 70
0
 71
0
 10
0.0
 20
0.0
 11
210.0
 21
297.0
 12
0.0
 22
0.0
 32
0.0
 14
0.0
 24
0.0
 34
0.0
 15
0.0
 25
0.0
 35
0.0
146
0.0
 13
0.0
 23
0.0
 33
0.0
 16
1.0
 26
0.0
 36
0.0
 17
0.0
 27
1.0
 37
0.0
 76
0
330
210
345
0
346
0
  0
LAYOUT
  5
295
102
{ACAD_REACTORS
330
1A
102
}
100
AcDbPlotSettings
  1

  2
none_device
  4

  6

 40
0.0
 41
0.0
 42
0.0
 43
0.0
 44
210.0
 45
297.0
 46
0.0
 47
0.0
 48
0.0
 49
0.0
140
0.0
141
0.0
142
1.0
143
1.0
 70
0
 72
1
 73
0
 74
0
  7

 75
0
147
1.0
148
0.0
149
0.0
100
AcDbLayout
  1
Layout1
 70
0
 71
1
 10
0.0
 20
0.0
 11
210.0
 21
297.0
 12
0.0
 22
0.0
 32
0.0
 14
0.0
 24
0.0
 34
0.0
 15
0.0
 25
0.0
 35
0.0
146
0.0
 13
0.0
 23
0.0
 33
0.0
 16
1.0
 26
0.0
 36
0.0
 17
0.0
 27
1.0
 37
0.0
 76
0
330
211
345
0
346
0
  0
ENDSEC
  0
EOF
