999
DXF file: C:\Users\sesa63760\Dev\_Creo\CAD\MCADID0004784_3D-CAD\drw0001_1.dxf
999
Pro/ENGINEER 2019471 by Parametric Technology Corporation
  0
SECTION
  2
HEADER
  9
$ACADVER
  1
AC1024
  9
$DWGCODEPAGE
  3
ANSI_1252
  9
$EXTMAX
 10
57.9781477805
 20
81.9976661467
 30
0.0
  9
$EXTMIN
 10
0.0
 20
0.0
 30
0.0
  9
$LIMMIN
 10
0.0
 20
0.0
  9
$LIMMAX
 10
57.9781477805
 20
81.9976661467
  9
$VIEWCTR
 10
28.9890738903
 20
40.9988330734
  9
$VIEWSIZE
 40
81.9976661467
  9
$CLAYER
  8
0
  9
$LTSCALE
 40
5.3450330525
  9
$CELTYPE
  6
BYLAYER
  9
$DIMSCALE
 40
1.0
  9
$DIMASZ
 40
0.690216045
  9
$DIMEXO
 40
1.0
  9
$DIMDLI
 40
3.6929319272
  9
$DIMEXE
 40
1.0
  9
$DIMCEN
 40
0.8746417722
  9
$DIMLFAC
 40
1.0
  9
$DIMBLK
  1
_FILLED
  9
$DIMALT
 70
0
  9
$DIMALTF
 40
0.0393700787
  9
$DIMTXT
 40
0.966302463
  9
$DIMTOL
 70
1
  9
$DIMLIM
 70
0
  9
$DIMTFAC
 40
1.0
  9
$DIMTP
 40
0.01
  9
$DIMTM
 40
0.01
  9
$DIMGAP
 40
0.625
  9
$DIMDSEP
 70
46
  9
$AUNITS
 70
0
  9
$PDMODE
 70
3
  9
$PDSIZE
 40
0.3125
  9
$HANDSEED
  5
2D3
  9
$TILEMODE
 70
1
  9
$MEASUREMENT
 70
1
  9
$INSUNITS
 70
4
  0
ENDSEC
  0
SECTION
  2
CLASSES
  0
CLASS
  1
ACDBDICTIONARYWDFLT
  2
AcDbDictionaryWithDefault
  3
AutoCAD 2000
 90
0
 91
1
280
0
281
0
  0
CLASS
  1
ACDBPLACEHOLDER
  2
AcDbPlaceHolder
  3
AutoCAD 2000
 90
0
 91
1
280
0
281
0
  0
CLASS
  1
LAYOUT
  2
AcDbLayout
  3
AutoCAD 2000
 90
0
 91
0
280
0
281
0
  0
ENDSEC
  0
SECTION
  2
TABLES
  0
TABLE
  2
VPORT
  5
8
100
AcDbSymbolTable
 70
2
  0
VPORT
  5
1F4
100
AcDbSymbolTableRecord
100
AcDbViewportTableRecord
  2
*ACTIVE
 70
0
 10
0.0
 20
0.0
 11
1.0
 21
1.0
 12
28.9890738903
 22
40.9988330734
 13
0.0
 23
0.0
 14
1.0
 24
1.0
 15
0.0
 25
0.0
 16
0.0
 26
0.0
 36
1.0
 17
0.0
 27
0.0
 37
0.0
 40
81.9976661467
 41
0.7070707071
 42
50.0
 43
0.0
 44
0.0
 50
0.0
 51
0.0
 71
0
 72
100
 73
1
 74
1
 75
0
 76
0
 77
0
 78
0
  0
ENDTAB
  0
TABLE
  2
LTYPE
  5
5
100
AcDbSymbolTable
 70
6
  0
LTYPE
  5
14
100
AcDbSymbolTableRecord
100
AcDbLinetypeTableRecord
  2
BYBLOCK
 70
0
  3

 72
65
 73
0
 40
0.0
  0
LTYPE
  5
15
100
AcDbSymbolTableRecord
100
AcDbLinetypeTableRecord
  2
BYLAYER
 70
0
  3

 72
65
 73
0
 40
0.0
  0
LTYPE
  5
16
100
AcDbSymbolTableRecord
100
AcDbLinetypeTableRecord
  2
CONTINUOUS
 70
64
  3
Solid line
 72
65
 73
0
 40
0.0
  0
LTYPE
  5
1F5
100
AcDbSymbolTableRecord
100
AcDbLinetypeTableRecord
  2
CENTER
 70
64
  3
____ _ ____ _ ____ _ ____ _ ____ _ ____ _ ____
 72
65
 73
4
 40
0.6
 49
0.375
 74
0
 49
-0.075
 74
0
 49
0.075
 74
0
 49
-0.075
 74
0
  0
LTYPE
  5
1F6
100
AcDbSymbolTableRecord
100
AcDbLinetypeTableRecord
  2
HIDDEN
 70
64
  3
- - - - - - - - - - - - - - - - - - - -
 72
65
 73
2
 40
0.2
 49
0.1
 74
0
 49
-0.1
 74
0
  0
LTYPE
  5
1F7
100
AcDbSymbolTableRecord
100
AcDbLinetypeTableRecord
  2
PHANTOM
 70
64
  3
_____ _ _ _____ _ _ _____ _ _ _____
 72
65
 73
6
 40
0.8
 49
0.45
 74
0
 49
-0.05
 74
0
 49
0.1
 74
0
 49
-0.05
 74
0
 49
0.1
 74
0
 49
-0.05
 74
0
  0
LTYPE
  5
1F8
100
AcDbSymbolTableRecord
100
AcDbLinetypeTableRecord
  2
DOT
 70
64
  3
. . . . . . . . . . . . . . . . . . . .
 72
65
 73
2
 40
0.2
 49
0.1
 74
0
 49
-0.1
 74
0
  0
LTYPE
  5
1F9
100
AcDbSymbolTableRecord
100
AcDbLinetypeTableRecord
  2
DASHED
 70
64
  3
- - - - - - - - - - - - - - - - - - - -
 72
65
 73
2
 40
0.2
 49
0.1
 74
0
 49
-0.1
 74
0
  0
ENDTAB
  0
TABLE
  2
LAYER
  5
2
100
AcDbSymbolTable
 70
36
  0
LAYER
  5
10
100
AcDbSymbolTableRecord
100
AcDbLayerTableRecord
  2
0
 70
0
 62
7
  6
CONTINUOUS
370
-3
390
F
  0
LAYER
  5
1FA
100
AcDbSymbolTableRecord
100
AcDbLayerTableRecord
  2
DEFAULT_1
 70
0
 62
7
  6
CENTER
370
-3
390
F
  0
LAYER
  5
1FB
100
AcDbSymbolTableRecord
100
AcDbLayerTableRecord
  2
DEFAULT_2
 70
0
 62
7
  6
HIDDEN
370
-3
390
F
  0
LAYER
  5
1FC
100
AcDbSymbolTableRecord
100
AcDbLayerTableRecord
  2
DEFAULT_3
 70
0
 62
7
  6
PHANTOM
370
-3
390
F
  0
LAYER
  5
1FD
100
AcDbSymbolTableRecord
100
AcDbLayerTableRecord
  2
00_COMPONENTS
 70
0
 62
7
  6
CONTINUOUS
370
-3
390
F
  0
LAYER
  5
1FE
100
AcDbSymbolTableRecord
100
AcDbLayerTableRecord
  2
01_1_DEFAULT_DATUMS
 70
0
 62
7
  6
CONTINUOUS
370
-3
390
F
  0
LAYER
  5
1FF
100
AcDbSymbolTableRecord
100
AcDbLayerTableRecord
  2
01_PLANES
 70
0
 62
7
  6
CONTINUOUS
370
-3
390
F
  0
LAYER
  5
200
100
AcDbSymbolTableRecord
100
AcDbLayerTableRecord
  2
02_COORD_SYS
 70
0
 62
7
  6
CONTINUOUS
370
-3
390
F
  0
LAYER
  5
201
100
AcDbSymbolTableRecord
100
AcDbLayerTableRecord
  2
03_AXES
 70
0
 62
7
  6
CONTINUOUS
370
-3
390
F
  0
LAYER
  5
202
100
AcDbSymbolTableRecord
100
AcDbLayerTableRecord
  2
04_POINTS
 70
0
 62
7
  6
CONTINUOUS
370
-3
390
F
  0
LAYER
  5
203
100
AcDbSymbolTableRecord
100
AcDbLayerTableRecord
  2
05_CURVES
 70
0
 62
7
  6
CONTINUOUS
370
-3
390
F
  0
LAYER
  5
204
100
AcDbSymbolTableRecord
100
AcDbLayerTableRecord
  2
06_SURFS
 70
0
 62
7
  6
CONTINUOUS
370
-3
390
F
  0
LAYER
  5
205
100
AcDbSymbolTableRecord
100
AcDbLayerTableRecord
  2
07_COSMETICS
 70
0
 62
7
  6
CONTINUOUS
370
-3
390
F
  0
LAYER
  5
206
100
AcDbSymbolTableRecord
100
AcDbLayerTableRecord
  2
10_NOTES
 70
0
 62
7
  6
CONTINUOUS
370
-3
390
F
  0
LAYER
  5
207
100
AcDbSymbolTableRecord
100
AcDbLayerTableRecord
  2
11_NOTES_PUB
 70
0
 62
7
  6
CONTINUOUS
370
-3
390
F
  0
LAYER
  5
208
100
AcDbSymbolTableRecord
100
AcDbLayerTableRecord
  2
13_REF_GTOL
 70
0
 62
7
  6
CONTINUOUS
370
-3
390
F
  0
LAYER
  5
209
100
AcDbSymbolTableRecord
100
AcDbLayerTableRecord
  2
16_MISC
 70
0
 62
7
  6
CONTINUOUS
370
-3
390
F
  0
LAYER
  5
20A
100
AcDbSymbolTableRecord
100
AcDbLayerTableRecord
  2
17_NO_PRINT
 70
0
 62
7
  6
CONTINUOUS
370
-3
390
F
  0
LAYER
  5
20B
100
AcDbSymbolTableRecord
100
AcDbLayerTableRecord
  2
18_DATUM_CAMS_JOINTS
 70
0
 62
7
  6
CONTINUOUS
370
-3
390
F
  0
LAYER
  5
20C
100
AcDbSymbolTableRecord
100
AcDbLayerTableRecord
  2
19_DATUM_FUNCTIONAL
 70
0
 62
7
  6
CONTINUOUS
370
-3
390
F
  0
LAYER
  5
20D
100
AcDbSymbolTableRecord
100
AcDbLayerTableRecord
  2
20_DATUM_KINEMATIC_SCHEME
 70
0
 62
7
  6
CONTINUOUS
370
-3
390
F
  0
ENDTAB
  0
TABLE
  2
STYLE
  5
3
100
AcDbSymbolTable
 70
1
  0
STYLE
  5
11
100
AcDbSymbolTableRecord
100
AcDbTextStyleTableRecord
  2
STANDARD
 70
0
 40
0.0
 41
1.0
 50
0.0
 71
0
 42
0.2
  3
ARIAL.TTF
  4

  0
STYLE
  5
20E
100
AcDbSymbolTableRecord
100
AcDbTextStyleTableRecord
  2
TEXTSTYLE_1
 70
0
 40
0.0
 41
0.8
 50
0.0
 71
0
 42
0.2
  3
gdt
  4

  0
ENDTAB
  0
TABLE
  2
VIEW
  5
6
100
AcDbSymbolTable
 70
0
  0
ENDTAB
  0
TABLE
  2
UCS
  5
7
100
AcDbSymbolTable
 70
0
  0
ENDTAB
  0
TABLE
  2
APPID
  5
9
100
AcDbSymbolTable
 70
1
  0
APPID
  5
20F
100
AcDbSymbolTableRecord
100
AcDbRegAppTableRecord
  2
ACAD
 70
0
  0
ENDTAB
  0
TABLE
  2
BLOCK_RECORD
  5
1
100
AcDbSymbolTable
 70
0
  0
BLOCK_RECORD
  5
210
100
AcDbSymbolTableRecord
100
AcDbBlockTableRecord
  2
*Model_Space
  0
BLOCK_RECORD
  5
211
100
AcDbSymbolTableRecord
100
AcDbBlockTableRecord
  2
*Paper_Space
  0
BLOCK_RECORD
  5
212
100
AcDbSymbolTableRecord
100
AcDbBlockTableRecord
  2
_FILLED
  0
ENDTAB
  0
TABLE
  2
DIMSTYLE
  5
A
100
AcDbSymbolTable
 70
1
100
AcDbDimStyleTable
 71
0
  0
DIMSTYLE
105
213
100
AcDbSymbolTableRecord
100
AcDbDimStyleTableRecord
  2
STANDARD
 70
0
  3

  4

 40
1.0
 41
0.690216045
 42
1.0
 43
0.38
 44
1.0
 45
0.0
 46
0.0
 47
0.01
 48
0.01
140
0.966302463
141
0.09
142
0.0
143
25.4
144
1.0
145
0.0
146
1.0
147
0.625
 71
1
 72
0
 73
0
 74
0
 75
0
 76
0
 77
1
 78
8
 79
2
170
0
171
1
172
0
173
0
174
0
175
0
176
0
177
0
178
0
270
2
179
2
271
2
272
2
273
2
274
2
275
0
280
0
281
0
282
0
283
1
284
8
285
0
286
0
287
3
288
0
340
11
278
46
341
212
342
212
343
212
344
212
  0
ENDTAB
  0
ENDSEC
  0
SECTION
  2
BLOCKS
  0
BLOCK
  5
20
100
AcDbEntity
  8
0
100
AcDbBlockBegin
  2
*Model_Space
 70
0
 10
0.0
 20
0.0
 30
0.0
  3
*Model_Space
  1

  0
ENDBLK
  5
21
100
AcDbEntity
  8
0
100
AcDbBlockEnd
  0
BLOCK
  5
1C
100
AcDbEntity
  8
0
100
AcDbBlockBegin
  2
*Paper_Space
 70
0
 10
0.0
 20
0.0
 30
0.0
  3
*Paper_Space
  1

  0
ENDBLK
  5
1D
100
AcDbEntity
  8
0
100
AcDbBlockEnd
  0
BLOCK
  5
214
100
AcDbEntity
  8
0
100
AcDbBlockBegin
  2
_FILLED
 70
64
 10
0.0
 20
0.0
  3
_FILLED
  1

  0
SOLID
  5
215
100
AcDbEntity
  8
0
  6
BYBLOCK
 62
0
100
AcDbTrace
 10
0.0
 20
0.0
 11
-1.0
 21
0.25
 12
-1.0
 22
-0.25
 13
-1.0
 23
-0.25
  0
ENDBLK
  5
216
100
AcDbEntity
  8
0
  6
BYBLOCK
 62
0
100
AcDbBlockEnd
  0
ENDSEC
  0
SECTION
  2
ENTITIES
  0
LINE
  5
217
100
AcDbEntity
  8
0
100
AcDbLine
 62
7
  6
BYLAYER
 10
6.726132197
 20
36.4808411785
 11
6.726132197
 21
48.3201262269
  0
LINE
  5
218
100
AcDbEntity
  8
0
100
AcDbLine
 62
7
  6
BYLAYER
 10
7.1654764411
 20
35.8684749477
 11
7.1654764411
 21
47.7077599961
  0
LINE
  5
219
100
AcDbEntity
  8
0
100
AcDbLine
 62
7
  6
BYLAYER
 10
22.3918734626
 20
63.3165637727
 11
24.9609092823
 21
64.7997884411
  0
LWPOLYLINE
  5
21A
100
AcDbEntity
  8
0
100
AcDbPolyline
 62
7
  6
BYLAYER
 90
4
 70
0
 10
23.1813064301
 20
64.3438822027
 10
23.9214220786
 20
64.7257505441
 10
26.5163311557
 20
65.5537569444
 10
27.9744986317
 20
65.696798547
  0
LINE
  5
21B
100
AcDbEntity
  8
0
100
AcDbLine
 62
7
  6
BYLAYER
 10
11.8323529349
 20
55.382809893
 11
20.0893356324
 21
60.1499526201
  0
LINE
  5
21C
100
AcDbEntity
  8
0
100
AcDbLine
 62
7
  6
BYLAYER
 10
25.0251678223
 20
18.2614754706
 11
27.8536051743
 21
16.6285133466
  0
LINE
  5
21D
100
AcDbEntity
  8
0
100
AcDbLine
 62
7
  6
BYLAYER
 10
7.1654676092
 20
48.9324873587
 11
11.8323529349
 21
51.6268987742
  0
LINE
  5
21E
100
AcDbEntity
  8
0
100
AcDbLine
 62
7
  6
BYLAYER
 10
11.8323529349
 20
51.6268987742
 11
11.8323529349
 21
55.382809893
  0
LINE
  5
21F
100
AcDbEntity
  8
0
100
AcDbLine
 62
7
  6
BYLAYER
 10
11.8324006271
 20
45.0133710162
 11
11.8324006271
 21
48.769282135
  0
LINE
  5
220
100
AcDbEntity
  8
0
100
AcDbLine
 62
7
  6
BYLAYER
 10
15.8021626339
 20
51.0612116173
 11
11.8324006271
 21
48.769282135
  0
LINE
  5
221
100
AcDbEntity
  8
0
100
AcDbLine
 62
7
  6
BYLAYER
 10
28.4823243559
 20
23.3923592382
 11
7.2690326015
 21
35.6395818738
  0
LINE
  5
222
100
AcDbEntity
  8
0
100
AcDbLine
 62
7
  6
BYLAYER
 10
28.3787681955
 20
23.6212523121
 11
7.1654764411
 21
35.8684749477
  0
LINE
  5
223
100
AcDbEntity
  8
0
100
AcDbLine
 62
7
  6
BYLAYER
 10
15.6893356324
 20
52.8925907531
 11
15.6893356324
 21
50.9960713064
  0
LINE
  5
224
100
AcDbEntity
  8
0
100
AcDbLine
 62
7
  6
BYLAYER
 10
36.4867978022
 20
58.1454641424
 11
33.9177619824
 21
56.662239474
  0
LINE
  5
225
100
AcDbEntity
  8
0
100
AcDbLine
 62
7
  6
BYLAYER
 10
20.0893356324
 20
60.322762749
 11
20.0893356324
 21
52.076088336
  0
LINE
  5
226
100
AcDbEntity
  8
0
100
AcDbLine
 62
7
  6
BYLAYER
 10
21.0893356324
 20
60.322762749
 11
21.0893356324
 21
60.7310139575
  0
LINE
  5
227
100
AcDbEntity
  8
0
100
AcDbLine
 62
7
  6
BYLAYER
 10
23.1893356324
 20
60.7310139575
 11
23.1893356324
 21
62.2007183084
  0
LINE
  5
228
100
AcDbEntity
  8
0
100
AcDbLine
 62
7
  6
BYLAYER
 10
23.7118440096
 20
38.1549263403
 11
23.7118440096
 21
41.9108374591
  0
LINE
  5
229
100
AcDbEntity
  8
0
100
AcDbLine
 62
7
  6
BYLAYER
 10
23.7824908924
 20
21.4164356296
 11
23.782493898
 21
21.0081923575
  0
LINE
  5
22A
100
AcDbEntity
  8
0
100
AcDbLine
 62
7
  6
BYLAYER
 10
24.4493356324
 20
24.2455701134
 11
24.4493356324
 21
25.720753688
  0
LINE
  5
22B
100
AcDbEntity
  8
0
100
AcDbLine
 62
7
  6
BYLAYER
 10
24.5691993807
 20
24.5423428456
 11
24.5691993807
 21
25.6515518862
  0
LINE
  5
22C
100
AcDbEntity
  8
0
100
AcDbLine
 62
7
  6
BYLAYER
 10
24.9609679649
 20
56.6622179445
 11
24.9609679649
 21
56.371623842
  0
LINE
  5
22D
100
AcDbEntity
  8
0
100
AcDbLine
 62
7
  6
BYLAYER
 10
28.3787681955
 20
35.4605373605
 11
23.7118440096
 21
38.1549263403
  0
LINE
  5
22E
100
AcDbEntity
  8
0
100
AcDbLine
 62
7
  6
BYLAYER
 10
11.8324006271
 20
45.0133710162
 11
7.1654764411
 21
47.7077599961
  0
LINE
  5
22F
100
AcDbEntity
  8
0
100
AcDbLine
 62
7
  6
BYLAYER
 10
23.7118440096
 20
41.9108374591
 11
27.6816060164
 21
44.2027669414
  0
LINE
  5
230
100
AcDbEntity
  8
0
100
AcDbLine
 62
7
  6
BYLAYER
 10
43.1678383962
 20
53.1436940045
 11
47.0462706376
 21
55.3828945369
  0
LINE
  5
231
100
AcDbEntity
  8
0
100
AcDbLine
 62
7
  6
BYLAYER
 10
23.7118440096
 20
41.9108374591
 11
11.8324006271
 21
48.769282135
  0
LINE
  5
232
100
AcDbEntity
  8
0
100
AcDbLine
 62
7
  6
BYLAYER
 10
27.6816060164
 20
44.2027669414
 11
27.6816060164
 21
40.4468558226
  0
LINE
  5
233
100
AcDbEntity
  8
0
100
AcDbLine
 62
7
  6
BYLAYER
 10
28.3522364102
 20
23.4674638496
 11
28.3522364102
 21
17.9256378179
  0
LINE
  5
234
100
AcDbEntity
  8
0
100
AcDbLine
 62
7
  6
BYLAYER
 10
28.3787681955
 20
35.4605373605
 11
28.3787681955
 21
23.6212523121
  0
LINE
  5
235
100
AcDbEntity
  8
0
100
AcDbLine
 62
7
  6
BYLAYER
 10
23.7118440096
 20
38.1549263403
 11
27.6816060164
 21
40.4468558226
  0
LINE
  5
236
100
AcDbEntity
  8
0
100
AcDbLine
 62
7
  6
BYLAYER
 10
44.5714905004
 20
50.1981769685
 11
47.0462706376
 21
51.6269834181
  0
LINE
  5
237
100
AcDbEntity
  8
0
100
AcDbLine
 62
7
  6
BYLAYER
 10
30.5000885391
 20
23.6212574111
 11
30.5000885391
 21
35.4605424595
  0
LINE
  5
238
100
AcDbEntity
  8
0
100
AcDbLine
 62
7
  6
BYLAYER
 10
31.1971788024
 20
40.446864273
 11
31.1971788024
 21
44.2027753918
  0
LINE
  5
239
100
AcDbEntity
  8
0
100
AcDbLine
 62
7
  6
BYLAYER
 10
35.1669738647
 20
41.9108649938
 11
47.0463183299
 21
48.7693667789
  0
LINE
  5
23A
100
AcDbEntity
  8
0
100
AcDbLine
 62
7
  6
BYLAYER
 10
11.8323529349
 20
51.6268987742
 11
14.3071807644
 21
50.1980885847
  0
LINE
  5
23B
100
AcDbEntity
  8
0
100
AcDbLine
 62
7
  6
BYLAYER
 10
31.1971788024
 20
40.446864273
 11
35.1669738647
 21
38.1549538751
  0
LINE
  5
23C
100
AcDbEntity
  8
0
100
AcDbLine
 62
7
  6
BYLAYER
 10
33.9177619824
 20
56.4045886558
 11
33.9177619824
 21
56.662239474
  0
LINE
  5
23D
100
AcDbEntity
  8
0
100
AcDbLine
 62
7
  6
BYLAYER
 10
11.8323529349
 20
55.382809893
 11
15.7285525459
 21
53.1333888875
  0
LINE
  5
23E
100
AcDbEntity
  8
0
100
AcDbLine
 62
7
  6
BYLAYER
 10
31.1971788024
 20
44.2027753918
 11
35.1669738647
 21
41.9108649938
  0
LINE
  5
23F
100
AcDbEntity
  8
0
100
AcDbLine
 62
7
  6
BYLAYER
 10
34.4293356324
 20
20.7373773232
 11
34.4293356324
 21
25.7206904831
  0
LINE
  5
240
100
AcDbEntity
  8
0
100
AcDbLine
 62
7
  6
BYLAYER
 10
35.0961772965
 20
24.27416008
 11
35.0961803079
 21
23.86591673
  0
LINE
  5
241
100
AcDbEntity
  8
0
100
AcDbLine
 62
7
  6
BYLAYER
 10
35.1669738647
 20
38.1549538751
 11
35.1669738647
 21
41.9108649938
  0
LINE
  5
242
100
AcDbEntity
  8
0
100
AcDbLine
 62
7
  6
BYLAYER
 10
35.6893356324
 20
60.7310139575
 11
35.6893356324
 21
62.2007183084
  0
LINE
  5
243
100
AcDbEntity
  8
0
100
AcDbLine
 62
7
  6
BYLAYER
 10
30.5000885391
 20
35.4605424595
 11
35.1669738647
 21
38.1549538751
  0
LINE
  5
244
100
AcDbEntity
  8
0
100
AcDbLine
 62
7
  6
BYLAYER
 10
47.0463183299
 20
45.0134556601
 11
51.7132036555
 21
47.7078670756
  0
LINE
  5
245
100
AcDbEntity
  8
0
100
AcDbLine
 62
7
  6
BYLAYER
 10
37.7893356324
 20
60.322762749
 11
37.7893356324
 21
60.7310139575
  0
LINE
  5
246
100
AcDbEntity
  8
0
100
AcDbLine
 62
7
  6
BYLAYER
 10
38.7893356324
 20
60.322762749
 11
38.7893356324
 21
52.076088336
  0
LINE
  5
247
100
AcDbEntity
  8
0
100
AcDbLine
 62
7
  6
BYLAYER
 10
24.9609679649
 20
56.6622179445
 11
22.3919107532
 21
58.1454302625
  0
LWPOLYLINE
  5
248
100
AcDbEntity
  8
0
100
AcDbPolyline
 62
7
  6
BYLAYER
 90
5
 70
0
 10
43.1891817225
 20
52.8925907333
 10
43.1229708795
 20
53.6715583136
 10
42.1429068444
 20
55.9301751431
 10
40.0735673753
 20
57.9249274207
 10
38.7893356324
 20
58.5979014781
  0
LINE
  5
249
100
AcDbEntity
  8
0
100
AcDbLine
 62
7
  6
BYLAYER
 10
43.1893356324
 20
52.8925907531
 11
43.1893356324
 21
50.9961464011
  0
LINE
  5
24A
100
AcDbEntity
  8
0
100
AcDbLine
 62
7
  6
BYLAYER
 10
51.7132036555
 20
35.8685820273
 11
30.5000885391
 21
23.6212574111
  0
LINE
  5
24B
100
AcDbEntity
  8
0
100
AcDbLine
 62
7
  6
BYLAYER
 10
51.6096476737
 20
35.6396890565
 11
30.3965325573
 21
23.3923644403
  0
LINE
  5
24C
100
AcDbEntity
  8
0
100
AcDbLine
 62
7
  6
BYLAYER
 10
47.0463183299
 20
48.7693667789
 11
43.0765232676
 21
51.0612771768
  0
LINE
  5
24D
100
AcDbEntity
  8
0
100
AcDbLine
 62
7
  6
BYLAYER
 10
47.0462706376
 20
51.6269834181
 11
47.0462706376
 21
55.3828945369
  0
LINE
  5
24E
100
AcDbEntity
  8
0
100
AcDbLine
 62
7
  6
BYLAYER
 10
47.0463183299
 20
45.0134556601
 11
47.0463183299
 21
48.7693667789
  0
LINE
  5
24F
100
AcDbEntity
  8
0
100
AcDbLine
 62
7
  6
BYLAYER
 10
51.7131948236
 20
48.9325944382
 11
47.0462706376
 21
51.6269834181
  0
LINE
  5
250
100
AcDbEntity
  8
0
100
AcDbLine
 62
7
  6
BYLAYER
 10
33.8382433154
 20
19.3772851056
 11
33.0400183882
 21
18.7428145101
  0
LINE
  5
251
100
AcDbEntity
  8
0
100
AcDbLine
 62
7
  6
BYLAYER
 10
51.7132036555
 20
47.7078670756
 11
51.7132036555
 21
35.8685820273
  0
LINE
  5
252
100
AcDbEntity
  8
0
100
AcDbLine
 62
7
  6
BYLAYER
 10
31.2071764073
 20
17.1298502471
 11
30.8536267772
 21
16.9257225147
  0
LINE
  5
253
100
AcDbEntity
  8
0
100
AcDbLine
 62
7
  6
BYLAYER
 10
47.0462706376
 20
55.3828945369
 11
38.7893356324
 21
60.1499303401
  0
LINE
  5
254
100
AcDbEntity
  8
0
100
AcDbLine
 62
7
  6
BYLAYER
 10
52.1525390678
 20
36.480943159
 11
52.1525390678
 21
48.3202282074
  0
LINE
  5
255
100
AcDbEntity
  8
0
100
AcDbLine
 62
7
  6
BYLAYER
 10
28.4075193528
 20
65.7392765058
 11
29.4392987863
 21
65.8404907944
  0
LINE
  5
256
100
AcDbEntity
  8
0
100
AcDbLine
 62
7
  6
BYLAYER
 10
29.8900696227
 20
65.8338462706
 11
29.9069838987
 21
65.8333383399
  0
LINE
  5
257
100
AcDbEntity
  8
0
100
AcDbLine
 62
7
  6
BYLAYER
 10
29.8870367292
 20
65.7995498482
 11
29.9037435807
 21
65.7980221816
  0
LINE
  5
258
100
AcDbEntity
  8
0
100
AcDbLine
 62
7
  6
BYLAYER
 10
33.9177032998
 20
64.7998099706
 11
36.4867605115
 21
63.3165976526
  0
ARC
  5
259
100
AcDbEntity
  8
0
100
AcDbCircle
 62
7
  6
BYLAYER
 10
29.4393354765
 20
64.1323475035
 40
23.7506237607
100
AcDbArc
 50
265.7557897339
 51
274.2444857104
  0
ARC
  5
25A
100
AcDbEntity
  8
0
100
AcDbCircle
 62
7
  6
BYLAYER
 10
29.4392230924
 20
50.5416713407
 40
15.2988194538
100
AcDbArc
 50
88.311285141
 51
89.999716518
  0
ARC
  5
25B
100
AcDbEntity
  8
0
100
AcDbCircle
 62
7
  6
BYLAYER
 10
26.3844337584
 20
46.9515700853
 40
13.3402728896
100
AcDbArc
 50
118.3345315344
 51
119.9886952538
  0
ARC
  5
25C
100
AcDbEntity
  8
0
100
AcDbCircle
 62
7
  6
BYLAYER
 10
29.439340132
 20
48.854641839
 40
12.9693619674
100
AcDbArc
 50
82.6204120432
 51
97.3844420935
  0
ARC
  5
25D
100
AcDbEntity
  8
0
100
AcDbCircle
 62
7
  6
BYLAYER
 10
28.7185350592
 20
54.5461983693
 40
10.92043318
100
AcDbArc
 50
107.7214800976
 51
110.1263336921
  0
ARC
  5
25E
100
AcDbEntity
  8
0
100
AcDbCircle
 62
7
  6
BYLAYER
 10
30.2046185373
 20
54.6754127507
 40
10.7838034811
100
AcDbArc
 50
69.8596770295
 51
72.1868751092
  0
ARC
  5
25F
100
AcDbEntity
  8
0
100
AcDbCircle
 62
7
  6
BYLAYER
 10
31.6906037816
 20
57.4011119133
 40
8.0159961324
100
AcDbArc
 50
56.9213714825
 51
60.0115314862
  0
ARC
  5
260
100
AcDbEntity
  8
0
100
AcDbCircle
 62
7
  6
BYLAYER
 10
27.1295672799
 20
57.4951355548
 40
7.9053097322
100
AcDbArc
 50
119.9631420568
 51
123.0359156339
  0
ARC
  5
261
100
AcDbEntity
  8
0
100
AcDbCircle
 62
7
  6
BYLAYER
 10
27.1791929881
 20
63.2484889133
 40
7.3078241058
100
AcDbArc
 50
236.8080232478
 51
238.0022772639
  0
ARC
  5
262
100
AcDbEntity
  8
0
100
AcDbCircle
 62
7
  6
BYLAYER
 10
31.7102061703
 20
63.2328122534
 40
7.2888531876
100
AcDbArc
 50
301.7350453468
 51
303.1270787691
  0
ARC
  5
263
100
AcDbEntity
  8
0
100
AcDbCircle
 62
7
  6
BYLAYER
 10
29.4393356324
 20
23.4576786156
 40
6.0
100
AcDbArc
 50
273.0954180877
 51
317.1512317012
  0
ARC
  5
264
100
AcDbEntity
  8
0
100
AcDbCircle
 62
7
  6
BYLAYER
 10
29.7156683846
 20
21.0062318202
 40
5.9331748105
100
AcDbArc
 50
176.2230994288
 51
179.9810673851
  0
ARC
  5
265
100
AcDbEntity
  8
0
100
AcDbCircle
 62
7
  6
BYLAYER
 10
21.195134483
 20
52.0676984515
 40
4.2562121847
100
AcDbArc
 50
169.4538626196
 51
174.3790702707
  0
ARC
  5
266
100
AcDbEntity
  8
0
100
AcDbCircle
 62
7
  6
BYLAYER
 10
37.7016631946
 20
52.0702643929
 40
4.2379219295
100
AcDbArc
 50
5.6096218334
 51
10.5535789139
  0
ARC
  5
267
100
AcDbEntity
  8
0
100
AcDbCircle
 62
7
  6
BYLAYER
 10
28.8009400354
 20
23.0094825002
 40
3.4430636587
100
AcDbArc
 50
324.3990999815
 51
329.8779408217
  0
ARC
  5
268
100
AcDbEntity
  8
0
100
AcDbCircle
 62
7
  6
BYLAYER
 10
34.9857844153
 20
60.7317566439
 40
2.8035427897
100
AcDbArc
 50
351.9095435838
 51
359.9848217779
  0
ARC
  5
269
100
AcDbEntity
  8
0
100
AcDbCircle
 62
7
  6
BYLAYER
 10
23.8848569709
 20
60.7311876983
 40
2.7955128182
100
AcDbArc
 50
180.0035609263
 51
188.1020849535
  0
ARC
  5
26A
100
AcDbEntity
  8
0
100
AcDbCircle
 62
7
  6
BYLAYER
 10
32.2528620454
 20
20.2575067917
 40
0.9313361976
100
AcDbArc
 50
192.5187723189
 51
196.6009421944
  0
SPLINE
  5
26B
100
AcDbEntity
  8
0
100
AcDbSpline
 62
7
  6
BYLAYER
 70
0
 71
3
 72
15
 73
11
 74
0
 42
0.0000001
 43
0.0000001
 44
0.0000000001
 40
0.0
 40
0.0
 40
0.0
 40
0.0
 40
0.1080132545
 40
0.2180628545
 40
0.3320004292
 40
0.4513586816
 40
0.5772803949
 40
0.7104957582
 40
0.8514075377
 40
1.0
 40
1.0
 40
1.0
 40
1.0
 10
27.8536051743
 20
16.6285133466
 30
0.0
 10
27.9519757878
 20
16.5717203354
 30
0.0
 10
28.1608354111
 20
16.4739197493
 30
0.0
 10
28.4987780642
 20
16.3804770544
 30
0.0
 10
28.8590303225
 20
16.3402939203
 30
0.0
 10
29.2377628239
 20
16.3534659098
 30
0.0
 10
29.6313141243
 20
16.4195002036
 30
0.0
 10
30.0360308933
 20
16.5374796402
 30
0.0
 10
30.448090362
 20
16.7061296942
 30
0.0
 10
30.7182276355
 20
16.8475502497
 30
0.0
 10
30.8535542732
 20
16.925680654
 30
0.0
  0
SPLINE
  5
26C
100
AcDbEntity
  8
0
100
AcDbSpline
 62
7
  6
BYLAYER
 70
0
 71
3
 72
10
 73
6
 74
0
 42
0.0000001
 43
0.0000001
 44
0.0000000001
 40
0.0
 40
0.0
 40
0.0
 40
0.0
 40
0.2707077205
 40
0.5276507961
 40
1.0
 40
1.0
 40
1.0
 40
1.0
 10
35.0961772965
 20
24.27416008
 30
0.0
 10
35.0961772965
 20
24.4280758779
 30
0.0
 10
35.083925853
 20
24.7283858374
 30
0.0
 10
35.0086141537
 20
25.2922215735
 30
0.0
 10
34.8917076237
 20
25.6950686351
 30
0.0
 10
34.7829970973
 20
25.9406454291
 30
0.0
  0
SPLINE
  5
26D
100
AcDbEntity
  8
0
100
AcDbSpline
 62
7
  6
BYLAYER
 70
0
 71
3
 72
15
 73
11
 74
0
 42
0.0000001
 43
0.0000001
 44
0.0000000001
 40
0.0
 40
0.0
 40
0.0
 40
0.0
 40
0.1080125016
 40
0.2180614641
 40
0.3319986113
 40
0.4513567042
 40
0.5772785473
 40
0.7104943145
 40
0.8514067285
 40
1.0
 40
1.0
 40
1.0
 40
1.0
 10
25.0251678223
 20
18.2614754706
 30
0.0
 10
24.9267939887
 20
18.3182703409
 30
0.0
 10
24.7376578078
 20
18.4502490778
 30
0.0
 10
24.4877513059
 20
18.6962002774
 30
0.0
 10
24.2728157267
 20
18.9881054362
 30
0.0
 10
24.0948487109
 20
19.3226956734
 30
0.0
 10
23.9552543251
 20
19.6965533311
 30
0.0
 10
23.8550650551
 20
20.1060555759
 30
0.0
 10
23.7950885977
 20
20.5472541228
 30
0.0
 10
23.782493898
 20
20.8519237939
 30
0.0
 10
23.782493898
 20
21.0081923575
 30
0.0
  0
SPLINE
  5
26E
100
AcDbEntity
  8
0
100
AcDbSpline
 62
7
  6
BYLAYER
 70
0
 71
3
 72
15
 73
11
 74
0
 42
0.0000001
 43
0.0000001
 44
0.0000000001
 40
0.0
 40
0.0
 40
0.0
 40
0.0
 40
0.1114749978
 40
0.2281482149
 40
0.3494500931
 40
0.4747581383
 40
0.603315171
 40
0.7342979411
 40
0.8668299583
 40
1.0
 40
1.0
 40
1.0
 40
1.0
 10
23.7824908924
 20
21.4164356296
 30
0.0
 10
23.7824908924
 20
21.5730686617
 30
0.0
 10
23.7969885066
 20
21.8937630714
 30
0.0
 10
23.8583049417
 20
22.3813803292
 30
0.0
 10
23.9591110287
 20
22.8822192396
 30
0.0
 10
24.0983063382
 20
23.391053756
 30
0.0
 10
24.2744848043
 20
23.9026761762
 30
0.0
 10
24.4858134224
 20
24.4118003771
 30
0.0
 10
24.730091046
 20
24.9131472447
 30
0.0
 10
24.9132464021
 20
25.2387624497
 30
0.0
 10
25.0097424861
 20
25.399078213
 30
0.0
  0
SPLINE
  5
26F
100
AcDbEntity
  8
0
100
AcDbSpline
 62
7
  6
BYLAYER
 70
0
 71
3
 72
11
 73
7
 74
0
 42
0.0000001
 43
0.0000001
 44
0.0000000001
 40
0.0
 40
0.0
 40
0.0
 40
0.0
 40
0.2336113335
 40
0.4791560199
 40
0.7352090067
 40
1.0
 40
1.0
 40
1.0
 40
1.0
 10
31.2071764066
 20
17.1298564461
 30
0.0
 10
31.358905945
 20
17.2174600091
 30
0.0
 10
31.6611816556
 20
17.4129458034
 30
0.0
 10
32.0964892865
 20
17.7523732977
 30
0.0
 10
32.5203061183
 20
18.1414650831
 30
0.0
 10
32.7878144646
 20
18.4266599986
 30
0.0
 10
32.9185622679
 20
18.5761324047
 30
0.0
  0
SPLINE
  5
270
100
AcDbEntity
  8
0
100
AcDbSpline
 62
7
  6
BYLAYER
 70
0
 71
3
 72
13
 73
9
 74
0
 42
0.0000001
 43
0.0000001
 44
0.0000000001
 40
0.0
 40
0.0
 40
0.0
 40
0.0
 40
0.2661907063
 40
0.523538138
 40
0.6479298452
 40
0.7689973817
 40
0.8864586702
 40
1.0
 40
1.0
 40
1.0
 40
1.0
 10
34.4577236493
 20
21.0319568057
 30
0.0
 10
34.5598361886
 20
21.2704235342
 30
0.0
 10
34.740855667
 20
21.7482266906
 30
0.0
 10
34.910619031
 20
22.3574393931
 30
0.0
 10
35.0066920171
 20
22.8381153918
 30
0.0
 10
35.0579679436
 20
23.1882310722
 30
0.0
 10
35.0889695621
 20
23.5301004238
 30
0.0
 10
35.0961803079
 20
23.7552678134
 30
0.0
 10
35.0961803079
 20
23.86591673
 30
0.0
  0
SPLINE
  5
271
100
AcDbEntity
  8
0
100
AcDbSpline
 62
7
  6
BYLAYER
 70
0
 71
3
 72
14
 73
10
 74
0
 42
0.0000001
 43
0.0000001
 44
0.0000000001
 40
0.0
 40
0.0
 40
0.0
 40
0.0
 40
0.1413563072
 40
0.2779708045
 40
0.536449518
 40
0.6586655308
 40
0.7764250538
 40
0.8900534011
 40
1.0
 40
1.0
 40
1.0
 40
1.0
 10
35.0961803079
 20
23.86591673
 30
0.0
 10
35.0961803079
 20
23.9619944879
 30
0.0
 10
35.090921433
 20
24.1509981522
 30
0.0
 10
35.0588389806
 20
24.5143231156
 30
0.0
 10
34.9944994444
 20
24.861404693
 30
0.0
 10
34.8949538777
 20
25.1855507343
 30
0.0
 10
34.8059145111
 20
25.4091088563
 30
0.0
 10
34.7014473593
 20
25.6165884564
 30
0.0
 10
34.6205728424
 20
25.7455740791
 30
0.0
 10
34.5777236688
 20
25.8067980892
 30
0.0
  0
SPLINE
  5
272
100
AcDbEntity
  8
0
100
AcDbSpline
 62
7
  6
BYLAYER
 70
0
 71
3
 72
25
 73
21
 74
0
 42
0.0000001
 43
0.0000001
 44
0.0000000001
 40
0.0
 40
0.0
 40
0.0
 40
0.0
 40
0.0753088574
 40
0.1469748651
 40
0.2149624607
 40
0.2476350081
 40
0.2794596311
 40
0.3407070817
 40
0.3991912096
 40
0.4555430887
 40
0.4831791809
 40
0.5105843619
 40
0.565114167
 40
0.6200978581
 40
0.6764207697
 40
0.7348640885
 40
0.7960612344
 40
0.8604768359
 40
0.9284082531
 40
1.0
 40
1.0
 40
1.0
 40
1.0
 10
27.3180395826
 20
19.3752318942
 30
0.0
 10
27.3180395826
 20
19.2403365586
 30
0.0
 10
27.3283044567
 20
18.9769080578
 30
0.0
 10
27.3769758464
 20
18.5944420009
 30
0.0
 10
27.4456395081
 20
18.2928778062
 30
0.0
 10
27.517212647
 20
18.0664953426
 30
0.0
 10
27.5972874944
 20
17.8558679605
 30
0.0
 10
27.7163234422
 20
17.6110163751
 30
0.0
 10
27.8911723673
 20
17.3473408201
 30
0.0
 10
28.0622277093
 20
17.1565342556
 30
0.0
 10
28.2119297142
 20
17.0243422326
 30
0.0
 10
28.3689385377
 20
16.9062853863
 30
0.0
 10
28.5821442225
 20
16.7827768152
 30
0.0
 10
28.8608147152
 20
16.6764475078
 30
0.0
 10
29.1593487583
 20
16.6129367683
 30
0.0
 10
29.4749058392
 20
16.5926186532
 30
0.0
 10
29.8046885238
 20
16.6154217775
 30
0.0
 10
30.1459000839
 20
16.6809211451
 30
0.0
 10
30.4956891557
 20
16.7883667967
 30
0.0
 10
30.7266980325
 20
16.8848142236
 30
0.0
 10
30.8428145507
 20
16.9392359021
 30
0.0
  0
SPLINE
  5
273
100
AcDbEntity
  8
0
100
AcDbSpline
 62
7
  6
BYLAYER
 70
0
 71
3
 72
9
 73
5
 74
0
 42
0.0000001
 43
0.0000001
 44
0.0000000001
 40
0.0
 40
0.0
 40
0.0
 40
0.0
 40
0.245421697
 40
1.0
 40
1.0
 40
1.0
 40
1.0
 10
30.8428145507
 20
16.9392359021
 30
0.0
 10
30.8732803951
 20
16.9535146835
 30
0.0
 10
30.9967587058
 20
17.0130938596
 30
0.0
 10
31.1175879666
 20
17.0781310758
 30
0.0
 10
31.2071764066
 20
17.1298564461
 30
0.0
  0
SPLINE
  5
274
100
AcDbEntity
  8
0
100
AcDbSpline
 62
7
  6
BYLAYER
 70
0
 71
3
 72
15
 73
11
 74
0
 42
0.0000001
 43
0.0000001
 44
0.0000000001
 40
0.0
 40
0.0
 40
0.0
 40
0.0
 40
0.1331951853
 40
0.2657324696
 40
0.3967076639
 40
0.5252498795
 40
0.6505426749
 40
0.7718356525
 40
0.8885067953
 40
1.0
 40
1.0
 40
1.0
 40
1.0
 10
27.9410850996
 20
23.7055071533
 30
0.0
 10
27.8364623347
 20
23.5310554459
 30
0.0
 10
27.6379051856
 20
23.1767959808
 30
0.0
 10
27.3730994894
 20
22.6314934469
 30
0.0
 10
27.1440506514
 20
22.0778783645
 30
0.0
 10
26.9531248977
 20
21.5216546608
 30
0.0
 10
26.8022917901
 20
20.9685308154
 30
0.0
 10
26.6930684136
 20
20.4241337805
 30
0.0
 10
26.6266325872
 20
19.8940984926
 30
0.0
 10
26.6109312499
 20
19.545505494
 30
0.0
 10
26.6109312499
 20
19.3752302335
 30
0.0
  0
SPLINE
  5
275
100
AcDbEntity
  8
0
100
AcDbSpline
 62
7
  6
BYLAYER
 70
0
 71
3
 72
15
 73
11
 74
0
 42
0.0000001
 43
0.0000001
 44
0.0000000001
 40
0.0
 40
0.0
 40
0.0
 40
0.0
 40
0.1485932715
 40
0.2895056855
 40
0.4227214527
 40
0.5486432958
 40
0.6680013887
 40
0.7819385359
 40
0.8919874984
 40
1.0
 40
1.0
 40
1.0
 40
1.0
 10
26.6109312499
 20
19.3752302335
 30
0.0
 10
26.6109312499
 20
19.2189616699
 30
0.0
 10
26.6235259496
 20
18.9142919989
 30
0.0
 10
26.683502407
 20
18.4730934519
 30
0.0
 10
26.783691677
 20
18.0635912071
 30
0.0
 10
26.9232860629
 20
17.6897335495
 30
0.0
 10
27.1012530786
 20
17.3551433123
 30
0.0
 10
27.3161886578
 20
17.0632381534
 30
0.0
 10
27.5660951597
 20
16.8172869538
 30
0.0
 10
27.7552313407
 20
16.6853082169
 30
0.0
 10
27.8536051743
 20
16.6285133466
 30
0.0
  0
SPLINE
  5
276
100
AcDbEntity
  8
0
100
AcDbSpline
 62
7
  6
BYLAYER
 70
0
 71
3
 72
14
 73
10
 74
0
 42
0.0000001
 43
0.0000001
 44
0.0000000001
 40
0.0
 40
0.0
 40
0.0
 40
0.0
 40
0.2662546253
 40
0.3970018715
 40
0.5251776011
 40
0.6501204106
 40
0.7712275171
 40
0.8880100497
 40
1.0
 40
1.0
 40
1.0
 40
1.0
 10
28.3384422107
 20
22.9965719061
 30
0.0
 10
28.1773718073
 20
22.7003912144
 30
0.0
 10
27.9603036798
 20
22.245516565
 30
0.0
 10
27.7246314389
 20
21.6234089627
 30
0.0
 10
27.5786021299
 20
21.1594818273
 30
0.0
 10
27.4635351269
 20
20.6995017198
 30
0.0
 10
27.3803861025
 20
20.2473109259
 30
0.0
 10
27.3299071624
 20
19.8068184141
 30
0.0
 10
27.3180395826
 20
19.5170391567
 30
0.0
 10
27.3180395826
 20
19.3752318942
 30
0.0
  0
SPLINE
  5
277
100
AcDbEntity
  8
0
100
AcDbSpline
 62
7
  6
BYLAYER
 70
0
 71
3
 72
15
 73
11
 74
0
 42
0.0000001
 43
0.0000001
 44
0.0000000001
 40
0.0
 40
0.0
 40
0.0
 40
0.0
 40
0.1139121461
 40
0.2321128046
 40
0.3541444386
 40
0.479438576
 40
0.6073632697
 40
0.7372436175
 40
0.8683669912
 40
1.0
 40
1.0
 40
1.0
 40
1.0
 10
23.7953797993
 20
21.3970596585
 30
0.0
 10
23.8057189514
 20
21.5559264694
 30
0.0
 10
23.8389785995
 20
21.8789433282
 30
0.0
 10
23.9231299029
 20
22.3670254681
 30
0.0
 10
24.0417965344
 20
22.8642482401
 30
0.0
 10
24.1939773705
 20
23.3664419553
 30
0.0
 10
24.3783956163
 20
23.8693952326
 30
0.0
 10
24.5935047923
 20
24.3688805937
 30
0.0
 10
24.8374870814
 20
24.8606815203
 30
0.0
 10
25.0180283353
 20
25.1806975146
 30
0.0
 10
25.1126477477
 20
25.3384692773
 30
0.0
  0
SPLINE
  5
278
100
AcDbEntity
  8
0
100
AcDbSpline
 62
7
  6
BYLAYER
 70
0
 71
3
 72
16
 73
12
 74
0
 42
0.0000001
 43
0.0000001
 44
0.0000000001
 40
0.0
 40
0.0
 40
0.0
 40
0.0
 40
0.148571225
 40
0.2894805763
 40
0.422682787
 40
0.5485900627
 40
0.6679373439
 40
0.7818631986
 40
0.8919013685
 40
0.9460798862
 40
1.0
 40
1.0
 40
1.0
 40
1.0
 10
25.0198998502
 20
64.7522230241
 30
0.0
 10
24.8789408427
 20
64.670840789
 30
0.0
 10
24.6106656168
 20
64.5007969021
 30
0.0
 10
24.2438993644
 20
64.2169193147
 30
0.0
 10
23.9266662456
 20
63.9132635096
 30
0.0
 10
23.6621315515
 20
63.5926289896
 30
0.0
 10
23.4529901265
 20
63.2578158525
 30
0.0
 10
23.3015963808
 20
62.911975007
 30
0.0
 10
23.2247650206
 20
62.6155525824
 30
0.0
 10
23.1943898607
 20
62.3782836081
 30
0.0
 10
23.1893441991
 20
62.2597897613
 30
0.0
 10
23.1893442687
 20
62.2007183088
 30
0.0
  0
SPLINE
  5
279
100
AcDbEntity
  8
0
100
AcDbSpline
 62
7
  6
BYLAYER
 70
0
 71
3
 72
25
 73
21
 74
0
 42
0.0000001
 43
0.0000001
 44
0.0000000001
 40
0.0
 40
0.0
 40
0.0
 40
0.0
 40
0.0623731472
 40
0.128728048
 40
0.1983142965
 40
0.2702924517
 40
0.3436691482
 40
0.4174005707
 40
0.4904262446
 40
0.5617140822
 40
0.6303117052
 40
0.6953989143
 40
0.7563464804
 40
0.8127840572
 40
0.8646839837
 40
0.9124580541
 40
0.9351030159
 40
0.9571079433
 40
0.9786682911
 40
1.0
 40
1.0
 40
1.0
 40
1.0
 10
30.7828441102
 20
61.4250608748
 30
0.0
 10
30.7145918452
 20
61.3856556464
 30
0.0
 10
30.5682914917
 20
61.3135354128
 30
0.0
 10
30.3323161084
 20
61.2280120468
 30
0.0
 10
30.0772845766
 20
61.163283752
 30
0.0
 10
29.8087026403
 20
61.1206849155
 30
0.0
 10
29.5322306592
 20
61.1011447335
 30
0.0
 10
29.2537794929
 20
61.1050669076
 30
0.0
 10
28.9792837577
 20
61.1323603647
 30
0.0
 10
28.7145941079
 20
61.182452658
 30
0.0
 10
28.4653392423
 20
61.2542919399
 30
0.0
 10
28.2367857021
 20
61.3463724509
 30
0.0
 10
28.0337333529
 20
61.4568052313
 30
0.0
 10
27.8604277458
 20
61.5834450808
 30
0.0
 10
27.7205892084
 20
61.7238480822
 30
0.0
 10
27.6330591749
 20
61.85266644
 30
0.0
 10
27.5842652898
 20
61.9590150133
 30
0.0
 10
27.5584097047
 20
62.0387966572
 30
0.0
 10
27.5428276615
 20
62.1195073162
 30
0.0
 10
27.5393380978
 20
62.1737648947
 30
0.0
 10
27.5393378738
 20
62.2007183085
 30
0.0
  0
SPLINE
  5
27A
100
AcDbEntity
  8
0
100
AcDbSpline
 62
7
  6
BYLAYER
 70
0
 71
3
 72
11
 73
7
 74
0
 42
0.0000001
 43
0.0000001
 44
0.0000000001
 40
0.0
 40
0.0
 40
0.0
 40
0.0
 40
0.2755217852
 40
0.5337303489
 40
0.774654546
 40
1.0
 40
1.0
 40
1.0
 40
1.0
 10
28.0958271546
 20
62.3231738082
 30
0.0
 10
28.0439535787
 20
62.293224764
 30
0.0
 10
27.9462703681
 20
62.2301082182
 30
0.0
 10
27.8160672316
 20
62.1226148487
 30
0.0
 10
27.7087504741
 20
62.0066428449
 30
0.0
 10
27.6518466371
 20
61.9220919863
 30
0.0
 10
27.6282597435
 20
61.8791538663
 30
0.0
  0
SPLINE
  5
27B
100
AcDbEntity
  8
0
100
AcDbSpline
 62
7
  6
BYLAYER
 70
0
 71
3
 72
15
 73
11
 74
0
 42
0.0000001
 43
0.0000001
 44
0.0000000001
 40
0.0
 40
0.0
 40
0.0
 40
0.0
 40
0.1145548202
 40
0.2302436291
 40
0.3481465996
 40
0.4692404232
 40
0.5943589897
 40
0.7242032221
 40
0.8593218132
 40
1.0
 40
1.0
 40
1.0
 40
1.0
 10
37.7893271067
 20
60.7310139575
 30
0.0
 10
37.7893271064
 20
60.8448414365
 30
0.0
 10
37.7752315303
 20
61.0738675051
 30
0.0
 10
37.7119892327
 20
61.4147811991
 30
0.0
 10
37.6070604398
 20
61.7520675407
 30
0.0
 10
37.4610665982
 20
62.0838962195
 30
0.0
 10
37.2748816028
 20
62.4086303928
 30
0.0
 10
37.0494984361
 20
62.7246959712
 30
0.0
 10
36.7861383314
 20
63.0304812864
 30
0.0
 10
36.5902220179
 20
63.222600006
 30
0.0
 10
36.4867605115
 20
63.3165976526
 30
0.0
  0
SPLINE
  5
27C
100
AcDbEntity
  8
0
100
AcDbSpline
 62
7
  6
BYLAYER
 70
0
 71
3
 72
23
 73
19
 74
0
 42
0.0000001
 43
0.0000001
 44
0.0000000001
 40
0.0
 40
0.0
 40
0.0
 40
0.0
 40
0.0457811485
 40
0.0949746517
 40
0.1479196237
 40
0.2046662713
 40
0.2650339284
 40
0.3286524406
 40
0.3950076248
 40
0.4634799645
 40
0.5333701617
 40
0.6039304068
 40
0.6743911252
 40
0.7439893375
 40
0.8119839948
 40
0.8776908572
 40
0.9405454215
 40
1.0
 40
1.0
 40
1.0
 40
1.0
 10
31.2513277838
 20
61.8774843143
 30
0.0
 10
31.2261152347
 20
61.9236363627
 30
0.0
 10
31.1644051374
 20
62.0144259321
 30
0.0
 10
31.0468170435
 20
62.1379190241
 30
0.0
 10
30.9032412312
 20
62.2514620744
 30
0.0
 10
30.7360762933
 20
62.3533470538
 30
0.0
 10
30.5479752347
 20
62.4420396461
 30
0.0
 10
30.3419558672
 20
62.5161611563
 30
0.0
 10
30.1213312995
 20
62.5745606024
 30
0.0
 10
29.8896534256
 20
62.6162807561
 30
0.0
 10
29.6506731122
 20
62.6406548959
 30
0.0
 10
29.4082662502
 20
62.6473053681
 30
0.0
 10
29.1663616757
 20
62.6361010725
 30
0.0
 10
28.9288856977
 20
62.6072263353
 30
0.0
 10
28.6996883481
 20
62.5611755383
 30
0.0
 10
28.482438819
 20
62.4986534774
 30
0.0
 10
28.2807266888
 20
62.420661853
 30
0.0
 10
28.1549739467
 20
62.3573220207
 30
0.0
 10
28.0958271546
 20
62.3231738082
 30
0.0
  0
SPLINE
  5
27D
100
AcDbEntity
  8
0
100
AcDbSpline
 62
7
  6
BYLAYER
 70
0
 71
3
 72
14
 73
10
 74
0
 42
0.0000001
 43
0.0000001
 44
0.0000000001
 40
0.0
 40
0.0
 40
0.0
 40
0.0
 40
0.1080578617
 40
0.2181536135
 40
0.3321483672
 40
0.4515529382
 40
0.7103677854
 40
0.8514074843
 40
1.0
 40
1.0
 40
1.0
 40
1.0
 10
31.339333391
 20
62.2007183082
 30
0.0
 10
31.3393336898
 20
62.1647501395
 30
0.0
 10
31.3330751313
 20
62.091990816
 30
0.0
 10
31.3052148506
 20
61.9845146437
 30
0.0
 10
31.2591676835
 20
61.8793600118
 30
0.0
 10
31.1721364197
 20
61.7399904306
 30
0.0
 10
31.0517281437
 20
61.6132933895
 30
0.0
 10
30.9072463571
 20
61.5015169113
 30
0.0
 10
30.825678262
 20
61.4497910362
 30
0.0
 10
30.7828441102
 20
61.4250608748
 30
0.0
  0
SPLINE
  5
27E
100
AcDbEntity
  8
0
100
AcDbSpline
 62
7
  6
BYLAYER
 70
0
 71
3
 72
28
 73
24
 74
0
 42
0.0000001
 43
0.0000001
 44
0.0000000001
 40
0.0
 40
0.0
 40
0.0
 40
0.0
 40
0.021329098
 40
0.0428866739
 40
0.0648889103
 40
0.087530704
 40
0.1109768854
 40
0.1353607094
 40
0.187254797
 40
0.2149150587
 40
0.2437224237
 40
0.3046626035
 40
0.3697422387
 40
0.438331036
 40
0.5096087139
 40
0.5826239842
 40
0.6563464097
 40
0.7297145361
 40
0.8016819268
 40
0.871266416
 40
0.9375963875
 40
0.9693350078
 40
1.0
 40
1.0
 40
1.0
 40
1.0
 10
35.689326996
 20
62.2007183079
 30
0.0
 10
35.6893268916
 20
62.2893813582
 30
0.0
 10
35.6778964394
 20
62.467863751
 30
0.0
 10
35.6265988751
 20
62.733358141
 30
0.0
 10
35.541556406
 20
62.9957853391
 30
0.0
 10
35.4232736181
 20
63.2535871028
 30
0.0
 10
35.2725480277
 20
63.5054287051
 30
0.0
 10
35.0244049573
 20
63.838218873
 30
0.0
 10
34.7177817432
 20
64.1462347731
 30
0.0
 10
34.3652026549
 20
64.4269583803
 30
0.0
 10
33.96204148
 20
64.7027437652
 30
0.0
 10
33.3950406941
 20
65.0111174071
 30
0.0
 10
32.6432766959
 20
65.3139707817
 30
0.0
 10
31.8233377409
 20
65.5502790182
 30
0.0
 10
30.9526648278
 20
65.715063009
 30
0.0
 10
30.0497247633
 20
65.8048558602
 30
0.0
 10
29.133763469
 20
65.8177442377
 30
0.0
 10
28.2243270023
 20
65.7534542366
 30
0.0
 10
27.3407744634
 20
65.6133521569
 30
0.0
 10
26.5020021438
 20
65.400418587
 30
0.0
 10
25.8454131936
 20
65.1625330574
 30
0.0
 10
25.3592126493
 20
64.9383970887
 30
0.0
 10
25.1302935572
 20
64.8159584801
 30
0.0
 10
25.0198998502
 20
64.7522230241
 30
0.0
  0
SPLINE
  5
27F
100
AcDbEntity
  8
0
100
AcDbSpline
 62
7
  6
BYLAYER
 70
0
 71
3
 72
15
 73
11
 74
0
 42
0.0000001
 43
0.0000001
 44
0.0000000001
 40
0.0
 40
0.0
 40
0.0
 40
0.0
 40
0.1406778591
 40
0.2757962216
 40
0.4056403317
 40
0.5307588797
 40
0.6518527803
 40
0.7697559084
 40
0.8854449332
 40
1.0
 40
1.0
 40
1.0
 40
1.0
 10
22.3918734626
 20
63.3165637727
 30
0.0
 10
22.2884148045
 20
63.2225669849
 30
0.0
 10
22.0925039203
 20
63.0304501416
 30
0.0
 10
21.829151291
 20
62.7246682808
 30
0.0
 10
21.6037745981
 20
62.4086065997
 30
0.0
 10
21.417595005
 20
62.0838767023
 30
0.0
 10
21.2716054382
 20
61.7520526131
 30
0.0
 10
21.1666797379
 20
61.4147711073
 30
0.0
 10
21.1034393152
 20
61.0738624143
 30
0.0
 10
21.0893441577
 20
60.8448397597
 30
0.0
 10
21.0893441581
 20
60.7310139575
 30
0.0
  0
SPLINE
  5
280
100
AcDbEntity
  8
0
100
AcDbSpline
 62
7
  6
BYLAYER
 70
0
 71
3
 72
14
 73
10
 74
0
 42
0.0000001
 43
0.0000001
 44
0.0000000001
 40
0.0
 40
0.0
 40
0.0
 40
0.0
 40
0.1080578617
 40
0.2181536135
 40
0.3321483672
 40
0.4515529382
 40
0.7103677854
 40
0.8514074843
 40
1.0
 40
1.0
 40
1.0
 40
1.0
 10
27.5393378738
 20
62.2007183085
 30
0.0
 10
27.5393375749
 20
62.2366864772
 30
0.0
 10
27.5455961334
 20
62.3094458008
 30
0.0
 10
27.5734564141
 20
62.416921973
 30
0.0
 10
27.6195035812
 20
62.5220766049
 30
0.0
 10
27.7065348451
 20
62.6614461861
 30
0.0
 10
27.8269431211
 20
62.7881432272
 30
0.0
 10
27.9714249076
 20
62.8999197054
 30
0.0
 10
28.0529930028
 20
62.9516455805
 30
0.0
 10
28.0958271546
 20
62.9763757419
 30
0.0
  0
SPLINE
  5
281
100
AcDbEntity
  8
0
100
AcDbSpline
 62
7
  6
BYLAYER
 70
0
 71
3
 72
28
 73
24
 74
0
 42
0.0000001
 43
0.0000001
 44
0.0000000001
 40
0.0
 40
0.0
 40
0.0
 40
0.0
 40
0.021329098
 40
0.0428866739
 40
0.0648889103
 40
0.087530704
 40
0.1109768854
 40
0.1353607094
 40
0.187254797
 40
0.2149150587
 40
0.2437224237
 40
0.3046626035
 40
0.3697422387
 40
0.438331036
 40
0.5096087139
 40
0.5826239842
 40
0.6563464097
 40
0.7297145361
 40
0.8016819268
 40
0.871266416
 40
0.9375963875
 40
0.9693350078
 40
1.0
 40
1.0
 40
1.0
 40
1.0
 10
23.1893442687
 20
62.2007183088
 30
0.0
 10
23.1893443732
 20
62.1120552586
 30
0.0
 10
23.2007748253
 20
61.9335728657
 30
0.0
 10
23.2520723897
 20
61.6680784757
 30
0.0
 10
23.3371148588
 20
61.4056512776
 30
0.0
 10
23.4553976467
 20
61.1478495139
 30
0.0
 10
23.606123237
 20
60.8960079116
 30
0.0
 10
23.8542663075
 20
60.5632177438
 30
0.0
 10
24.1608895216
 20
60.2552018437
 30
0.0
 10
24.5134686098
 20
59.9744782364
 30
0.0
 10
24.9166297848
 20
59.6986928516
 30
0.0
 10
25.4836305707
 20
59.3903192096
 30
0.0
 10
26.2353945688
 20
59.087465835
 30
0.0
 10
27.0553335239
 20
58.8511575985
 30
0.0
 10
27.9260064369
 20
58.6863736077
 30
0.0
 10
28.8289465014
 20
58.5965807565
 30
0.0
 10
29.7449077957
 20
58.5836923791
 30
0.0
 10
30.6543442625
 20
58.6479823801
 30
0.0
 10
31.5378968014
 20
58.7880844598
 30
0.0
 10
32.3766691209
 20
59.0010180297
 30
0.0
 10
33.0332580712
 20
59.2389035593
 30
0.0
 10
33.5194586154
 20
59.4630395281
 30
0.0
 10
33.7483777076
 20
59.5854781366
 30
0.0
 10
33.8587714145
 20
59.6492135926
 30
0.0
  0
SPLINE
  5
282
100
AcDbEntity
  8
0
100
AcDbSpline
 62
7
  6
BYLAYER
 70
0
 71
3
 72
13
 73
9
 74
0
 42
0.0000001
 43
0.0000001
 44
0.0000000001
 40
0.0
 40
0.0
 40
0.0
 40
0.0
 40
0.1142691123
 40
0.2304176379
 40
0.3491579462
 40
0.4711121486
 40
0.7265236585
 40
1.0
 40
1.0
 40
1.0
 40
1.0
 10
21.1172474806
 20
60.3371957867
 30
0.0
 10
21.1310912994
 20
60.2396982533
 30
0.0
 10
21.1692874473
 20
60.0444159701
 30
0.0
 10
21.2566727957
 20
59.7559980477
 30
0.0
 10
21.3741719871
 20
59.4712921908
 30
0.0
 10
21.5732596198
 20
59.0923448414
 30
0.0
 10
21.8991760628
 20
58.6325208375
 30
0.0
 10
22.2174742773
 20
58.3039106363
 30
0.0
 10
22.3919107532
 20
58.1454302625
 30
0.0
  0
SPLINE
  5
283
100
AcDbEntity
  8
0
100
AcDbSpline
 62
7
  6
BYLAYER
 70
0
 71
3
 72
16
 73
12
 74
0
 42
0.0000001
 43
0.0000001
 44
0.0000000001
 40
0.0
 40
0.0
 40
0.0
 40
0.0
 40
0.148571225
 40
0.2894805763
 40
0.422682787
 40
0.5485900627
 40
0.6679373439
 40
0.7818631986
 40
0.8919013685
 40
0.9460798862
 40
1.0
 40
1.0
 40
1.0
 40
1.0
 10
33.8587714145
 20
59.6492135926
 30
0.0
 10
33.999730422
 20
59.7305958277
 30
0.0
 10
34.268005648
 20
59.9006397147
 30
0.0
 10
34.6347719004
 20
60.184517302
 30
0.0
 10
34.9520050192
 20
60.4881731071
 30
0.0
 10
35.2165397133
 20
60.8088076271
 30
0.0
 10
35.4256811382
 20
61.1436207642
 30
0.0
 10
35.5770748839
 20
61.4894616097
 30
0.0
 10
35.6539062442
 20
61.7858840343
 30
0.0
 10
35.684281404
 20
62.0231530086
 30
0.0
 10
35.6893270656
 20
62.1416468555
 30
0.0
 10
35.689326996
 20
62.2007183079
 30
0.0
  0
SPLINE
  5
284
100
AcDbEntity
  8
0
100
AcDbSpline
 62
7
  6
BYLAYER
 70
0
 71
3
 72
16
 73
12
 74
0
 42
0.0000001
 43
0.0000001
 44
0.0000000001
 40
0.0
 40
0.0
 40
0.0
 40
0.0
 40
0.0539198454
 40
0.1080981286
 40
0.2181358948
 40
0.3320616074
 40
0.4514089954
 40
0.5773163581
 40
0.7105188782
 40
0.8514287932
 40
1.0
 40
1.0
 40
1.0
 40
1.0
 10
35.6893269185
 20
60.7310139568
 30
0.0
 10
35.6893270672
 20
60.6719428005
 30
0.0
 10
35.6842815866
 20
60.553449487
 30
0.0
 10
35.6539059144
 20
60.3161816017
 30
0.0
 10
35.5770759649
 20
60.0197597695
 30
0.0
 10
35.4256824903
 20
59.6739192548
 30
0.0
 10
35.2165411577
 20
59.3391060688
 30
0.0
 10
34.9520069119
 20
59.0184704768
 30
0.0
 10
34.6347730352
 20
58.7148139107
 30
0.0
 10
34.2680060208
 20
58.430935825
 30
0.0
 10
33.9997303997
 20
58.260891464
 30
0.0
 10
33.8587714145
 20
58.1795092418
 30
0.0
  0
SPLINE
  5
285
100
AcDbEntity
  8
0
100
AcDbSpline
 62
7
  6
BYLAYER
 70
0
 71
3
 72
11
 73
7
 74
0
 42
0.0000001
 43
0.0000001
 44
0.0000000001
 40
0.0
 40
0.0
 40
0.0
 40
0.0
 40
0.2485741145
 40
0.499991377
 40
0.7514132687
 40
1.0
 40
1.0
 40
1.0
 40
1.0
 10
31.2214172644
 20
61.84422987
 30
0.0
 10
30.9287261757
 20
61.8894096427
 30
0.0
 10
30.3361578476
 20
61.9569321065
 30
0.0
 10
29.4407274758
 20
61.9906251258
 30
0.0
 10
28.5452743119
 20
61.957139766
 30
0.0
 10
27.9526695997
 20
61.8897566744
 30
0.0
 10
27.6599525499
 20
61.8446466094
 30
0.0
  0
SPLINE
  5
286
100
AcDbEntity
  8
0
100
AcDbSpline
 62
7
  6
BYLAYER
 70
0
 71
3
 72
28
 73
24
 74
0
 42
0.0000001
 43
0.0000001
 44
0.0000000001
 40
0.0
 40
0.0
 40
0.0
 40
0.0
 40
0.0306649623
 40
0.0624034409
 40
0.1287330966
 40
0.1983173565
 40
0.2702846573
 40
0.3436529429
 40
0.4173756199
 40
0.4903910395
 40
0.5616687709
 40
0.6302576308
 40
0.6953373499
 40
0.7562775816
 40
0.7850849601
 40
0.812745222
 40
0.864639328
 40
0.8890231727
 40
0.9124693698
 40
0.9351111722
 40
0.9571133983
 40
0.9786709441
 40
1.0
 40
1.0
 40
1.0
 40
1.0
 10
33.8587714145
 20
58.1795092418
 30
0.0
 10
33.7483778158
 20
58.1157738483
 30
0.0
 10
33.5194594231
 20
57.9933354488
 30
0.0
 10
33.0332607037
 20
57.7692003629
 30
0.0
 10
32.3766745803
 20
57.5313155099
 30
0.0
 10
31.5379050401
 20
57.3183817594
 30
0.0
 10
30.6543532777
 20
57.1782790567
 30
0.0
 10
29.7449155377
 20
57.1139881692
 30
0.0
 10
28.8289519019
 20
57.1268760427
 30
0.0
 10
27.9260099228
 20
57.2166687271
 30
0.0
 10
27.055335881
 20
57.3814526867
 30
0.0
 10
26.2353960876
 20
57.6177609901
 30
0.0
 10
25.483631249
 20
57.9206145162
 30
0.0
 10
24.9166299872
 20
58.2289885488
 30
0.0
 10
24.5134684319
 20
58.5047738619
 30
0.0
 10
24.1608894125
 20
58.7854977825
 30
0.0
 10
23.8542661654
 20
59.0935138278
 30
0.0
 10
23.6061227943
 20
59.4263040723
 30
0.0
 10
23.4553974002
 20
59.6781460065
 30
0.0
 10
23.337114513
 20
59.935947786
 30
0.0
 10
23.2520723161
 20
60.1983749339
 30
0.0
 10
23.2007748393
 20
60.4638689937
 30
0.0
 10
23.1893445696
 20
60.6423510836
 30
0.0
 10
23.1893443463
 20
60.7310139583
 30
0.0
  0
SPLINE
  5
287
100
AcDbEntity
  8
0
100
AcDbSpline
 62
7
  6
BYLAYER
 70
0
 71
3
 72
25
 73
21
 74
0
 42
0.0000001
 43
0.0000001
 44
0.0000000001
 40
0.0
 40
0.0
 40
0.0
 40
0.0
 40
0.0623731472
 40
0.128728048
 40
0.1983142965
 40
0.2702924517
 40
0.3436691482
 40
0.4174005707
 40
0.4904262446
 40
0.5617140822
 40
0.6303117052
 40
0.6953989143
 40
0.7563464804
 40
0.8127840572
 40
0.8646839837
 40
0.9124580541
 40
0.9351030159
 40
0.9571079433
 40
0.9786682911
 40
1.0
 40
1.0
 40
1.0
 40
1.0
 10
28.0958271546
 20
62.9763757419
 30
0.0
 10
28.1640794196
 20
63.0157809703
 30
0.0
 10
28.3103797731
 20
63.0879012039
 30
0.0
 10
28.5463551564
 20
63.1734245699
 30
0.0
 10
28.8013866881
 20
63.2381528647
 30
0.0
 10
29.0699686244
 20
63.2807517012
 30
0.0
 10
29.3464406056
 20
63.3002918832
 30
0.0
 10
29.6248917719
 20
63.2963697092
 30
0.0
 10
29.8993875071
 20
63.269076252
 30
0.0
 10
30.1640771568
 20
63.2189839587
 30
0.0
 10
30.4133320225
 20
63.1471446768
 30
0.0
 10
30.6418855627
 20
63.0550641658
 30
0.0
 10
30.8449379119
 20
62.9446313855
 30
0.0
 10
31.0182435189
 20
62.817991536
 30
0.0
 10
31.1580820563
 20
62.6775885346
 30
0.0
 10
31.2456120899
 20
62.5487701767
 30
0.0
 10
31.2944059749
 20
62.4424216034
 30
0.0
 10
31.3202615601
 20
62.3626399595
 30
0.0
 10
31.3358436032
 20
62.2819293005
 30
0.0
 10
31.339333167
 20
62.227671722
 30
0.0
 10
31.339333391
 20
62.2007183082
 30
0.0
  0
SPLINE
  5
288
100
AcDbEntity
  8
0
100
AcDbSpline
 62
7
  6
BYLAYER
 70
0
 71
3
 72
15
 73
11
 74
0
 42
0.0000001
 43
0.0000001
 44
0.0000000001
 40
0.0
 40
0.0
 40
0.0
 40
0.0
 40
0.1192530835
 40
0.243358334
 40
0.3708233628
 40
0.5000003825
 40
0.6291773519
 40
0.7566422315
 40
0.8807472403
 40
1.0
 40
1.0
 40
1.0
 40
1.0
 10
24.9609679649
 20
56.6622179445
 30
0.0
 10
25.3015050274
 20
56.5372828235
 30
0.0
 10
26.0099377933
 20
56.3180334256
 30
0.0
 10
27.1147552514
 20
56.0841667356
 30
0.0
 10
28.2654982952
 20
55.9419460743
 30
0.0
 10
29.4393702574
 20
55.8942392846
 30
0.0
 10
30.6132415393
 20
55.9419516765
 30
0.0
 10
31.7639825573
 20
56.0841778313
 30
0.0
 10
32.8687966838
 20
56.3180497992
 30
0.0
 10
33.577226588
 20
56.5373026668
 30
0.0
 10
33.9177619824
 20
56.662239474
 30
0.0
  0
SPLINE
  5
289
100
AcDbEntity
  8
0
100
AcDbSpline
 62
7
  6
BYLAYER
 70
0
 71
3
 72
13
 73
9
 74
0
 42
0.0000001
 43
0.0000001
 44
0.0000000001
 40
0.0
 40
0.0
 40
0.0
 40
0.0
 40
0.2734758189
 40
0.5288871907
 40
0.6508414581
 40
0.7695819094
 40
0.8857306405
 40
1.0
 40
1.0
 40
1.0
 40
1.0
 10
36.4867978022
 20
58.1454641424
 30
0.0
 10
36.6612291371
 20
58.3039427607
 30
0.0
 10
36.979517938
 20
58.6325489907
 30
0.0
 10
37.3054244317
 20
59.0923660424
 30
0.0
 10
37.5045061527
 20
59.471307244
 30
0.0
 10
37.6220020051
 20
59.756008438
 30
0.0
 10
37.7093850266
 20
60.0444215274
 30
0.0
 10
37.7475802984
 20
60.2397004646
 30
0.0
 10
37.7614238618
 20
60.3371963354
 30
0.0
  0
SPLINE
  5
28A
100
AcDbEntity
  8
0
100
AcDbSpline
 62
7
  6
BYLAYER
 70
0
 71
3
 72
13
 73
9
 74
0
 42
0.0000001
 43
0.0000001
 44
0.0000000001
 40
0.0
 40
0.0
 40
0.0
 40
0.0
 40
0.1221289866
 40
0.2435120291
 40
0.3649156247
 40
0.4871782033
 40
0.737284413
 40
1.0
 40
1.0
 40
1.0
 40
1.0
 10
28.3522364102
 20
17.9256378179
 30
0.0
 10
28.3986883146
 20
17.8846379167
 30
0.0
 10
28.4954729661
 20
17.8074620161
 30
0.0
 10
28.6515233924
 20
17.7072831919
 30
0.0
 10
28.8172017144
 20
17.6237618721
 30
0.0
 10
29.0516264491
 20
17.5344078047
 30
0.0
 10
29.36866349
 20
17.4658831508
 30
0.0
 10
29.6302653744
 20
17.4592612674
 30
0.0
 10
29.763348533
 20
17.4664921711
 30
0.0
  0
SPLINE
  5
28B
100
AcDbEntity
  8
0
100
AcDbSpline
 62
7
  6
BYLAYER
 70
0
 71
3
 72
11
 73
7
 74
0
 42
0.0000001
 43
0.0000001
 44
0.0000000001
 40
0.0
 40
0.0
 40
0.0
 40
0.0
 40
0.2742008858
 40
0.5287381716
 40
0.7684288954
 40
1.0
 40
1.0
 40
1.0
 40
1.0
 10
32.6522301814
 20
22.2913120739
 30
0.0
 10
32.6973581526
 20
22.3043395103
 30
0.0
 10
32.7864445623
 20
22.3231379199
 30
0.0
 10
32.918813058
 20
22.3270334956
 30
0.0
 10
33.0421560755
 20
22.3051209422
 30
0.0
 10
33.1171484134
 20
22.27296473
 30
0.0
 10
33.1515022895
 20
22.2531309572
 30
0.0
  0
SPLINE
  5
28C
100
AcDbEntity
  8
0
100
AcDbSpline
 62
7
  6
BYLAYER
 70
0
 71
3
 72
17
 73
13
 74
0
 42
0.0000001
 43
0.0000001
 44
0.0000000001
 40
0.0
 40
0.0
 40
0.0
 40
0.0
 40
0.0572752456
 40
0.1185552383
 40
0.1827369928
 40
0.2488123446
 40
0.3831960947
 40
0.5164745144
 40
0.6457316345
 40
0.7695839565
 40
0.8875949415
 40
1.0
 40
1.0
 40
1.0
 40
1.0
 10
32.9678131609
 20
22.5105879774
 30
0.0
 10
32.9157987834
 20
22.4805576418
 30
0.0
 10
32.8106448315
 20
22.4139934055
 30
0.0
 10
32.6557394284
 20
22.3010036302
 30
0.0
 10
32.5006280013
 20
22.1732239604
 30
0.0
 10
32.296173119
 20
21.985423215
 30
0.0
 10
32.0569119787
 20
21.7291274712
 30
0.0
 10
31.8044847412
 20
21.3972612978
 30
0.0
 10
31.5956100832
 20
21.0489895796
 30
0.0
 10
31.4385495364
 20
20.6915785869
 30
0.0
 10
31.3402144976
 20
20.3318193776
 30
0.0
 10
31.3167474078
 20
20.0897675705
 30
0.0
 10
31.3167365196
 20
19.971895471
 30
0.0
  0
SPLINE
  5
28D
100
AcDbEntity
  8
0
100
AcDbSpline
 62
7
  6
BYLAYER
 70
0
 71
3
 72
15
 73
11
 74
0
 42
0.0000001
 43
0.0000001
 44
0.0000000001
 40
0.0
 40
0.0
 40
0.0
 40
0.0
 40
0.1147012683
 40
0.2372443135
 40
0.3654949387
 40
0.4969095356
 40
0.6287454012
 40
0.7582239545
 40
0.8827081009
 40
1.0
 40
1.0
 40
1.0
 40
1.0
 10
31.3790581176
 20
20.3371353963
 30
0.0
 10
31.4454717669
 20
20.3789290868
 30
0.0
 10
31.5763680866
 20
20.4759083616
 30
0.0
 10
31.7574046685
 20
20.6491576774
 30
0.0
 10
31.9251792058
 20
20.8503927312
 30
0.0
 10
32.0744509497
 20
21.0733421585
 30
0.0
 10
32.2005937063
 20
21.3110943422
 30
0.0
 10
32.2996836849
 20
21.5562675501
 30
0.0
 10
32.3686653224
 20
21.8012378143
 30
0.0
 10
32.3939823833
 20
21.9652632846
 30
0.0
 10
32.400479044
 20
22.0452418098
 30
0.0
  0
SPLINE
  5
28E
100
AcDbEntity
  8
0
100
AcDbSpline
 62
7
  6
BYLAYER
 70
0
 71
3
 72
11
 73
7
 74
0
 42
0.0000001
 43
0.0000001
 44
0.0000000001
 40
0.0
 40
0.0
 40
0.0
 40
0.0
 40
0.233812244
 40
0.4746767556
 40
0.7285753405
 40
1.0
 40
1.0
 40
1.0
 40
1.0
 10
31.6315351802
 20
19.6204111394
 30
0.0
 10
31.5997955725
 20
19.6387355976
 30
0.0
 10
31.5392467703
 20
19.6831462797
 30
0.0
 10
31.4630033016
 20
19.7691848674
 30
0.0
 10
31.40174202
 20
19.8732407903
 30
0.0
 10
31.3725137382
 20
19.9506520985
 30
0.0
 10
31.3603459183
 20
19.991420197
 30
0.0
  0
SPLINE
  5
28F
100
AcDbEntity
  8
0
100
AcDbSpline
 62
7
  6
BYLAYER
 70
0
 71
3
 72
9
 73
5
 74
0
 42
0.0000001
 43
0.0000001
 44
0.0000000001
 40
0.0
 40
0.0
 40
0.0
 40
0.0
 40
0.2446151753
 40
1.0
 40
1.0
 40
1.0
 40
1.0
 10
31.3436683279
 20
20.0556308467
 30
0.0
 10
31.3416157463
 20
20.0648360517
 30
0.0
 10
31.3337636708
 20
20.1025865185
 30
0.0
 10
31.3280155537
 20
20.1407669815
 30
0.0
 10
31.3247393727
 20
20.1697064016
 30
0.0
  0
SPLINE
  5
290
100
AcDbEntity
  8
0
100
AcDbSpline
 62
7
  6
BYLAYER
 70
0
 71
3
 72
12
 73
8
 74
0
 42
0.0000001
 43
0.0000001
 44
0.0000000001
 40
0.0
 40
0.0
 40
0.0
 40
0.0
 40
0.1167974313
 40
0.2344645133
 40
0.4754548011
 40
0.7291884262
 40
1.0
 40
1.0
 40
1.0
 40
1.0
 10
34.4293366531
 20
20.7373773232
 30
0.0
 10
34.4293351369
 20
20.6783125348
 30
0.0
 10
34.4229894695
 20
20.5596392464
 30
0.0
 10
34.3848030022
 20
20.3218842456
 30
0.0
 10
34.2877085469
 20
20.0253727936
 30
0.0
 10
34.0983659358
 20
19.6854568046
 30
0.0
 10
33.9313787339
 20
19.4776897426
 30
0.0
 10
33.8382428917
 20
19.3772852381
 30
0.0
  0
SPLINE
  5
291
100
AcDbEntity
  8
0
100
AcDbSpline
 62
7
  6
BYLAYER
 70
0
 71
3
 72
18
 73
14
 74
0
 42
0.0000001
 43
0.0000001
 44
0.0000000001
 40
0.0
 40
0.0
 40
0.0
 40
0.0
 40
0.1338882072
 40
0.2629531244
 40
0.3881472598
 40
0.5102415193
 40
0.6300734651
 40
0.6897224345
 40
0.7494796541
 40
0.8098003641
 40
0.8712441583
 40
0.9344791616
 40
1.0
 40
1.0
 40
1.0
 40
1.0
 10
31.3167365196
 20
19.971895471
 30
0.0
 10
31.3167264142
 20
19.8624975497
 30
0.0
 10
31.3361733121
 20
19.6469885929
 30
0.0
 10
31.426512237
 20
19.3408165846
 30
0.0
 10
31.5733750296
 20
19.0679731314
 30
0.0
 10
31.7709400118
 20
18.8389902572
 30
0.0
 10
31.9738416843
 20
18.6940505838
 30
0.0
 10
32.1531017024
 20
18.6146860538
 30
0.0
 10
32.295089492
 20
18.5750416428
 30
0.0
 10
32.4430046103
 20
18.5576482133
 30
0.0
 10
32.5947085647
 20
18.5643581082
 30
0.0
 10
32.7473461537
 20
18.5969794901
 30
0.0
 10
32.8458438893
 20
18.6353836213
 30
0.0
 10
32.894099134
 20
18.6585684923
 30
0.0
  0
SPLINE
  5
292
100
AcDbEntity
  8
0
100
AcDbSpline
 62
7
  6
BYLAYER
 70
0
 71
3
 72
15
 73
11
 74
0
 42
0.0000001
 43
0.0000001
 44
0.0000000001
 40
0.0
 40
0.0
 40
0.0
 40
0.0
 40
0.1115271837
 40
0.2289990634
 40
0.3515055735
 40
0.4780536681
 40
0.6074618547
 40
0.7384535514
 40
0.8697649012
 40
1.0
 40
1.0
 40
1.0
 40
1.0
 10
32.894099134
 20
18.6585684923
 30
0.0
 10
32.7421750927
 20
18.5744102481
 30
0.0
 10
32.4208185275
 20
18.4182276307
 30
0.0
 10
31.9078458932
 20
18.2253233764
 30
0.0
 10
31.3579217074
 20
18.0700764977
 30
0.0
 10
30.7793728474
 20
17.9547558885
 30
0.0
 10
30.1807747311
 20
17.8811195278
 30
0.0
 10
29.5710412578
 20
17.8502060782
 30
0.0
 10
28.9593987144
 20
17.8625479785
 30
0.0
 10
28.5533824842
 20
17.8997156099
 30
0.0
 10
28.3522364102
 20
17.9256378179
 30
0.0
  0
SPLINE
  5
293
100
AcDbEntity
  8
0
100
AcDbSpline
 62
7
  6
BYLAYER
 70
0
 71
3
 72
15
 73
11
 74
0
 42
0.0000001
 43
0.0000001
 44
0.0000000001
 40
0.0
 40
0.0
 40
0.0
 40
0.0
 40
0.1141454591
 40
0.2373335362
 40
0.36697592
 40
0.5000016033
 40
0.6330270636
 40
0.7626687962
 40
0.8858558469
 40
1.0
 40
1.0
 40
1.0
 40
1.0
 10
33.4663165674
 20
21.5573021622
 30
0.0
 10
33.4663165674
 20
21.4723477934
 30
0.0
 10
33.4507463501
 20
21.2955453062
 30
0.0
 10
33.3887261879
 20
21.0288207782
 30
0.0
 10
33.2893255701
 20
20.758652532
 30
0.0
 10
33.1563310828
 20
20.495194096
 30
0.0
 10
32.9946681028
 20
20.2482878839
 30
0.0
 10
32.8103976631
 20
20.0271206149
 30
0.0
 10
32.6104196096
 20
19.8400483162
 30
0.0
 10
32.4650906444
 20
19.7381638825
 30
0.0
 10
32.3915187349
 20
19.6956873743
 30
0.0
  0
SPLINE
  5
294
100
AcDbEntity
  8
0
100
AcDbSpline
 62
7
  6
BYLAYER
 70
0
 71
3
 72
22
 73
18
 74
0
 42
0.0000001
 43
0.0000001
 44
0.0000000001
 40
0.0
 40
0.0
 40
0.0
 40
0.0
 40
0.164398429
 40
0.2385540288
 40
0.3069944873
 40
0.3697447674
 40
0.4270220423
 40
0.4793447063
 40
0.5276394035
 40
0.5733814622
 40
0.6186336695
 40
0.6658548681
 40
0.7175394068
 40
0.7757442208
 40
0.84192722
 40
0.9167610062
 40
1.0
 40
1.0
 40
1.0
 40
1.0
 10
34.0627174871
 20
21.5573035958
 30
0.0
 10
34.0627174871
 20
21.6659331073
 30
0.0
 10
34.057242903
 20
21.8237465075
 30
0.0
 10
34.03445734
 20
22.025406757
 30
0.0
 10
34.0108341102
 20
22.1591329119
 30
0.0
 10
33.9797097973
 20
22.279873584
 30
0.0
 10
33.9405268091
 20
22.3870522841
 30
0.0
 10
33.8924741815
 20
22.4800526609
 30
0.0
 10
33.834586044
 20
22.5581720658
 30
0.0
 10
33.7656699984
 20
22.6202537365
 30
0.0
 10
33.6849341549
 20
22.664743135
 30
0.0
 10
33.5922268653
 20
22.6900260028
 30
0.0
 10
33.4878569697
 20
22.6952234726
 30
0.0
 10
33.3720122884
 20
22.6799159299
 30
0.0
 10
33.2450347031
 20
22.6438223165
 30
0.0
 10
33.1079133188
 20
22.5869769717
 30
0.0
 10
33.0154461971
 20
22.5380887595
 30
0.0
 10
32.9678131609
 20
22.5105879774
 30
0.0
  0
SPLINE
  5
295
100
AcDbEntity
  8
0
100
AcDbSpline
 62
7
  6
BYLAYER
 70
0
 71
3
 72
16
 73
12
 74
0
 42
0.0000001
 43
0.0000001
 44
0.0000000001
 40
0.0
 40
0.0
 40
0.0
 40
0.0
 40
0.1155579328
 40
0.1768267825
 40
0.2399186205
 40
0.3699149776
 40
0.5024414558
 40
0.6345429748
 40
0.763392216
 40
0.8861670411
 40
1.0
 40
1.0
 40
1.0
 40
1.0
 10
33.0400183882
 20
18.7428145101
 30
0.0
 10
33.1385836224
 20
18.8096735491
 30
0.0
 10
33.2747775371
 20
18.9344839849
 30
0.0
 10
33.4281561998
 20
19.1286202502
 30
0.0
 10
33.5709262536
 20
19.3489498516
 30
0.0
 10
33.7184075528
 20
19.6517576928
 30
0.0
 10
33.8519493942
 20
20.0366462759
 30
0.0
 10
33.9491936958
 20
20.4308391847
 30
0.0
 10
34.0150691841
 20
20.8211263917
 30
0.0
 10
34.053401666
 20
21.1960689896
 30
0.0
 10
34.0627174871
 20
21.4399796797
 30
0.0
 10
34.0627174871
 20
21.5573035958
 30
0.0
  0
SPLINE
  5
296
100
AcDbEntity
  8
0
100
AcDbSpline
 62
7
  6
BYLAYER
 70
0
 71
3
 72
14
 73
10
 74
0
 42
0.0000001
 43
0.0000001
 44
0.0000000001
 40
0.0
 40
0.0
 40
0.0
 40
0.0
 40
0.2892426566
 40
0.422563512
 40
0.5485111296
 40
0.6678871157
 40
0.7818613445
 40
0.891952444
 40
1.0
 40
1.0
 40
1.0
 40
1.0
 10
32.3915187349
 20
19.6956873743
 30
0.0
 10
32.3248073911
 20
19.6571717919
 30
0.0
 10
32.2223661377
 20
19.608428126
 30
0.0
 10
32.0818914136
 20
19.5674495561
 30
0.0
 10
31.9821742601
 20
19.5507249923
 30
0.0
 10
31.8862399927
 20
19.5473943114
 30
0.0
 10
31.7949828985
 20
19.5575863098
 30
0.0
 10
31.7093616035
 20
19.5812317284
 30
0.0
 10
31.6564555277
 20
19.6060236943
 30
0.0
 10
31.6315351802
 20
19.6204111394
 30
0.0
  0
SPLINE
  5
297
100
AcDbEntity
  8
0
100
AcDbSpline
 62
7
  6
BYLAYER
 70
0
 71
3
 72
10
 73
6
 74
0
 42
0.0000001
 43
0.0000001
 44
0.0000000001
 40
0.0
 40
0.0
 40
0.0
 40
0.0
 40
0.2521251415
 40
0.6276681099
 40
1.0
 40
1.0
 40
1.0
 40
1.0
 10
32.9668645526
 20
18.6991647179
 30
0.0
 10
32.960799577
 20
18.6956631228
 30
0.0
 10
32.9457374944
 20
18.6868805396
 30
0.0
 10
32.9213673683
 20
18.6735482026
 30
0.0
 10
32.9032023869
 20
18.6634694143
 30
0.0
 10
32.894095877
 20
18.6585671638
 30
0.0
  0
SPLINE
  5
298
100
AcDbEntity
  8
0
100
AcDbSpline
 62
7
  6
BYLAYER
 70
0
 71
3
 72
14
 73
10
 74
0
 42
0.0000001
 43
0.0000001
 44
0.0000000001
 40
0.0
 40
0.0
 40
0.0
 40
0.0
 40
0.1080468035
 40
0.2181372646
 40
0.3321110702
 40
0.4514868989
 40
0.5774346435
 40
0.7107558953
 40
1.0
 40
1.0
 40
1.0
 40
1.0
 10
33.1515022895
 20
22.2531309572
 30
0.0
 10
33.1764234527
 20
22.2387430411
 30
0.0
 10
33.2243491372
 20
22.2053206961
 30
0.0
 10
33.2876402175
 20
22.1429917657
 30
0.0
 10
33.3420977766
 20
22.0690544858
 30
0.0
 10
33.3871825011
 20
21.9843045277
 30
0.0
 10
33.4225587247
 20
21.889580836
 30
0.0
 10
33.4573090462
 20
21.7474306959
 30
0.0
 10
33.4663165674
 20
21.6343371156
 30
0.0
 10
33.4663165674
 20
21.5573021622
 30
0.0
  0
SPLINE
  5
299
100
AcDbEntity
  8
0
100
AcDbSpline
 62
7
  6
BYLAYER
 70
0
 71
3
 72
10
 73
6
 74
0
 42
0.0000001
 43
0.0000001
 44
0.0000000001
 40
0.0
 40
0.0
 40
0.0
 40
0.0
 40
0.252004962
 40
0.6275287796
 40
1.0
 40
1.0
 40
1.0
 40
1.0
 10
33.040021535
 20
18.7428169041
 30
0.0
 10
33.0339282785
 20
18.7390637192
 30
0.0
 10
33.0186509511
 20
18.7298886809
 30
0.0
 10
32.9944363695
 20
18.7150501593
 30
0.0
 10
32.9760248519
 20
18.7044534034
 30
0.0
 10
32.9668645463
 20
18.6991647289
 30
0.0
  0
SPLINE
  5
29A
100
AcDbEntity
  8
0
100
AcDbSpline
 62
7
  6
BYLAYER
 70
0
 71
3
 72
14
 73
10
 74
0
 42
0.0000001
 43
0.0000001
 44
0.0000000001
 40
0.0
 40
0.0
 40
0.0
 40
0.0
 40
0.1080431444
 40
0.2181326404
 40
0.3321056638
 40
0.4514814971
 40
0.5774303852
 40
0.7107553626
 40
1.0
 40
1.0
 40
1.0
 40
1.0
 10
48.5598826004
 20
48.3202180098
 30
0.0
 10
48.5598836385
 20
48.2795176474
 30
0.0
 10
48.5528382178
 20
48.1971773374
 30
0.0
 10
48.5212483918
 20
48.0755738888
 30
0.0
 10
48.4691981624
 20
47.9565773922
 30
0.0
 10
48.397268339
 20
47.8414171649
 30
0.0
 10
48.306257992
 20
47.7310920069
 30
0.0
 10
48.1567072616
 20
47.5879964301
 30
0.0
 10
48.0245464028
 20
47.4969800533
 30
0.0
 10
47.9301842898
 20
47.4425003872
 30
0.0
  0
SPLINE
  5
29B
100
AcDbEntity
  8
0
100
AcDbSpline
 62
7
  6
BYLAYER
 70
0
 71
3
 72
14
 73
10
 74
0
 42
0.0000001
 43
0.0000001
 44
0.0000000001
 40
0.0
 40
0.0
 40
0.0
 40
0.0
 40
0.1080431444
 40
0.2181326404
 40
0.3321056638
 40
0.4514814971
 40
0.5774303852
 40
0.7107553626
 40
1.0
 40
1.0
 40
1.0
 40
1.0
 10
31.5893905073
 20
38.5223583169
 30
0.0
 10
31.5893915454
 20
38.4816579545
 30
0.0
 10
31.5823461247
 20
38.3993176445
 30
0.0
 10
31.5507562986
 20
38.2777141959
 30
0.0
 10
31.4987060693
 20
38.1587176993
 30
0.0
 10
31.4267762458
 20
38.043557472
 30
0.0
 10
31.3357658988
 20
37.933232314
 30
0.0
 10
31.1862151685
 20
37.7901367372
 30
0.0
 10
31.0540543097
 20
37.6991203604
 30
0.0
 10
30.9596921966
 20
37.6446406942
 30
0.0
  0
SPLINE
  5
29C
100
AcDbEntity
  8
0
100
AcDbSpline
 62
7
  6
BYLAYER
 70
0
 71
3
 72
10
 73
6
 74
0
 42
0.0000001
 43
0.0000001
 44
0.0000000001
 40
0.0
 40
0.0
 40
0.0
 40
0.0
 40
0.232936713
 40
0.4786551182
 40
1.0
 40
1.0
 40
1.0
 40
1.0
 10
47.9301842898
 20
47.4425003872
 30
0.0
 10
47.8672849374
 20
47.4061856459
 30
0.0
 10
47.7339439872
 20
47.3384774198
 30
0.0
 10
47.4438230347
 20
47.223459036
 30
0.0
 10
47.2107234852
 20
47.1641897667
 30
0.0
 10
47.0507445077
 20
47.135361556
 30
0.0
  0
SPLINE
  5
29D
100
AcDbEntity
  8
0
100
AcDbSpline
 62
7
  6
BYLAYER
 70
0
 71
3
 72
22
 73
18
 74
0
 42
0.0000001
 43
0.0000001
 44
0.0000000001
 40
0.0
 40
0.0
 40
0.0
 40
0.0
 40
0.062381819
 40
0.1287711536
 40
0.1983767448
 40
0.270373488
 40
0.4173890991
 40
0.490433548
 40
0.5617415043
 40
0.6303610233
 40
0.6954679348
 40
0.7564347634
 40
0.8128902258
 40
0.8648051613
 40
0.9125944043
 40
0.9571819392
 40
1.0
 40
1.0
 40
1.0
 40
1.0
 10
30.9596921966
 20
37.6446406942
 30
0.0
 10
30.8824715148
 20
37.6000575789
 30
0.0
 10
30.716905644
 20
37.5184611529
 30
0.0
 10
30.4498918144
 20
37.4216606258
 30
0.0
 10
30.1612648392
 20
37.3483986687
 30
0.0
 10
29.7534010919
 20
37.2837804576
 30
0.0
 10
29.3336618243
 20
37.2721879277
 30
0.0
 10
28.9188572437
 20
37.3134283028
 30
0.0
 10
28.6193175072
 20
37.3701165133
 30
0.0
 10
28.337266116
 20
37.4513917668
 30
0.0
 10
28.0786387974
 20
37.5556010566
 30
0.0
 10
27.848862511
 20
37.6805649044
 30
0.0
 10
27.652752487
 20
37.8238532643
 30
0.0
 10
27.4945092366
 20
37.9827897619
 30
0.0
 10
27.377737441
 20
38.1545230229
 30
0.0
 10
27.3057746332
 20
38.3356875292
 30
0.0
 10
27.289423629
 20
38.461155513
 30
0.0
 10
27.2894220679
 20
38.522358316
 30
0.0
  0
SPLINE
  5
29E
100
AcDbEntity
  8
0
100
AcDbSpline
 62
7
  6
BYLAYER
 70
0
 71
3
 72
13
 73
9
 74
0
 42
0.0000001
 43
0.0000001
 44
0.0000000001
 40
0.0
 40
0.0
 40
0.0
 40
0.0
 40
0.2893072232
 40
0.5483377861
 40
0.6677621071
 40
0.7817625478
 40
0.8918968242
 40
1.0
 40
1.0
 40
1.0
 40
1.0
 10
7.1654676092
 20
48.9324873587
 30
0.0
 10
7.0996496906
 20
48.8944875925
 30
0.0
 10
6.9802738228
 20
48.8123041349
 30
0.0
 10
6.8581593535
 20
48.6838773736
 30
0.0
 10
6.7894035354
 20
48.5738278604
 30
0.0
 10
6.7530975635
 20
48.4908083378
 30
0.0
 10
6.7311010265
 20
48.4059677789
 30
0.0
 10
6.7261396765
 20
48.3485245071
 30
0.0
 10
6.7261396818
 20
48.3201262269
 30
0.0
  0
SPLINE
  5
29F
100
AcDbEntity
  8
0
100
AcDbSpline
 62
7
  6
BYLAYER
 70
0
 71
3
 72
16
 73
12
 74
0
 42
0.0000001
 43
0.0000001
 44
0.0000000001
 40
0.0
 40
0.0
 40
0.0
 40
0.0
 40
0.1570153845
 40
0.3065556416
 40
0.4467559898
 40
0.5763728863
 40
0.6950350583
 40
0.8035006882
 40
0.9038992871
 40
0.952242732
 40
1.0
 40
1.0
 40
1.0
 40
1.0
 10
11.8163067688
 20
47.1373945675
 30
0.0
 10
11.7106056635
 20
47.1568258638
 30
0.0
 10
11.505867444
 20
47.2046080215
 30
0.0
 10
11.216374939
 20
47.3049264318
 30
0.0
 10
10.9572784946
 20
47.4301942783
 30
0.0
 10
10.7348328919
 20
47.5775793719
 30
0.0
 10
10.5543862793
 20
47.7439374991
 30
0.0
 10
10.4205665525
 20
47.9257790201
 30
0.0
 10
10.350659044
 20
48.0895384707
 30
0.0
 10
10.3233111514
 20
48.2215774163
 30
0.0
 10
10.3187894981
 20
48.2874480082
 30
0.0
 10
10.3187886644
 20
48.3201364245
 30
0.0
  0
SPLINE
  5
2A0
100
AcDbEntity
  8
0
100
AcDbSpline
 62
7
  6
BYLAYER
 70
0
 71
3
 72
15
 73
11
 74
0
 42
0.0000001
 43
0.0000001
 44
0.0000000001
 40
0.0
 40
0.0
 40
0.0
 40
0.0
 40
0.1098262311
 40
0.2214190366
 40
0.3364083458
 40
0.4561784751
 40
0.5818153032
 40
0.7140742583
 40
0.8534138291
 40
1.0
 40
1.0
 40
1.0
 40
1.0
 10
37.789325951
 20
60.3227627488
 30
0.0
 10
37.7893352929
 20
60.1770408258
 30
0.0
 10
37.7660511771
 20
59.8827491234
 30
0.0
 10
37.6620945553
 20
59.4469813394
 30
0.0
 10
37.4901259957
 20
59.0191056181
 30
0.0
 10
37.2520804167
 20
58.6027996995
 30
0.0
 10
36.950129945
 20
58.2014027465
 30
0.0
 10
36.5870670651
 20
57.8179170348
 30
0.0
 10
36.1658915248
 20
57.4554105541
 30
0.0
 10
35.8564270063
 20
57.2349844943
 30
0.0
 10
35.6935485282
 20
57.1286854158
 30
0.0
  0
SPLINE
  5
2A1
100
AcDbEntity
  8
0
100
AcDbSpline
 62
7
  6
BYLAYER
 70
0
 71
3
 72
13
 73
9
 74
0
 42
0.0000001
 43
0.0000001
 44
0.0000000001
 40
0.0
 40
0.0
 40
0.0
 40
0.0
 40
0.1117003125
 40
0.22840774
 40
0.3496424952
 40
0.4748147078
 40
0.7340230659
 40
1.0
 40
1.0
 40
1.0
 40
1.0
 10
35.6973539251
 20
57.118152011
 30
0.0
 10
35.4876885847
 20
56.9971057186
 30
0.0
 10
35.048072978
 20
56.7680754902
 30
0.0
 10
34.3503833542
 20
56.4706170272
 30
0.0
 10
33.6057396514
 20
56.2138909978
 30
0.0
 10
32.5476397235
 20
55.9260916198
 30
0.0
 10
31.1551160582
 20
55.685454997
 30
0.0
 10
30.015849457
 20
55.6215385064
 30
0.0
 10
29.4393724784
 20
55.6215371207
 30
0.0
  0
SPLINE
  5
2A2
100
AcDbEntity
  8
0
100
AcDbSpline
 62
7
  6
BYLAYER
 70
0
 71
3
 72
15
 73
11
 74
0
 42
0.0000001
 43
0.0000001
 44
0.0000000001
 40
0.0
 40
0.0
 40
0.0
 40
0.0
 40
0.1486049948
 40
0.2895005918
 40
0.4227219378
 40
0.5486427811
 40
0.6680005201
 40
0.7819379466
 40
0.8919875506
 40
1.0
 40
1.0
 40
1.0
 40
1.0
 10
22.8277531205
 20
64.1397434203
 30
0.0
 10
22.6168544033
 20
64.017986522
 30
0.0
 10
22.2155381741
 20
63.7636109471
 30
0.0
 10
21.6668813239
 20
63.3389298698
 30
0.0
 10
21.192360899
 20
62.8846741947
 30
0.0
 10
20.7965971594
 20
62.4050205944
 30
0.0
 10
20.4837463999
 20
61.9041682493
 30
0.0
 10
20.2572898857
 20
61.3866922731
 30
0.0
 10
20.1200669524
 20
60.8578290303
 30
0.0
 10
20.0893539514
 20
60.4997649964
 30
0.0
 10
20.0893539528
 20
60.322762749
 30
0.0
  0
SPLINE
  5
2A3
100
AcDbEntity
  8
0
100
AcDbSpline
 62
7
  6
BYLAYER
 70
0
 71
3
 72
15
 73
11
 74
0
 42
0.0000001
 43
0.0000001
 44
0.0000000001
 40
0.0
 40
0.0
 40
0.0
 40
0.0
 40
0.1485802397
 40
0.2895098423
 40
0.4227253129
 40
0.5486422241
 40
0.6680022611
 40
0.7819392256
 40
0.8919874052
 40
1.0
 40
1.0
 40
1.0
 40
1.0
 10
19.7165769116
 20
58.5059011277
 30
0.0
 10
19.4064783812
 20
58.3268667265
 30
0.0
 10
18.8162762132
 20
57.9527603256
 30
0.0
 10
18.0093789837
 20
57.3282386922
 30
0.0
 10
17.311453454
 20
56.6601954844
 30
0.0
 10
16.7295001999
 20
55.9547721972
 30
0.0
 10
16.2693705378
 20
55.2182445339
 30
0.0
 10
15.9363045255
 20
54.4572351507
 30
0.0
 10
15.7345827762
 20
53.6794637747
 30
0.0
 10
15.6893385536
 20
53.1528953283
 30
0.0
 10
15.6893506188
 20
52.8925907704
 30
0.0
  0
SPLINE
  5
2A4
100
AcDbEntity
  8
0
100
AcDbSpline
 62
7
  6
BYLAYER
 70
0
 71
3
 72
23
 73
19
 74
0
 42
0.0000001
 43
0.0000001
 44
0.0000000001
 40
0.0
 40
0.0
 40
0.0
 40
0.0
 40
0.0777682176
 40
0.1550689365
 40
0.2313609512
 40
0.3062003555
 40
0.3791475862
 40
0.4498005699
 40
0.5178153177
 40
0.5829132945
 40
0.6448953616
 40
0.7036603522
 40
0.7592260762
 40
0.8117456928
 40
0.8615279367
 40
0.9090498055
 40
0.9549496573
 40
1.0
 40
1.0
 40
1.0
 40
1.0
 10
29.4393876748
 20
45.6758155598
 30
0.0
 10
29.0308852616
 20
45.6758145779
 30
0.0
 10
28.2161469378
 20
45.6988772355
 30
0.0
 10
27.0046172038
 20
45.8022454898
 30
0.0
 10
25.8162834077
 20
45.9735322122
 30
0.0
 10
24.662702191
 20
46.2110297535
 30
0.0
 10
23.5547554606
 20
46.5124474875
 30
0.0
 10
22.5030342912
 20
46.8749653092
 30
0.0
 10
21.5175667926
 20
47.295178688
 30
0.0
 10
20.6076850659
 20
47.7691019583
 30
0.0
 10
19.7820344906
 20
48.292366319
 30
0.0
 10
19.0484890244
 20
48.8602118785
 30
0.0
 10
18.4140399108
 20
49.4674632203
 30
0.0
 10
17.8849347744
 20
50.1087518358
 30
0.0
 10
17.4666663182
 20
50.7783542558
 30
0.0
 10
17.1638742609
 20
51.4701772091
 30
0.0
 10
16.9804427426
 20
52.1772430147
 30
0.0
 10
16.9393605448
 20
52.6559494329
 30
0.0
 10
16.9393603528
 20
52.8925907534
 30
0.0
  0
SPLINE
  5
2A5
100
AcDbEntity
  8
0
100
AcDbSpline
 62
7
  6
BYLAYER
 70
0
 71
3
 72
15
 73
11
 74
0
 42
0.0000001
 43
0.0000001
 44
0.0000000001
 40
0.0
 40
0.0
 40
0.0
 40
0.0
 40
0.1080124495
 40
0.2180620536
 40
0.3319994798
 40
0.4513572193
 40
0.5772780622
 40
0.7104994083
 40
0.8513950056
 40
1.0
 40
1.0
 40
1.0
 40
1.0
 10
38.7893173119
 20
60.322762749
 30
0.0
 10
38.7893173104
 20
60.4997649965
 30
0.0
 10
38.7586043188
 20
60.8578290315
 30
0.0
 10
38.6213813727
 20
61.386692271
 30
0.0
 10
38.3949248706
 20
61.9041682526
 30
0.0
 10
38.0820741009
 20
62.4050205916
 30
0.0
 10
37.6863103668
 20
62.8846741957
 30
0.0
 10
37.2117899422
 20
63.3389298718
 30
0.0
 10
36.6631330883
 20
63.7636109433
 30
0.0
 10
36.2618168631
 20
64.017986524
 30
0.0
 10
36.0509181463
 20
64.1397434214
 30
0.0
  0
SPLINE
  5
2A6
100
AcDbEntity
  8
0
100
AcDbSpline
 62
7
  6
BYLAYER
 70
0
 71
3
 72
13
 73
9
 74
0
 42
0.0000001
 43
0.0000001
 44
0.0000000001
 40
0.0
 40
0.0
 40
0.0
 40
0.0
 40
0.2663673498
 40
0.5251159245
 40
0.6500232621
 40
0.7711254127
 40
0.8879508022
 40
1.0
 40
1.0
 40
1.0
 40
1.0
 10
29.9069838987
 20
65.8333383399
 30
0.0
 10
30.4425564981
 20
65.8169589071
 30
0.0
 10
31.4975222844
 20
65.7294382409
 30
0.0
 10
32.7841234372
 20
65.4799703896
 30
0.0
 10
33.7602152902
 20
65.1982801887
 30
0.0
 10
34.4479073799
 20
64.9521505015
 30
0.0
 10
35.0938227882
 20
64.6707851181
 30
0.0
 10
35.5020035158
 20
64.4566715635
 30
0.0
 10
35.6972045917
 20
64.3439747193
 30
0.0
  0
SPLINE
  5
2A7
100
AcDbEntity
  8
0
100
AcDbSpline
 62
7
  6
BYLAYER
 70
0
 71
3
 72
13
 73
9
 74
0
 42
0.0000001
 43
0.0000001
 44
0.0000000001
 40
0.0
 40
0.0
 40
0.0
 40
0.0
 40
0.2659754944
 40
0.5251859903
 40
0.6503541513
 40
0.7715833021
 40
0.8883201062
 40
1.0
 40
1.0
 40
1.0
 40
1.0
 10
29.4393724784
 20
55.6215371207
 30
0.0
 10
28.8629079268
 20
55.6215357351
 30
0.0
 10
27.7236580907
 20
55.685444233
 30
0.0
 10
26.3311618369
 20
55.9260669877
 30
0.0
 10
25.2730931492
 20
56.2138450475
 30
0.0
 10
24.5284030519
 20
56.4705354205
 30
0.0
 10
23.8307482823
 20
56.7680593108
 30
0.0
 10
23.3910897358
 20
56.997030002
 30
0.0
 10
23.181466673
 20
57.1180531958
 30
0.0
  0
SPLINE
  5
2A8
100
AcDbEntity
  8
0
100
AcDbSpline
 62
7
  6
BYLAYER
 70
0
 71
3
 72
14
 73
10
 74
0
 42
0.0000001
 43
0.0000001
 44
0.0000000001
 40
0.0
 40
0.0
 40
0.0
 40
0.0
 40
0.2856866926
 40
0.4179486157
 40
0.5436058994
 40
0.6634198123
 40
0.7784584605
 40
0.8901095964
 40
1.0
 40
1.0
 40
1.0
 40
1.0
 10
23.1785535892
 20
57.1330022147
 30
0.0
 10
22.8620804466
 20
57.3400740645
 30
0.0
 10
22.4207909955
 20
57.6808569145
 30
0.0
 10
21.9257249527
 20
58.2047287785
 30
0.0
 10
21.6248139038
 20
58.6056383715
 30
0.0
 10
21.3874982241
 20
59.0212628588
 30
0.0
 10
21.2161635337
 20
59.4484782249
 30
0.0
 10
21.1125196741
 20
59.8835017623
 30
0.0
 10
21.0893546398
 20
60.1772874029
 30
0.0
 10
21.0893453138
 20
60.3227627492
 30
0.0
  0
SPLINE
  5
2A9
100
AcDbEntity
  8
0
100
AcDbSpline
 62
7
  6
BYLAYER
 70
0
 71
3
 72
23
 73
19
 74
0
 42
0.0000001
 43
0.0000001
 44
0.0000000001
 40
0.0
 40
0.0
 40
0.0
 40
0.0
 40
0.0450503404
 40
0.0909501734
 40
0.1384720334
 40
0.188254253
 40
0.2407738031
 40
0.2963394099
 40
0.3551041608
 40
0.4170858681
 40
0.4821835312
 40
0.5501980529
 40
0.6208510242
 40
0.6937984486
 40
0.7686380562
 40
0.8449304463
 40
0.9222316363
 40
1.0
 40
1.0
 40
1.0
 40
1.0
 10
41.939310912
 20
52.8925907527
 30
0.0
 10
41.939311104
 20
52.65595101
 30
0.0
 10
41.8982280749
 20
52.1772480022
 30
0.0
 10
41.7148006753
 20
51.4701864112
 30
0.0
 10
41.4120114862
 20
50.7783678454
 30
0.0
 10
40.9937480033
 20
50.1087692486
 30
0.0
 10
40.4646501293
 20
49.4674831797
 30
0.0
 10
39.8302086952
 20
48.8602353887
 30
0.0
 10
39.0966733641
 20
48.2923930412
 30
0.0
 10
38.271035292
 20
47.7691299937
 30
0.0
 10
37.3611656245
 20
47.2952084553
 30
0.0
 10
36.3757095282
 20
46.8749939499
 30
0.0
 10
35.3239976206
 20
46.5124724687
 30
0.0
 10
34.2160574803
 20
46.2110517531
 30
0.0
 10
33.0624812963
 20
45.9735483855
 30
0.0
 10
31.8741506535
 20
45.8022565732
 30
0.0
 10
30.662624204
 20
45.6988832898
 30
0.0
 10
29.8478881521
 20
45.6758165417
 30
0.0
 10
29.4393876748
 20
45.6758155598
 30
0.0
  0
SPLINE
  5
2AA
100
AcDbEntity
  8
0
100
AcDbSpline
 62
7
  6
BYLAYER
 70
0
 71
3
 72
12
 73
8
 74
0
 42
0.0000001
 43
0.0000001
 44
0.0000000001
 40
0.0
 40
0.0
 40
0.0
 40
0.0
 40
0.1081697852
 40
0.218371964
 40
0.451322281
 40
0.7105133255
 40
1.0
 40
1.0
 40
1.0
 40
1.0
 10
52.152531583
 20
48.3202282074
 30
0.0
 10
52.1525315777
 20
48.3486267839
 30
0.0
 10
52.1475626344
 20
48.4060737923
 30
0.0
 10
52.1177466607
 20
48.5212343874
 30
0.0
 10
52.0411448976
 20
48.6624869895
 30
0.0
 10
51.8984253591
 20
48.8123065436
 30
0.0
 10
51.7790139734
 20
48.894594594
 30
0.0
 10
51.7131948236
 20
48.9325944382
 30
0.0
  0
SPLINE
  5
2AB
100
AcDbEntity
  8
0
100
AcDbSpline
 62
7
  6
BYLAYER
 70
0
 71
3
 72
12
 73
8
 74
0
 42
0.0000001
 43
0.0000001
 44
0.0000000001
 40
0.0
 40
0.0
 40
0.0
 40
0.0
 40
0.2548564345
 40
0.503934778
 40
0.7514770213
 40
0.8754143235
 40
1.0
 40
1.0
 40
1.0
 40
1.0
 10
7.2690326015
 20
35.6395818738
 30
0.0
 10
7.1919656926
 20
35.6840754678
 30
0.0
 10
7.04714097
 20
35.7865363983
 30
0.0
 10
6.8706484622
 20
35.9841037931
 30
0.0
 10
6.7731897897
 20
36.1813475556
 30
0.0
 10
6.7329557405
 20
36.3503947336
 30
0.0
 10
6.726132197
 20
36.4373393648
 30
0.0
 10
6.726132197
 20
36.4808411785
 30
0.0
  0
SPLINE
  5
2AC
100
AcDbEntity
  8
0
100
AcDbSpline
 62
7
  6
BYLAYER
 70
0
 71
3
 72
13
 73
9
 74
0
 42
0.0000001
 43
0.0000001
 44
0.0000000001
 40
0.0
 40
0.0
 40
0.0
 40
0.0
 40
0.2431637845
 40
0.3705652064
 40
0.5000102064
 40
0.6294542156
 40
0.7568528182
 40
1.0
 40
1.0
 40
1.0
 40
1.0
 10
28.4823243559
 20
23.3923592382
 30
0.0
 10
28.6219944639
 20
23.311722488
 30
0.0
 10
28.8561324244
 20
23.223770701
 30
0.0
 10
29.1830252337
 20
23.1661190424
 30
0.0
 10
29.4394488934
 20
23.1513147143
 30
0.0
 10
29.6958703974
 20
23.1661247193
 30
0.0
 10
30.0227482924
 20
23.2237827713
 30
0.0
 10
30.2568725671
 20
23.3117321887
 30
0.0
 10
30.3965325573
 20
23.3923644403
 30
0.0
  0
SPLINE
  5
2AD
100
AcDbEntity
  8
0
100
AcDbSpline
 62
7
  6
BYLAYER
 70
0
 71
3
 72
12
 73
8
 74
0
 42
0.0000001
 43
0.0000001
 44
0.0000000001
 40
0.0
 40
0.0
 40
0.0
 40
0.0
 40
0.1245855943
 40
0.2485094329
 40
0.4960607136
 40
0.7451475045
 40
1.0
 40
1.0
 40
1.0
 40
1.0
 10
52.1525390678
 20
36.480943159
 30
0.0
 10
52.1525390678
 20
36.4374418052
 30
0.0
 10
52.1457212409
 20
36.3505020488
 30
0.0
 10
52.1054778487
 20
36.1814606081
 30
0.0
 10
52.0080333143
 20
35.9842117293
 30
0.0
 10
51.8315344251
 20
35.7866451161
 30
0.0
 10
51.6867123069
 20
35.6841820776
 30
0.0
 10
51.6096476737
 20
35.6396890565
 30
0.0
  0
SPLINE
  5
2AE
100
AcDbEntity
  8
0
100
AcDbSpline
 62
7
  6
BYLAYER
 70
0
 71
3
 72
14
 73
10
 74
0
 42
0.0000001
 43
0.0000001
 44
0.0000000001
 40
0.0
 40
0.0
 40
0.0
 40
0.0
 40
0.1080431444
 40
0.2181326404
 40
0.3321056638
 40
0.4514814971
 40
0.5774303852
 40
0.7107553626
 40
1.0
 40
1.0
 40
1.0
 40
1.0
 10
10.3187886644
 20
48.3201364245
 30
0.0
 10
10.3187876262
 20
48.3608367869
 30
0.0
 10
10.3258330469
 20
48.4431770969
 30
0.0
 10
10.357422873
 20
48.5647805455
 30
0.0
 10
10.4094731023
 20
48.6837770421
 30
0.0
 10
10.4814029258
 20
48.7989372694
 30
0.0
 10
10.5724132728
 20
48.9092624274
 30
0.0
 10
10.7219640032
 20
49.0523580042
 30
0.0
 10
10.8541248619
 20
49.143374381
 30
0.0
 10
10.948486975
 20
49.1978540472
 30
0.0
  0
SPLINE
  5
2AF
100
AcDbEntity
  8
0
100
AcDbSpline
 62
7
  6
BYLAYER
 70
0
 71
3
 72
11
 73
7
 74
0
 42
0.0000001
 43
0.0000001
 44
0.0000000001
 40
0.0
 40
0.0
 40
0.0
 40
0.0
 40
0.2895368706
 40
0.5491085983
 40
0.7822509632
 40
1.0
 40
1.0
 40
1.0
 40
1.0
 10
28.3787681955
 20
23.6212523121
 30
0.0
 10
28.3787681955
 20
23.5959329788
 30
0.0
 10
28.3826326163
 20
23.5477547289
 30
0.0
 10
28.4021088637
 20
23.4815488061
 30
0.0
 10
28.4349602389
 20
23.4278058406
 30
0.0
 10
28.4658453235
 20
23.4019000221
 30
0.0
 10
28.4823359702
 20
23.3923793552
 30
0.0
  0
SPLINE
  5
2B0
100
AcDbEntity
  8
0
100
AcDbSpline
 62
7
  6
BYLAYER
 70
0
 71
3
 72
15
 73
11
 74
0
 42
0.0000001
 43
0.0000001
 44
0.0000000001
 40
0.0
 40
0.0
 40
0.0
 40
0.0
 40
0.1141216057
 40
0.2373437884
 40
0.3669699918
 40
0.4999994786
 40
0.633029038
 40
0.7626554531
 40
0.8858779697
 40
1.0
 40
1.0
 40
1.0
 40
1.0
 10
30.5000885391
 20
23.6212574111
 30
0.0
 10
30.4274992499
 20
23.5793482156
 30
0.0
 10
30.2687005699
 20
23.5054351746
 30
0.0
 10
30.010162395
 20
23.4268031411
 30
0.0
 10
29.7302040152
 20
23.3784590918
 30
0.0
 10
29.4394301561
 20
23.3621087687
 30
0.0
 10
29.1486560644
 20
23.3784577117
 30
0.0
 10
28.8686969979
 20
23.4268004318
 30
0.0
 10
28.6101577097
 20
23.5054312362
 30
0.0
 10
28.4513580571
 20
23.5793434841
 30
0.0
 10
28.3787681955
 20
23.6212523121
 30
0.0
  0
SPLINE
  5
2B1
100
AcDbEntity
  8
0
100
AcDbSpline
 62
7
  6
BYLAYER
 70
0
 71
3
 72
13
 73
9
 74
0
 42
0.0000001
 43
0.0000001
 44
0.0000000001
 40
0.0
 40
0.0
 40
0.0
 40
0.0
 40
0.2893046904
 40
0.5483332376
 40
0.6677587623
 40
0.7817604793
 40
0.8918958913
 40
1.0
 40
1.0
 40
1.0
 40
1.0
 10
7.1654764411
 20
35.8684749477
 30
0.0
 10
7.0996575913
 20
35.9064746187
 30
0.0
 10
6.9802787129
 20
35.9886563894
 30
0.0
 10
6.8581611424
 20
36.1170833909
 30
0.0
 10
6.7894008054
 20
36.2271330863
 30
0.0
 10
6.7530925171
 20
36.3101545402
 30
0.0
 10
6.7310940738
 20
36.3949972146
 30
0.0
 10
6.7261321956
 20
36.452442121
 30
0.0
 10
6.726132197
 20
36.4808411785
 30
0.0
  0
SPLINE
  5
2B2
100
AcDbEntity
  8
0
100
AcDbSpline
 62
7
  6
BYLAYER
 70
0
 71
3
 72
16
 73
12
 74
0
 42
0.0000001
 43
0.0000001
 44
0.0000000001
 40
0.0
 40
0.0
 40
0.0
 40
0.0
 40
0.1485676571
 40
0.2894810567
 40
0.4226834269
 40
0.548589163
 40
0.6679371918
 40
0.7818631223
 40
0.8919010006
 40
0.9460798465
 40
1.0
 40
1.0
 40
1.0
 40
1.0
 10
39.1620943531
 20
47.2792803784
 30
0.0
 10
39.4721966376
 20
47.4583169472
 30
0.0
 10
40.0623994665
 20
47.8324192817
 30
0.0
 10
40.8692914155
 20
48.4569432735
 30
0.0
 10
41.5672124025
 20
49.1249878313
 30
0.0
 10
42.1491741477
 20
49.8303932319
 30
0.0
 10
42.6092941719
 20
50.5669724592
 30
0.0
 10
42.942370625
 20
51.3278220977
 30
0.0
 10
43.1113694675
 20
51.9799576002
 30
0.0
 10
43.1782217486
 20
52.5019454124
 30
0.0
 10
43.1893205608
 20
52.7626334795
 30
0.0
 10
43.1893159632
 20
52.8925907349
 30
0.0
  0
SPLINE
  5
2B3
100
AcDbEntity
  8
0
100
AcDbSpline
 62
7
  6
BYLAYER
 70
0
 71
3
 72
16
 73
12
 74
0
 42
0.0000001
 43
0.0000001
 44
0.0000000001
 40
0.0
 40
0.0
 40
0.0
 40
0.0
 40
0.1464025706
 40
0.2855999243
 40
0.4177715515
 40
0.4813827565
 40
0.5434344512
 40
0.6632357942
 40
0.7783086253
 40
0.8900267606
 40
1.0
 40
1.0
 40
1.0
 40
1.0
 10
38.8442331166
 20
57.6463801761
 30
0.0
 10
39.0849551021
 20
57.4876436567
 30
0.0
 10
39.5422875605
 20
57.1586909295
 30
0.0
 10
40.1643807685
 20
56.618337851
 30
0.0
 10
40.616914088
 20
56.1362965235
 30
0.0
 10
40.9316943886
 20
55.7374650252
 30
0.0
 10
41.2082804988
 20
55.3406612139
 30
0.0
 10
41.4978021695
 20
54.8305064746
 30
0.0
 10
41.7515412446
 20
54.1943151838
 30
0.0
 10
41.9050097241
 20
53.5465631714
 30
0.0
 10
41.9393107362
 20
53.1091888838
 30
0.0
 10
41.939310912
 20
52.8925907527
 30
0.0
  0
SPLINE
  5
2B4
100
AcDbEntity
  8
0
100
AcDbSpline
 62
7
  6
BYLAYER
 70
0
 71
3
 72
14
 73
10
 74
0
 42
0.0000001
 43
0.0000001
 44
0.0000000001
 40
0.0
 40
0.0
 40
0.0
 40
0.0
 40
0.1439785118
 40
0.2819392741
 40
0.5400504616
 40
0.6611483027
 40
0.7776067703
 40
0.8902294745
 40
1.0
 40
1.0
 40
1.0
 40
1.0
 10
20.0344308649
 20
56.8298729543
 30
0.0
 10
19.8287521881
 20
56.6942443961
 30
0.0
 10
19.4349637385
 20
56.4144907267
 30
0.0
 10
18.7245880917
 20
55.8226869164
 30
0.0
 10
18.1150839168
 20
55.1727788262
 30
0.0
 10
17.63521268
 20
54.4717688284
 30
0.0
 10
17.351833847
 20
53.9422857195
 30
0.0
 10
17.1394215889
 20
53.4013295675
 30
0.0
 10
17.0451785122
 20
53.0313675797
 30
0.0
 10
17.0108188994
 20
52.8467011845
 30
0.0
  0
SPLINE
  5
2B5
100
AcDbEntity
  8
0
100
AcDbSpline
 62
7
  6
BYLAYER
 70
0
 71
3
 72
21
 73
17
 74
0
 42
0.0000001
 43
0.0000001
 44
0.0000000001
 40
0.0
 40
0.0
 40
0.0
 40
0.0
 40
0.0450561579
 40
0.090962062
 40
0.1384897158
 40
0.1882784764
 40
0.2408050392
 40
0.2963770592
 40
0.3551504651
 40
0.4171403038
 40
0.4822467281
 40
0.5502697491
 40
0.6209311896
 40
0.6938887134
 40
0.8449714111
 40
1.0
 40
1.0
 40
1.0
 40
1.0
 10
38.7893083303
 20
52.0760883424
 30
0.0
 10
38.7893076617
 20
51.8990822909
 30
0.0
 10
38.7585951268
 20
51.5410105055
 30
0.0
 10
38.6213645894
 20
51.0121372771
 30
0.0
 10
38.3949011134
 20
50.4946510633
 30
0.0
 10
38.0820375514
 20
49.9937916866
 30
0.0
 10
37.6862577844
 20
49.5141286799
 30
0.0
 10
37.2117271483
 20
49.0598733426
 30
0.0
 10
36.6630157834
 20
48.6351599049
 30
0.0
 10
36.0454462901
 20
48.2437436496
 30
0.0
 10
35.3648691923
 20
47.8892369137
 30
0.0
 10
34.6277446252
 20
47.5749479704
 30
0.0
 10
33.8410639697
 20
47.3037432201
 30
0.0
 10
32.7232049755
 20
46.9996939081
 30
0.0
 10
31.2520315109
 20
46.7454686206
 30
0.0
 10
30.0484144706
 20
46.6779419554
 30
0.0
 10
29.4393745601
 20
46.6779404914
 30
0.0
  0
SPLINE
  5
2B6
100
AcDbEntity
  8
0
100
AcDbSpline
 62
7
  6
BYLAYER
 70
0
 71
3
 72
21
 73
17
 74
0
 42
0.0000001
 43
0.0000001
 44
0.0000000001
 40
0.0
 40
0.0
 40
0.0
 40
0.0
 40
0.1550255455
 40
0.3061070147
 40
0.3790645222
 40
0.4497262118
 40
0.5177497678
 40
0.5828569087
 40
0.6448475238
 40
0.703621691
 40
0.7591943437
 40
0.8117214583
 40
0.8615104679
 40
0.9090382781
 40
0.954944091
 40
1.0
 40
1.0
 40
1.0
 40
1.0
 10
29.4393745601
 20
46.6779404914
 30
0.0
 10
28.8303426121
 20
46.6779390275
 30
0.0
 10
27.6267341704
 20
46.7454585106
 30
0.0
 10
26.1555661263
 20
46.9996727853
 30
0.0
 10
25.0377009973
 20
47.3037135967
 30
0.0
 10
24.2510104227
 20
47.5749156163
 30
0.0
 10
23.5138731821
 20
47.8892032348
 30
0.0
 10
22.8332818579
 20
48.2437108674
 30
0.0
 10
22.2156981419
 20
48.6351301565
 30
0.0
 10
21.6669734646
 20
49.0598479792
 30
0.0
 10
21.1924328706
 20
49.514109972
 30
0.0
 10
20.796642056
 20
49.993776848
 30
0.0
 10
20.4837773821
 20
50.4946442992
 30
0.0
 10
20.2573055134
 20
51.0121324522
 30
0.0
 10
20.1200795084
 20
51.5410097242
 30
0.0
 10
20.089362266
 20
51.8990820953
 30
0.0
 10
20.0893629345
 20
52.0760883295
 30
0.0
  0
SPLINE
  5
2B7
100
AcDbEntity
  8
0
100
AcDbSpline
 62
7
  6
BYLAYER
 70
0
 71
3
 72
16
 73
12
 74
0
 42
0.0000001
 43
0.0000001
 44
0.0000000001
 40
0.0
 40
0.0
 40
0.0
 40
0.0
 40
0.1421684387
 40
0.2824777583
 40
0.4190805314
 40
0.5503589978
 40
0.674897081
 40
0.7916384708
 40
0.8469069908
 40
0.9000501572
 40
1.0
 40
1.0
 40
1.0
 40
1.0
 10
29.4393745601
 20
54.9246149044
 30
0.0
 10
29.8788057043
 20
54.9246159607
 30
0.0
 10
30.7523474576
 20
54.9600949887
 30
0.0
 10
32.039368877
 20
55.1189393638
 30
0.0
 10
33.2753644256
 20
55.3803071073
 30
0.0
 10
34.4360021318
 20
55.7389854124
 30
0.0
 10
35.4985780213
 20
56.1881242902
 30
0.0
 10
36.2996049536
 20
56.6387602615
 30
0.0
 10
36.8698038728
 20
57.0387298852
 30
0.0
 10
37.3700066076
 20
57.444837891
 30
0.0
 10
37.7037284637
 20
57.784294678
 30
0.0
 10
37.8989589831
 20
58.0237253355
 30
0.0
  0
SPLINE
  5
2B8
100
AcDbEntity
  8
0
100
AcDbSpline
 62
7
  6
BYLAYER
 70
0
 71
3
 72
12
 73
8
 74
0
 42
0.0000001
 43
0.0000001
 44
0.0000000001
 40
0.0
 40
0.0
 40
0.0
 40
0.0
 40
0.2674077912
 40
0.5203930648
 40
0.7628513876
 40
0.8817805619
 40
1.0
 40
1.0
 40
1.0
 40
1.0
 10
37.8989589831
 20
58.0237253355
 30
0.0
 10
38.0404968653
 20
58.197307357
 30
0.0
 10
38.2935331447
 20
58.5545175151
 30
0.0
 10
38.5777582269
 20
59.1298356899
 30
0.0
 10
38.7226811968
 20
59.6268699482
 30
0.0
 10
38.7798317049
 20
60.0249754435
 30
0.0
 10
38.7893173127
 20
60.2237457925
 30
0.0
 10
38.7893173119
 20
60.322762749
 30
0.0
  0
SPLINE
  5
2B9
100
AcDbEntity
  8
0
100
AcDbSpline
 62
7
  6
BYLAYER
 70
0
 71
3
 72
22
 73
18
 74
0
 42
0.0000001
 43
0.0000001
 44
0.0000000001
 40
0.0
 40
0.0
 40
0.0
 40
0.0
 40
0.1413056401
 40
0.2065026086
 40
0.2683214797
 40
0.3271957048
 40
0.3837345423
 40
0.4387198774
 40
0.4930565513
 40
0.5477030291
 40
0.6035915859
 40
0.6615540423
 40
0.7222649044
 40
0.7862258186
 40
0.8537548997
 40
0.9250097864
 40
1.0
 40
1.0
 40
1.0
 40
1.0
 10
36.0656499152
 20
64.1178942771
 30
0.0
 10
36.4157314915
 20
63.8895649347
 30
0.0
 10
36.9026713207
 20
63.5123144261
 30
0.0
 10
37.4430886048
 20
62.9291439162
 30
0.0
 10
37.7668819281
 20
62.4829012474
 30
0.0
 10
38.0167199566
 20
62.0201261392
 30
0.0
 10
38.1898243744
 20
61.5447139031
 30
0.0
 10
38.2841539788
 20
61.0611315098
 30
0.0
 10
38.2984780874
 20
60.574154396
 30
0.0
 10
38.2325117979
 20
60.0888011487
 30
0.0
 10
38.0872847721
 20
59.6099474527
 30
0.0
 10
37.8644598116
 20
59.1422006701
 30
0.0
 10
37.5666956011
 20
58.6896271111
 30
0.0
 10
37.1968707233
 20
58.2561358613
 30
0.0
 10
36.7585540556
 20
57.8452275042
 30
0.0
 10
36.2556942159
 20
57.4603883252
 30
0.0
 10
35.889448508
 20
57.2290541611
 30
0.0
 10
35.6973539251
 20
57.118152011
 30
0.0
  0
SPLINE
  5
2BA
100
AcDbEntity
  8
0
100
AcDbSpline
 62
7
  6
BYLAYER
 70
0
 71
3
 72
23
 73
19
 74
0
 42
0.0000001
 43
0.0000001
 44
0.0000000001
 40
0.0
 40
0.0
 40
0.0
 40
0.0
 40
0.0749434709
 40
0.1462017013
 40
0.2137051649
 40
0.2776318057
 40
0.3383165072
 40
0.3962518551
 40
0.4521160444
 40
0.5067415989
 40
0.5610633976
 40
0.6160417731
 40
0.6725801346
 40
0.731459899
 40
0.7932939102
 40
0.8585158968
 40
0.9273852478
 40
1.0
 40
1.0
 40
1.0
 40
1.0
 10
23.181466673
 20
57.1180531958
 30
0.0
 10
22.9892799038
 20
57.2290097686
 30
0.0
 10
22.6227674034
 20
57.4605765424
 30
0.0
 10
22.1194975825
 20
57.8456961721
 30
0.0
 10
21.6808888683
 20
58.2570304014
 30
0.0
 10
21.3109946671
 20
58.6909539182
 30
0.0
 10
21.0131882374
 20
59.1439132495
 30
0.0
 10
20.7905533247
 20
59.6121321962
 30
0.0
 10
20.6455241593
 20
60.0914061239
 30
0.0
 10
20.5800512179
 20
60.5771970387
 30
0.0
 10
20.5948491924
 20
61.0645729305
 30
0.0
 10
20.6899040344
 20
61.5485087557
 30
0.0
 10
20.8637833199
 20
62.0242207473
 30
0.0
 10
21.1145007535
 20
62.4872679442
 30
0.0
 10
21.4392930105
 20
62.9336410864
 30
0.0
 10
21.8349786018
 20
63.3596282008
 30
0.0
 10
22.2978856038
 20
63.7616207292
 30
0.0
 10
22.6396387818
 20
64.0051248031
 30
0.0
 10
22.8198719036
 20
64.1223859444
 30
0.0
  0
SPLINE
  5
2BB
100
AcDbEntity
  8
0
100
AcDbSpline
 62
7
  6
BYLAYER
 70
0
 71
3
 72
12
 73
8
 74
0
 42
0.0000001
 43
0.0000001
 44
0.0000000001
 40
0.0
 40
0.0
 40
0.0
 40
0.0
 40
0.1182194125
 40
0.2371485638
 40
0.47960686
 40
0.7325921462
 40
1.0
 40
1.0
 40
1.0
 40
1.0
 10
20.0893539528
 20
60.322762749
 30
0.0
 10
20.0893539537
 20
60.2237455756
 30
0.0
 10
20.0988396069
 20
60.0249747887
 30
0.0
 10
20.1559903544
 20
59.6268684111
 30
0.0
 10
20.3009139864
 20
59.1298330662
 30
0.0
 10
20.5851403019
 20
58.5545137236
 30
0.0
 10
20.8381776436
 20
58.1973029427
 30
0.0
 10
20.9797161113
 20
58.0237206352
 30
0.0
  0
SPLINE
  5
2BC
100
AcDbEntity
  8
0
100
AcDbSpline
 62
7
  6
BYLAYER
 70
0
 71
3
 72
16
 73
12
 74
0
 42
0.0000001
 43
0.0000001
 44
0.0000000001
 40
0.0
 40
0.0
 40
0.0
 40
0.0
 40
0.0999498017
 40
0.1530929663
 40
0.208361496
 40
0.3251029307
 40
0.4496410774
 40
0.5809196014
 40
0.7175224
 40
0.8578316835
 40
1.0
 40
1.0
 40
1.0
 40
1.0
 10
20.9797161113
 20
58.0237206352
 30
0.0
 10
21.1749483523
 20
57.7842884622
 30
0.0
 10
21.5086733103
 20
57.4448297091
 30
0.0
 10
22.0088807305
 20
57.0387197281
 30
0.0
 10
22.5790851927
 20
56.6387483315
 30
0.0
 10
23.3801199286
 20
56.1881109538
 30
0.0
 10
24.4427059455
 20
55.7389717647
 30
0.0
 10
25.6033543172
 20
55.380294571
 30
0.0
 10
26.8393605667
 20
55.1189294348
 30
0.0
 10
28.1263921996
 20
54.9600891732
 30
0.0
 10
28.9999403947
 20
54.9246138481
 30
0.0
 10
29.4393745601
 20
54.9246149044
 30
0.0
  0
SPLINE
  5
2BD
100
AcDbEntity
  8
0
100
AcDbSpline
 62
7
  6
BYLAYER
 70
0
 71
3
 72
14
 73
10
 74
0
 42
0.0000001
 43
0.0000001
 44
0.0000000001
 40
0.0
 40
0.0
 40
0.0
 40
0.0
 40
0.1097734836
 40
0.2223984022
 40
0.3388581445
 40
0.4599564407
 40
0.7180657782
 40
0.8560243079
 40
1.0
 40
1.0
 40
1.0
 40
1.0
 10
41.8678967082
 20
52.8464606251
 30
0.0
 10
41.8335519695
 20
53.031105348
 30
0.0
 10
41.7393461015
 20
53.4010247667
 30
0.0
 10
41.5270015448
 20
53.9419224727
 30
0.0
 10
41.2437089857
 20
54.471353703
 30
0.0
 10
40.7639732937
 20
55.1722967573
 30
0.0
 10
40.154630347
 20
55.8221575331
 30
0.0
 10
39.4444316616
 20
56.4139317571
 30
0.0
 10
39.0507380392
 20
56.6936747583
 30
0.0
 10
38.8451085887
 20
56.8292998968
 30
0.0
  0
SPLINE
  5
2BE
100
AcDbEntity
  8
0
100
AcDbSpline
 62
7
  6
BYLAYER
 70
0
 71
3
 72
16
 73
12
 74
0
 42
0.0000001
 43
0.0000001
 44
0.0000000001
 40
0.0
 40
0.0
 40
0.0
 40
0.0
 40
0.1099764648
 40
0.2216973585
 40
0.3367721657
 40
0.4565743588
 40
0.518626079
 40
0.5822369446
 40
0.7144069689
 40
0.8536014049
 40
1.0
 40
1.0
 40
1.0
 40
1.0
 10
16.9393603528
 20
52.8925907534
 30
0.0
 10
16.939360177
 20
53.1091565072
 30
0.0
 10
16.9736520074
 20
53.546464065
 30
0.0
 10
17.1270726323
 20
54.1941205639
 30
0.0
 10
17.3807377861
 20
54.8302207676
 30
0.0
 10
17.6701736218
 20
55.3403096732
 30
0.0
 10
17.9466813582
 20
55.7370639546
 30
0.0
 10
18.2613695442
 20
56.1358475259
 30
0.0
 10
18.7137733649
 20
56.6178348943
 30
0.0
 10
19.3356909663
 20
57.1581397192
 30
0.0
 10
19.7928989379
 20
57.4870696465
 30
0.0
 10
20.0335554641
 20
57.6457975552
 30
0.0
  0
SPLINE
  5
2BF
100
AcDbEntity
  8
0
100
AcDbSpline
 62
7
  6
BYLAYER
 70
0
 71
3
 72
30
 73
26
 74
0
 42
0.0000001
 43
0.0000001
 44
0.0000000001
 40
0.0
 40
0.0
 40
0.0
 40
0.0
 40
0.02132753
 40
0.0428833347
 40
0.0648840403
 40
0.0875238704
 40
0.1109684762
 40
0.1353501083
 40
0.1607680074
 40
0.1872879316
 40
0.2149463182
 40
0.2437510789
 40
0.2736869606
 40
0.3047159928
 40
0.3697905242
 40
0.438373982
 40
0.5096461594
 40
0.582655817
 40
0.6563726323
 40
0.7297350808
 40
0.801697102
 40
0.8712758177
 40
0.9376017571
 40
0.969338713
 40
1.0
 40
1.0
 40
1.0
 40
1.0
 10
15.6893506188
 20
52.8925907704
 30
0.0
 10
15.6893596598
 20
52.6975313237
 30
0.0
 10
15.7145242569
 20
52.3048736939
 30
0.0
 10
15.8273391641
 20
51.7207751381
 30
0.0
 10
16.0144749002
 20
51.143452695
 30
0.0
 10
16.2746602057
 20
50.5762617927
 30
0.0
 10
16.6062755333
 20
50.0222605022
 30
0.0
 10
17.0073040368
 20
49.4843622439
 30
0.0
 10
17.4754816896
 20
48.9653955794
 30
0.0
 10
18.0081673915
 20
48.4680133251
 30
0.0
 10
18.6024864038
 20
47.9948412843
 30
0.0
 10
19.2551844936
 20
47.5483024191
 30
0.0
 10
19.962793456
 20
47.1307787008
 30
0.0
 10
20.9905840405
 20
46.6074380162
 30
0.0
 10
22.3907884701
 20
46.0433924399
 30
0.0
 10
24.1944801847
 20
45.5235707788
 30
0.0
 10
26.1100096339
 20
45.1610293849
 30
0.0
 10
28.0964651941
 20
44.963488259
 30
0.0
 10
30.1115846942
 20
44.9351335193
 30
0.0
 10
32.1123468329
 20
45.0765683409
 30
0.0
 10
34.0561598465
 20
45.3847978076
 30
0.0
 10
35.9014686982
 20
45.8532452777
 30
0.0
 10
37.3459766566
 20
46.3766018713
 30
0.0
 10
38.4156181092
 20
46.8697117609
 30
0.0
 10
38.9192387731
 20
47.1390684808
 30
0.0
 10
39.1620943531
 20
47.2792803784
 30
0.0
  0
SPLINE
  5
2C0
100
AcDbEntity
  8
0
100
AcDbSpline
 62
7
  6
BYLAYER
 70
0
 71
3
 72
13
 73
9
 74
0
 42
0.0000001
 43
0.0000001
 44
0.0000000001
 40
0.0
 40
0.0
 40
0.0
 40
0.0
 40
0.2893072232
 40
0.5483377861
 40
0.6677621071
 40
0.7817625478
 40
0.8918968242
 40
1.0
 40
1.0
 40
1.0
 40
1.0
 10
51.7132036555
 20
47.7078670756
 30
0.0
 10
51.7790215741
 20
47.7458668418
 30
0.0
 10
51.8983974419
 20
47.8280502994
 30
0.0
 10
52.0205119112
 20
47.9564770608
 30
0.0
 10
52.0892677293
 20
48.066526574
 30
0.0
 10
52.1255737012
 20
48.1495460965
 30
0.0
 10
52.1475702383
 20
48.2343866554
 30
0.0
 10
52.1525315882
 20
48.2918299272
 30
0.0
 10
52.152531583
 20
48.3202282074
 30
0.0
  0
SPLINE
  5
2C1
100
AcDbEntity
  8
0
100
AcDbSpline
 62
7
  6
BYLAYER
 70
0
 71
3
 72
14
 73
10
 74
0
 42
0.0000001
 43
0.0000001
 44
0.0000000001
 40
0.0
 40
0.0
 40
0.0
 40
0.0
 40
0.1080431444
 40
0.2181326404
 40
0.3321056638
 40
0.4514814971
 40
0.5774303852
 40
0.7107553626
 40
1.0
 40
1.0
 40
1.0
 40
1.0
 10
27.2894220679
 20
38.522358316
 30
0.0
 10
27.2894210297
 20
38.5630586784
 30
0.0
 10
27.2964664504
 20
38.6453989884
 30
0.0
 10
27.3280562765
 20
38.767002437
 30
0.0
 10
27.3801065059
 20
38.8859989336
 30
0.0
 10
27.4520363293
 20
39.0011591609
 30
0.0
 10
27.5430466763
 20
39.1114843189
 30
0.0
 10
27.6925974067
 20
39.2545798958
 30
0.0
 10
27.8247582654
 20
39.3455962725
 30
0.0
 10
27.9191203785
 20
39.4000759387
 30
0.0
  0
SPLINE
  5
2C2
100
AcDbEntity
  8
0
100
AcDbSpline
 62
7
  6
BYLAYER
 70
0
 71
3
 72
12
 73
8
 74
0
 42
0.0000001
 43
0.0000001
 44
0.0000000001
 40
0.0
 40
0.0
 40
0.0
 40
0.0
 40
0.1081697852
 40
0.218371964
 40
0.451322281
 40
0.7105133255
 40
1.0
 40
1.0
 40
1.0
 40
1.0
 10
6.7261396818
 20
48.3201262269
 30
0.0
 10
6.726139687
 20
48.2917276505
 30
0.0
 10
6.7311086303
 20
48.234280642
 30
0.0
 10
6.760924604
 20
48.1191200469
 30
0.0
 10
6.8375263672
 20
47.9778674448
 30
0.0
 10
6.9802459057
 20
47.8280478907
 30
0.0
 10
7.0996572913
 20
47.7457598403
 30
0.0
 10
7.1654764411
 20
47.7077599961
 30
0.0
  0
SPLINE
  5
2C3
100
AcDbEntity
  8
0
100
AcDbSpline
 62
7
  6
BYLAYER
 70
0
 71
3
 72
18
 73
14
 74
0
 42
0.0000001
 43
0.0000001
 44
0.0000000001
 40
0.0
 40
0.0
 40
0.0
 40
0.0
 40
0.1483139584
 40
0.2981020508
 40
0.4439923457
 40
0.5810369477
 40
0.6450483711
 40
0.705546073
 40
0.8153036015
 40
0.865038377
 40
0.9118456053
 40
0.9564985594
 40
1.0
 40
1.0
 40
1.0
 40
1.0
 10
45.7799163483
 20
49.507013981
 30
0.0
 10
45.9425647441
 20
49.5357790065
 30
0.0
 10
46.2740122512
 20
49.5701174965
 30
0.0
 10
46.7696493089
 20
49.5552042006
 30
0.0
 10
47.2464923149
 20
49.4756626674
 30
0.0
 10
47.6158691623
 20
49.35621888
 30
0.0
 10
47.8790575164
 20
49.2303348336
 30
0.0
 10
48.102472332
 20
49.0952622832
 30
0.0
 10
48.2919686908
 20
48.9350689663
 30
0.0
 10
48.431307085
 20
48.7513468974
 30
0.0
 10
48.5049222523
 20
48.6114776647
 30
0.0
 10
48.5498110907
 20
48.46711749
 30
0.0
 10
48.5598813647
 20
48.3686641451
 30
0.0
 10
48.5598826004
 20
48.3202180098
 30
0.0
  0
SPLINE
  5
2C4
100
AcDbEntity
  8
0
100
AcDbSpline
 62
7
  6
BYLAYER
 70
0
 71
3
 72
9
 73
5
 74
0
 42
0.0000001
 43
0.0000001
 44
0.0000000001
 40
0.0
 40
0.0
 40
0.0
 40
0.0
 40
0.2478758692
 40
1.0
 40
1.0
 40
1.0
 40
1.0
 10
7.2690442158
 20
35.6396019908
 30
0.0
 10
7.2652313519
 20
35.6418032997
 30
0.0
 10
7.2502006083
 20
35.6512836956
 30
0.0
 10
7.2367084201
 20
35.6631682813
 30
0.0
 10
7.2277275882
 20
35.6730580329
 30
0.0
  0
SPLINE
  5
2C5
100
AcDbEntity
  8
0
100
AcDbSpline
 62
7
  6
BYLAYER
 70
0
 71
3
 72
11
 73
7
 74
0
 42
0.0000001
 43
0.0000001
 44
0.0000000001
 40
0.0
 40
0.0
 40
0.0
 40
0.0
 40
0.2204811851
 40
0.4585513024
 40
0.7182988434
 40
1.0
 40
1.0
 40
1.0
 40
1.0
 10
7.2277275882
 20
35.6730580329
 30
0.0
 10
7.2173806779
 20
35.684452119
 30
0.0
 10
7.1988328756
 20
35.7109580425
 30
0.0
 10
7.1794241948
 20
35.7575246326
 30
0.0
 10
7.1678651509
 20
35.8109491078
 30
0.0
 10
7.1654764411
 20
35.8488103652
 30
0.0
 10
7.1654764411
 20
35.8684749477
 30
0.0
  0
SPLINE
  5
2C6
100
AcDbEntity
  8
0
100
AcDbSpline
 62
7
  6
BYLAYER
 70
0
 71
3
 72
13
 73
9
 74
0
 42
0.0000001
 43
0.0000001
 44
0.0000000001
 40
0.0
 40
0.0
 40
0.0
 40
0.0
 40
0.1127272232
 40
0.2297923542
 40
0.3508163143
 40
0.4754370352
 40
0.7335145933
 40
1.0
 40
1.0
 40
1.0
 40
1.0
 10
39.1620943531
 20
46.4627779613
 30
0.0
 10
38.8905584296
 20
46.3060075585
 30
0.0
 10
38.3252968552
 20
46.0064214995
 30
0.0
 10
37.4345178911
 20
45.6066500407
 30
0.0
 10
36.4900152247
 20
45.2503710285
 30
0.0
 10
35.1522718841
 20
44.8317541044
 30
0.0
 10
33.3872014642
 20
44.4349445911
 30
0.0
 10
31.9363436817
 20
44.2577839502
 30
0.0
 10
31.1971788024
 20
44.2027753918
 30
0.0
  0
SPLINE
  5
2C7
100
AcDbEntity
  8
0
100
AcDbSpline
 62
7
  6
BYLAYER
 70
0
 71
3
 72
14
 73
10
 74
0
 42
0.0000001
 43
0.0000001
 44
0.0000000001
 40
0.0
 40
0.0
 40
0.0
 40
0.0
 40
0.1079557862
 40
0.2193178129
 40
0.3350589545
 40
0.4560138352
 40
0.7153510608
 40
0.8545632634
 40
1.0
 40
1.0
 40
1.0
 40
1.0
 10
43.0765232676
 20
51.0612771768
 30
0.0
 10
43.0278529583
 20
50.8432703891
 30
0.0
 10
42.8978008864
 20
50.4068005782
 30
0.0
 10
42.613897939
 20
49.7724078934
 30
0.0
 10
42.2408703613
 20
49.1543609942
 30
0.0
 10
41.6143356528
 20
48.3392435118
 30
0.0
 10
40.8290969646
 20
47.5941707131
 30
0.0
 10
39.9228411557
 20
46.9256892698
 30
0.0
 10
39.4227044818
 20
46.6132403911
 30
0.0
 10
39.1620943531
 20
46.4627779613
 30
0.0
  0
SPLINE
  5
2C8
100
AcDbEntity
  8
0
100
AcDbSpline
 62
7
  6
BYLAYER
 70
0
 71
3
 72
11
 73
7
 74
0
 42
0.0000001
 43
0.0000001
 44
0.0000000001
 40
0.0
 40
0.0
 40
0.0
 40
0.0
 40
0.2177498853
 40
0.4508926472
 40
0.710464091
 40
1.0
 40
1.0
 40
1.0
 40
1.0
 10
30.3965209428
 20
23.3923845573
 30
0.0
 10
30.4130115658
 20
23.401905368
 30
0.0
 10
30.4438965606
 20
23.4278113564
 30
0.0
 10
30.4767478863
 20
23.481554347
 30
0.0
 10
30.4962241142
 20
23.5477601092
 30
0.0
 10
30.5000885391
 20
23.5959381922
 30
0.0
 10
30.5000885391
 20
23.6212574111
 30
0.0
  0
SPLINE
  5
2C9
100
AcDbEntity
  8
0
100
AcDbSpline
 62
7
  6
BYLAYER
 70
0
 71
3
 72
13
 73
9
 74
0
 42
0.0000001
 43
0.0000001
 44
0.0000000001
 40
0.0
 40
0.0
 40
0.0
 40
0.0
 40
0.1081043533
 40
0.2182399706
 40
0.3322418251
 40
0.4516674016
 40
0.7106957836
 40
1.0
 40
1.0
 40
1.0
 40
1.0
 10
52.1525390678
 20
36.480943159
 30
0.0
 10
52.1525390664
 20
36.4525444038
 30
0.0
 10
52.1475772961
 20
36.395100123
 30
0.0
 10
52.1255793304
 20
36.3102583404
 30
0.0
 10
52.0892718097
 20
36.2272377199
 30
0.0
 10
52.020512937
 20
36.1171890834
 30
0.0
 10
51.8983978874
 20
35.9887630793
 30
0.0
 10
51.7790212741
 20
35.9065816203
 30
0.0
 10
51.7132036555
 20
35.8685820273
 30
0.0
  0
SPLINE
  5
2CA
100
AcDbEntity
  8
0
100
AcDbSpline
 62
7
  6
BYLAYER
 70
0
 71
3
 72
15
 73
11
 74
0
 42
0.0000001
 43
0.0000001
 44
0.0000000001
 40
0.0
 40
0.0
 40
0.0
 40
0.0
 40
0.1141236058
 40
0.2373475862
 40
0.3669728832
 40
0.5000004526
 40
0.6330279586
 40
0.7626530685
 40
0.8858767805
 40
1.0
 40
1.0
 40
1.0
 40
1.0
 10
28.3787681955
 20
35.4605373605
 30
0.0
 10
28.4513589801
 20
35.4186279996
 30
0.0
 10
28.6101614095
 20
35.3447167112
 30
0.0
 10
28.8687020301
 20
35.2660866541
 30
0.0
 10
29.1486600094
 20
35.2177464396
 30
0.0
 10
29.4394300099
 20
35.2013984891
 30
0.0
 10
29.7301997974
 20
35.2177477865
 30
0.0
 10
30.010157169
 20
35.2660893101
 30
0.0
 10
30.268696765
 20
35.3447206272
 30
0.0
 10
30.4274983025
 20
35.418632717
 30
0.0
 10
30.5000885391
 20
35.4605424595
 30
0.0
  0
SPLINE
  5
2CB
100
AcDbEntity
  8
0
100
AcDbSpline
 62
7
  6
BYLAYER
 70
0
 71
3
 72
22
 73
18
 74
0
 42
0.0000001
 43
0.0000001
 44
0.0000000001
 40
0.0
 40
0.0
 40
0.0
 40
0.0
 40
0.062381819
 40
0.1287711536
 40
0.1983767448
 40
0.270373488
 40
0.4173890991
 40
0.490433548
 40
0.5617415043
 40
0.6303610233
 40
0.6954679348
 40
0.7564347634
 40
0.8128902258
 40
0.8648051613
 40
0.9125944043
 40
0.9571819392
 40
1.0
 40
1.0
 40
1.0
 40
1.0
 10
27.9191203785
 20
39.4000759387
 30
0.0
 10
27.9963410604
 20
39.444659054
 30
0.0
 10
28.1619069312
 20
39.52625548
 30
0.0
 10
28.4289207607
 20
39.6230560071
 30
0.0
 10
28.7175477359
 20
39.6963179642
 30
0.0
 10
29.1254114832
 20
39.7609361753
 30
0.0
 10
29.5451507509
 20
39.7725287052
 30
0.0
 10
29.9599553315
 20
39.7312883301
 30
0.0
 10
30.259495068
 20
39.6746001196
 30
0.0
 10
30.5415464592
 20
39.5933248661
 30
0.0
 10
30.8001737777
 20
39.4891155763
 30
0.0
 10
31.0299500642
 20
39.3641517285
 30
0.0
 10
31.2260600882
 20
39.2208633686
 30
0.0
 10
31.3843033385
 20
39.061926871
 30
0.0
 10
31.5010751342
 20
38.89019361
 30
0.0
 10
31.5730379419
 20
38.7090291037
 30
0.0
 10
31.5893889462
 20
38.5835611199
 30
0.0
 10
31.5893905073
 20
38.5223583169
 30
0.0
  0
SPLINE
  5
2CC
100
AcDbEntity
  8
0
100
AcDbSpline
 62
7
  6
BYLAYER
 70
0
 71
3
 72
11
 73
7
 74
0
 42
0.0000001
 43
0.0000001
 44
0.0000000001
 40
0.0
 40
0.0
 40
0.0
 40
0.0
 40
0.2816911969
 40
0.541437184
 40
0.7795123782
 40
1.0
 40
1.0
 40
1.0
 40
1.0
 10
51.7132036555
 20
35.8685820273
 30
0.0
 10
51.7132036555
 20
35.848923292
 30
0.0
 10
51.7108162949
 20
35.8110728044
 30
0.0
 10
51.6992641649
 20
35.757662144
 30
0.0
 10
51.6798672195
 20
35.7111045172
 30
0.0
 10
51.6613304633
 20
35.6846006015
 30
0.0
 10
51.6509894126
 20
35.6732060356
 30
0.0
  0
SPLINE
  5
2CD
100
AcDbEntity
  8
0
100
AcDbSpline
 62
7
  6
BYLAYER
 70
0
 71
3
 72
9
 73
5
 74
0
 42
0.0000001
 43
0.0000001
 44
0.0000000001
 40
0.0
 40
0.0
 40
0.0
 40
0.0
 40
0.2538740093
 40
1.0
 40
1.0
 40
1.0
 40
1.0
 10
51.6509894126
 20
35.6732060356
 30
0.0
 10
51.6479559778
 20
35.6698635635
 30
0.0
 10
51.6355267409
 20
35.657143117
 30
0.0
 10
51.621124516
 20
35.6463419988
 30
0.0
 10
51.6096360593
 20
35.6397091734
 30
0.0
  0
SPLINE
  5
2CE
100
AcDbEntity
  8
0
100
AcDbSpline
 62
7
  6
BYLAYER
 70
0
 71
3
 72
9
 73
5
 74
0
 42
0.0000001
 43
0.0000001
 44
0.0000000001
 40
0.0
 40
0.0
 40
0.0
 40
0.0
 40
0.5048540024
 40
1.0
 40
1.0
 40
1.0
 40
1.0
 10
27.6816060164
 20
44.2027669414
 30
0.0
 10
27.1446731699
 20
44.2427227929
 30
0.0
 10
26.083518913
 20
44.3585061516
 30
0.0
 10
25.0331834028
 20
44.5495073409
 30
0.0
 10
24.5175957816
 20
44.6636171086
 30
0.0
  0
SPLINE
  5
2CF
100
AcDbEntity
  8
0
100
AcDbSpline
 62
7
  6
BYLAYER
 70
0
 71
3
 72
18
 73
14
 74
0
 42
0.0000001
 43
0.0000001
 44
0.0000000001
 40
0.0
 40
0.0
 40
0.0
 40
0.0
 40
0.1529761259
 40
0.2992862772
 40
0.4376337169
 40
0.5671296928
 40
0.687396211
 40
0.7441701408
 40
0.7988020927
 40
0.8514540564
 40
0.9023536106
 40
0.9517710828
 40
1.0
 40
1.0
 40
1.0
 40
1.0
 10
24.5175957816
 20
44.6636171086
 30
0.0
 10
23.9523535209
 20
44.7887164329
 30
0.0
 10
22.8559679735
 20
45.0796089099
 30
0.0
 10
21.2982367626
 20
45.6491355957
 30
0.0
 10
19.8851097461
 20
46.3340698082
 30
0.0
 10
18.6418426317
 20
47.1225017266
 30
0.0
 10
17.7484904295
 20
47.8694161672
 30
0.0
 10
17.1456470732
 20
48.5071735868
 30
0.0
 10
16.7575542458
 20
48.9927935414
 30
0.0
 10
16.4267611437
 20
49.4927465428
 30
0.0
 10
16.1547924531
 20
50.004881311
 30
0.0
 10
15.9431816252
 20
50.5267553817
 30
0.0
 10
15.8419332256
 20
50.8830806443
 30
0.0
 10
15.8021626339
 20
51.0612116173
 30
0.0
  0
SPLINE
  5
2D0
100
AcDbEntity
  8
0
100
AcDbSpline
 62
7
  6
BYLAYER
 70
0
 71
3
 72
12
 73
8
 74
0
 42
0.0000001
 43
0.0000001
 44
0.0000000001
 40
0.0
 40
0.0
 40
0.0
 40
0.0
 40
0.1108757426
 40
0.228378641
 40
0.4783208182
 40
0.7396326963
 40
1.0
 40
1.0
 40
1.0
 40
1.0
 10
10.948486975
 20
49.1978540472
 30
0.0
 10
11.0186788702
 20
49.2383791149
 30
0.0
 10
11.1683502086
 20
49.3132390739
 30
0.0
 10
11.4957480168
 20
49.4372665831
 30
0.0
 10
11.9465340088
 20
49.5391742633
 30
0.0
 10
12.511365286
 20
49.5757247264
 30
0.0
 10
12.8931332479
 20
49.5422187017
 30
0.0
 10
13.0807280967
 20
49.5100720746
 30
0.0
  0
ENDSEC
  0
SECTION
  2
OBJECTS
  0
DICTIONARY
  5
C
100
AcDbDictionary
280
0
281
1
  3
ACAD_GROUP
350
D
  3
ACAD_MLINESTYLE
350
17
  3
ACAD_LAYOUT
350
1A
  3
ACAD_PLOTSETTINGS
350
19
  3
ACAD_PLOTSTYLENAME
350
E
  0
DICTIONARY
  5
D
102
{ACAD_REACTORS
330
C
102
}
100
AcDbDictionary
280
0
281
1
  0
ACDBDICTIONARYWDFLT
  5
E
102
{ACAD_REACTORS
330
C
102
}
100
AcDbDictionary
281
1
  3
Normal
350
F
100
AcDbDictionaryWithDefault
340
F
  0
DICTIONARY
  5
17
102
{ACAD_REACTORS
330
C
102
}
100
AcDbDictionary
280
0
281
1
  3
Standard
350
18
  0
DICTIONARY
  5
19
102
{ACAD_REACTORS
330
C
102
}
100
AcDbDictionary
281
1
  0
DICTIONARY
  5
1A
102
{ACAD_REACTORS
330
C
102
}
100
AcDbDictionary
281
1
  3
Model
350
2D1
  3
Layout1
350
2D2
  0
ACDBPLACEHOLDER
  5
F
102
{ACAD_REACTORS
330
E
102
}
  0
MLINESTYLE
  5
18
102
{ACAD_REACTORS
330
17
102
}
100
AcDbMlineStyle
  2
STANDARD
 70
0
  3

 62
256
 51
90.0
 52
90.0
 71
2
 49
0.5
 62
256
  6
BYLAYER
 49
-0.5
 62
256
  6
BYLAYER
  0
LAYOUT
  5
2D1
102
{ACAD_REACTORS
330
1A
102
}
100
AcDbPlotSettings
  1

  2
none_device
  4

  6

 40
0.0
 41
0.0
 42
0.0
 43
0.0
 44
210.0
 45
297.0
 46
0.0
 47
0.0
 48
0.0
 49
0.0
140
0.0
141
0.0
142
1.0
143
1.0
 70
1024
 72
1
 73
0
 74
0
  7

 75
0
147
1.0
148
0.0
149
0.0
100
AcDbLayout
  1
Model
 70
0
 71
0
 10
0.0
 20
0.0
 11
210.0
 21
297.0
 12
0.0
 22
0.0
 32
0.0
 14
0.0
 24
0.0
 34
0.0
 15
0.0
 25
0.0
 35
0.0
146
0.0
 13
0.0
 23
0.0
 33
0.0
 16
1.0
 26
0.0
 36
0.0
 17
0.0
 27
1.0
 37
0.0
 76
0
330
210
345
0
346
0
  0
LAYOUT
  5
2D2
102
{ACAD_REACTORS
330
1A
102
}
100
AcDbPlotSettings
  1

  2
none_device
  4

  6

 40
0.0
 41
0.0
 42
0.0
 43
0.0
 44
210.0
 45
297.0
 46
0.0
 47
0.0
 48
0.0
 49
0.0
140
0.0
141
0.0
142
1.0
143
1.0
 70
0
 72
1
 73
0
 74
0
  7

 75
0
147
1.0
148
0.0
149
0.0
100
AcDbLayout
  1
Layout1
 70
0
 71
1
 10
0.0
 20
0.0
 11
210.0
 21
297.0
 12
0.0
 22
0.0
 32
0.0
 14
0.0
 24
0.0
 34
0.0
 15
0.0
 25
0.0
 35
0.0
146
0.0
 13
0.0
 23
0.0
 33
0.0
 16
1.0
 26
0.0
 36
0.0
 17
0.0
 27
1.0
 37
0.0
 76
0
330
211
345
0
346
0
  0
ENDSEC
  0
EOF
