999
DXF file: C:\Users\sesa63760\Dev\_Creo\CAD\MCADID0004898_3D-CAD\drw0001_4.dxf
999
Pro/ENGINEER 2019471 by Parametric Technology Corporation
  0
SECTION
  2
HEADER
  9
$ACADVER
  1
AC1024
  9
$DWGCODEPAGE
  3
ANSI_1252
  9
$EXTMAX
 10
486.4187783028
 20
687.9351293139
 30
0.0
  9
$EXTMIN
 10
0.0
 20
0.0
 30
0.0
  9
$LIMMIN
 10
0.0
 20
0.0
  9
$LIMMAX
 10
486.4187783028
 20
687.9351293139
  9
$VIEWCTR
 10
243.2093891514
 20
343.967564657
  9
$VIEWSIZE
 40
687.9351293139
  9
$CLAYER
  8
0
  9
$LTSCALE
 40
44.8431787997
  9
$CELTYPE
  6
BYLAYER
  9
$DIMSCALE
 40
1.0
  9
$DIMASZ
 40
5.7906997417
  9
$DIMEXO
 40
1.0
  9
$DIMDLI
 40
30.982559898
  9
$DIMEXE
 40
1.0
  9
$DIMCEN
 40
7.3379747127
  9
$DIMLFAC
 40
1.0
  9
$DIMBLK
  1
_FILLED
  9
$DIMALT
 70
0
  9
$DIMALTF
 40
0.0393700787
  9
$DIMTXT
 40
8.1069796384
  9
$DIMTOL
 70
1
  9
$DIMLIM
 70
0
  9
$DIMTFAC
 40
1.0
  9
$DIMTP
 40
0.01
  9
$DIMTM
 40
0.01
  9
$DIMGAP
 40
0.625
  9
$DIMDSEP
 70
46
  9
$AUNITS
 70
0
  9
$PDMODE
 70
3
  9
$PDSIZE
 40
0.3125
  9
$HANDSEED
  5
37E
  9
$TILEMODE
 70
1
  9
$MEASUREMENT
 70
1
  9
$INSUNITS
 70
4
  0
ENDSEC
  0
SECTION
  2
CLASSES
  0
CLASS
  1
ACDBDICTIONARYWDFLT
  2
AcDbDictionaryWithDefault
  3
AutoCAD 2000
 90
0
 91
1
280
0
281
0
  0
CLASS
  1
ACDBPLACEHOLDER
  2
AcDbPlaceHolder
  3
AutoCAD 2000
 90
0
 91
1
280
0
281
0
  0
CLASS
  1
LAYOUT
  2
AcDbLayout
  3
AutoCAD 2000
 90
0
 91
0
280
0
281
0
  0
ENDSEC
  0
SECTION
  2
TABLES
  0
TABLE
  2
VPORT
  5
8
100
AcDbSymbolTable
 70
2
  0
VPORT
  5
1F4
100
AcDbSymbolTableRecord
100
AcDbViewportTableRecord
  2
*ACTIVE
 70
0
 10
0.0
 20
0.0
 11
1.0
 21
1.0
 12
243.2093891514
 22
343.967564657
 13
0.0
 23
0.0
 14
1.0
 24
1.0
 15
0.0
 25
0.0
 16
0.0
 26
0.0
 36
1.0
 17
0.0
 27
0.0
 37
0.0
 40
687.9351293139
 41
0.7070707071
 42
50.0
 43
0.0
 44
0.0
 50
0.0
 51
0.0
 71
0
 72
100
 73
1
 74
1
 75
0
 76
0
 77
0
 78
0
  0
ENDTAB
  0
TABLE
  2
LTYPE
  5
5
100
AcDbSymbolTable
 70
6
  0
LTYPE
  5
14
100
AcDbSymbolTableRecord
100
AcDbLinetypeTableRecord
  2
BYBLOCK
 70
0
  3

 72
65
 73
0
 40
0.0
  0
LTYPE
  5
15
100
AcDbSymbolTableRecord
100
AcDbLinetypeTableRecord
  2
BYLAYER
 70
0
  3

 72
65
 73
0
 40
0.0
  0
LTYPE
  5
16
100
AcDbSymbolTableRecord
100
AcDbLinetypeTableRecord
  2
CONTINUOUS
 70
64
  3
Solid line
 72
65
 73
0
 40
0.0
  0
LTYPE
  5
1F5
100
AcDbSymbolTableRecord
100
AcDbLinetypeTableRecord
  2
CENTER
 70
64
  3
____ _ ____ _ ____ _ ____ _ ____ _ ____ _ ____
 72
65
 73
4
 40
0.6
 49
0.375
 74
0
 49
-0.075
 74
0
 49
0.075
 74
0
 49
-0.075
 74
0
  0
LTYPE
  5
1F6
100
AcDbSymbolTableRecord
100
AcDbLinetypeTableRecord
  2
HIDDEN
 70
64
  3
- - - - - - - - - - - - - - - - - - - -
 72
65
 73
2
 40
0.2
 49
0.1
 74
0
 49
-0.1
 74
0
  0
LTYPE
  5
1F7
100
AcDbSymbolTableRecord
100
AcDbLinetypeTableRecord
  2
PHANTOM
 70
64
  3
_____ _ _ _____ _ _ _____ _ _ _____
 72
65
 73
6
 40
0.8
 49
0.45
 74
0
 49
-0.05
 74
0
 49
0.1
 74
0
 49
-0.05
 74
0
 49
0.1
 74
0
 49
-0.05
 74
0
  0
LTYPE
  5
1F8
100
AcDbSymbolTableRecord
100
AcDbLinetypeTableRecord
  2
DOT
 70
64
  3
. . . . . . . . . . . . . . . . . . . .
 72
65
 73
2
 40
0.2
 49
0.1
 74
0
 49
-0.1
 74
0
  0
LTYPE
  5
1F9
100
AcDbSymbolTableRecord
100
AcDbLinetypeTableRecord
  2
DASHED
 70
64
  3
- - - - - - - - - - - - - - - - - - - -
 72
65
 73
2
 40
0.2
 49
0.1
 74
0
 49
-0.1
 74
0
  0
ENDTAB
  0
TABLE
  2
LAYER
  5
2
100
AcDbSymbolTable
 70
36
  0
LAYER
  5
10
100
AcDbSymbolTableRecord
100
AcDbLayerTableRecord
  2
0
 70
0
 62
7
  6
CONTINUOUS
370
-3
390
F
  0
LAYER
  5
1FA
100
AcDbSymbolTableRecord
100
AcDbLayerTableRecord
  2
DEFAULT_1
 70
0
 62
7
  6
CENTER
370
-3
390
F
  0
LAYER
  5
1FB
100
AcDbSymbolTableRecord
100
AcDbLayerTableRecord
  2
DEFAULT_2
 70
0
 62
7
  6
HIDDEN
370
-3
390
F
  0
LAYER
  5
1FC
100
AcDbSymbolTableRecord
100
AcDbLayerTableRecord
  2
DEFAULT_3
 70
0
 62
7
  6
PHANTOM
370
-3
390
F
  0
LAYER
  5
1FD
100
AcDbSymbolTableRecord
100
AcDbLayerTableRecord
  2
00_COMPONENTS
 70
0
 62
7
  6
CONTINUOUS
370
-3
390
F
  0
LAYER
  5
1FE
100
AcDbSymbolTableRecord
100
AcDbLayerTableRecord
  2
01_1_DEFAULT_DATUMS
 70
0
 62
7
  6
CONTINUOUS
370
-3
390
F
  0
LAYER
  5
1FF
100
AcDbSymbolTableRecord
100
AcDbLayerTableRecord
  2
01_PLANES
 70
0
 62
7
  6
CONTINUOUS
370
-3
390
F
  0
LAYER
  5
200
100
AcDbSymbolTableRecord
100
AcDbLayerTableRecord
  2
02_COORD_SYS
 70
0
 62
7
  6
CONTINUOUS
370
-3
390
F
  0
LAYER
  5
201
100
AcDbSymbolTableRecord
100
AcDbLayerTableRecord
  2
03_AXES
 70
0
 62
7
  6
CONTINUOUS
370
-3
390
F
  0
LAYER
  5
202
100
AcDbSymbolTableRecord
100
AcDbLayerTableRecord
  2
04_POINTS
 70
0
 62
7
  6
CONTINUOUS
370
-3
390
F
  0
LAYER
  5
203
100
AcDbSymbolTableRecord
100
AcDbLayerTableRecord
  2
05_CURVES
 70
0
 62
7
  6
CONTINUOUS
370
-3
390
F
  0
LAYER
  5
204
100
AcDbSymbolTableRecord
100
AcDbLayerTableRecord
  2
06_SURFS
 70
0
 62
7
  6
CONTINUOUS
370
-3
390
F
  0
LAYER
  5
205
100
AcDbSymbolTableRecord
100
AcDbLayerTableRecord
  2
07_COSMETICS
 70
0
 62
7
  6
CONTINUOUS
370
-3
390
F
  0
LAYER
  5
206
100
AcDbSymbolTableRecord
100
AcDbLayerTableRecord
  2
10_NOTES
 70
0
 62
7
  6
CONTINUOUS
370
-3
390
F
  0
LAYER
  5
207
100
AcDbSymbolTableRecord
100
AcDbLayerTableRecord
  2
11_NOTES_PUB
 70
0
 62
7
  6
CONTINUOUS
370
-3
390
F
  0
LAYER
  5
208
100
AcDbSymbolTableRecord
100
AcDbLayerTableRecord
  2
13_REF_GTOL
 70
0
 62
7
  6
CONTINUOUS
370
-3
390
F
  0
LAYER
  5
209
100
AcDbSymbolTableRecord
100
AcDbLayerTableRecord
  2
16_MISC
 70
0
 62
7
  6
CONTINUOUS
370
-3
390
F
  0
LAYER
  5
20A
100
AcDbSymbolTableRecord
100
AcDbLayerTableRecord
  2
17_NO_PRINT
 70
0
 62
7
  6
CONTINUOUS
370
-3
390
F
  0
LAYER
  5
20B
100
AcDbSymbolTableRecord
100
AcDbLayerTableRecord
  2
18_DATUM_CAMS_JOINTS
 70
0
 62
7
  6
CONTINUOUS
370
-3
390
F
  0
LAYER
  5
20C
100
AcDbSymbolTableRecord
100
AcDbLayerTableRecord
  2
19_DATUM_FUNCTIONAL
 70
0
 62
7
  6
CONTINUOUS
370
-3
390
F
  0
LAYER
  5
20D
100
AcDbSymbolTableRecord
100
AcDbLayerTableRecord
  2
20_DATUM_KINEMATIC_SCHEME
 70
0
 62
7
  6
CONTINUOUS
370
-3
390
F
  0
ENDTAB
  0
TABLE
  2
STYLE
  5
3
100
AcDbSymbolTable
 70
1
  0
STYLE
  5
11
100
AcDbSymbolTableRecord
100
AcDbTextStyleTableRecord
  2
STANDARD
 70
0
 40
0.0
 41
1.0
 50
0.0
 71
0
 42
0.2
  3
ARIAL.TTF
  4

  0
STYLE
  5
20E
100
AcDbSymbolTableRecord
100
AcDbTextStyleTableRecord
  2
TEXTSTYLE_1
 70
0
 40
0.0
 41
0.8
 50
0.0
 71
0
 42
0.2
  3
gdt
  4

  0
ENDTAB
  0
TABLE
  2
VIEW
  5
6
100
AcDbSymbolTable
 70
0
  0
ENDTAB
  0
TABLE
  2
UCS
  5
7
100
AcDbSymbolTable
 70
0
  0
ENDTAB
  0
TABLE
  2
APPID
  5
9
100
AcDbSymbolTable
 70
1
  0
APPID
  5
20F
100
AcDbSymbolTableRecord
100
AcDbRegAppTableRecord
  2
ACAD
 70
0
  0
ENDTAB
  0
TABLE
  2
BLOCK_RECORD
  5
1
100
AcDbSymbolTable
 70
0
  0
BLOCK_RECORD
  5
210
100
AcDbSymbolTableRecord
100
AcDbBlockTableRecord
  2
*Model_Space
  0
BLOCK_RECORD
  5
211
100
AcDbSymbolTableRecord
100
AcDbBlockTableRecord
  2
*Paper_Space
  0
BLOCK_RECORD
  5
212
100
AcDbSymbolTableRecord
100
AcDbBlockTableRecord
  2
_FILLED
  0
ENDTAB
  0
TABLE
  2
DIMSTYLE
  5
A
100
AcDbSymbolTable
 70
1
100
AcDbDimStyleTable
 71
0
  0
DIMSTYLE
105
213
100
AcDbSymbolTableRecord
100
AcDbDimStyleTableRecord
  2
STANDARD
 70
0
  3

  4

 40
1.0
 41
5.7906997417
 42
1.0
 43
0.38
 44
1.0
 45
0.0
 46
0.0
 47
0.01
 48
0.01
140
8.1069796384
141
0.09
142
0.0
143
25.4
144
1.0
145
0.0
146
1.0
147
0.625
 71
1
 72
0
 73
0
 74
0
 75
0
 76
0
 77
1
 78
8
 79
2
170
0
171
1
172
0
173
0
174
0
175
0
176
0
177
0
178
0
270
2
179
2
271
2
272
2
273
2
274
2
275
0
280
0
281
0
282
0
283
1
284
8
285
0
286
0
287
3
288
0
340
11
278
46
341
212
342
212
343
212
344
212
  0
ENDTAB
  0
ENDSEC
  0
SECTION
  2
BLOCKS
  0
BLOCK
  5
20
100
AcDbEntity
  8
0
100
AcDbBlockBegin
  2
*Model_Space
 70
0
 10
0.0
 20
0.0
 30
0.0
  3
*Model_Space
  1

  0
ENDBLK
  5
21
100
AcDbEntity
  8
0
100
AcDbBlockEnd
  0
BLOCK
  5
1C
100
AcDbEntity
  8
0
100
AcDbBlockBegin
  2
*Paper_Space
 70
0
 10
0.0
 20
0.0
 30
0.0
  3
*Paper_Space
  1

  0
ENDBLK
  5
1D
100
AcDbEntity
  8
0
100
AcDbBlockEnd
  0
BLOCK
  5
214
100
AcDbEntity
  8
0
100
AcDbBlockBegin
  2
_FILLED
 70
64
 10
0.0
 20
0.0
  3
_FILLED
  1

  0
SOLID
  5
215
100
AcDbEntity
  8
0
  6
BYBLOCK
 62
0
100
AcDbTrace
 10
0.0
 20
0.0
 11
-1.0
 21
0.25
 12
-1.0
 22
-0.25
 13
-1.0
 23
-0.25
  0
ENDBLK
  5
216
100
AcDbEntity
  8
0
  6
BYBLOCK
 62
0
100
AcDbBlockEnd
  0
ENDSEC
  0
SECTION
  2
ENTITIES
  0
LINE
  5
217
100
AcDbEntity
  8
0
100
AcDbLine
 62
7
  6
BYLAYER
 10
54.1745831163
 20
483.4202837733
 11
54.4917726036
 21
483.9453105153
  0
LINE
  5
218
100
AcDbEntity
  8
0
100
AcDbLine
 62
7
  6
BYLAYER
 10
56.9917726036
 20
197.2796894891
 11
57.4722027043
 21
196.9625000015
  0
LINE
  5
219
100
AcDbEntity
  8
0
100
AcDbLine
 62
7
  6
BYLAYER
 10
54.1745831163
 20
200.260119589
 11
54.4917726036
 21
199.7796894896
  0
LINE
  5
21A
100
AcDbEntity
  8
0
100
AcDbLine
 62
7
  6
BYLAYER
 10
57.5167993455
 20
486.7625000027
 11
56.9917726044
 21
486.4453105158
  0
LINE
  5
21B
100
AcDbEntity
  8
0
100
AcDbLine
 62
7
  6
BYLAYER
 10
54.1745831159
 20
200.2601195945
 11
54.1745831159
 21
483.420283767
  0
LINE
  5
21C
100
AcDbEntity
  8
0
100
AcDbLine
 62
7
  6
BYLAYER
 10
54.4917726036
 20
199.7796894896
 11
54.4917726036
 21
483.9453105153
  0
LINE
  5
21D
100
AcDbEntity
  8
0
100
AcDbLine
 62
7
  6
BYLAYER
 10
57.1745831169
 20
201.4749922354
 11
57.1745831169
 21
482.2732147331
  0
LINE
  5
21E
100
AcDbEntity
  8
0
100
AcDbLine
 62
7
  6
BYLAYER
 10
57.3745831169
 20
202.1264908023
 11
57.3745831169
 21
481.5638013953
  0
LINE
  5
21F
100
AcDbEntity
  8
0
100
AcDbLine
 62
7
  6
BYLAYER
 10
103.6905987366
 20
465.9066406036
 11
104.6245831168
 21
469.5875000012
  0
LINE
  5
220
100
AcDbEntity
  8
0
100
AcDbLine
 62
7
  6
BYLAYER
 10
103.7351299933
 20
470.0222656354
 11
102.8995831163
 21
466.8875000017
  0
LINE
  5
221
100
AcDbEntity
  8
0
100
AcDbLine
 62
7
  6
BYLAYER
 10
95.8245831169
 20
472.5125000023
 11
95.8245831169
 21
463.5125000023
  0
LINE
  5
222
100
AcDbEntity
  8
0
100
AcDbLine
 62
7
  6
BYLAYER
 10
95.8245831169
 20
457.5125000023
 11
95.8245831169
 21
226.2125000013
  0
LINE
  5
223
100
AcDbEntity
  8
0
100
AcDbLine
 62
7
  6
BYLAYER
 10
100.1245831169
 20
465.5960937523
 11
100.1245831169
 21
470.1476562513
  0
LINE
  5
224
100
AcDbEntity
  8
0
100
AcDbLine
 62
7
  6
BYLAYER
 10
101.1745831166
 20
465.5996093839
 11
101.1745831172
 21
469.5875000013
  0
LINE
  5
225
100
AcDbEntity
  8
0
100
AcDbLine
 62
7
  6
BYLAYER
 10
104.6245831169
 20
465.5996093773
 11
104.6245831166
 21
469.5875000023
  0
LINE
  5
226
100
AcDbEntity
  8
0
100
AcDbLine
 62
7
  6
BYLAYER
 10
105.674583117
 20
465.5960937622
 11
105.6745831169
 21
470.1476562436
  0
LINE
  5
227
100
AcDbEntity
  8
0
100
AcDbLine
 62
7
  6
BYLAYER
 10
441.6440775707
 20
196.9625000013
 11
57.4722027047
 21
196.9625000013
  0
LINE
  5
228
100
AcDbEntity
  8
0
100
AcDbLine
 62
7
  6
BYLAYER
 10
442.0573936292
 20
197.2796894891
 11
56.9917726036
 21
197.2796894891
  0
LINE
  5
229
100
AcDbEntity
  8
0
100
AcDbLine
 62
7
  6
BYLAYER
 10
109.4995831159
 20
467.0375000013
 11
109.4995831159
 21
466.8957031273
  0
LINE
  5
22A
100
AcDbEntity
  8
0
100
AcDbLine
 62
7
  6
BYLAYER
 10
114.5644268679
 20
468.6875000023
 11
114.5644268679
 21
468.5363281283
  0
LINE
  5
22B
100
AcDbEntity
  8
0
100
AcDbLine
 62
7
  6
BYLAYER
 10
115.5745831169
 20
465.3488281283
 11
115.5745831169
 21
468.4789062523
  0
LINE
  5
22C
100
AcDbEntity
  8
0
100
AcDbLine
 62
7
  6
BYLAYER
 10
121.5745831169
 20
465.5949218773
 11
121.574583117
 21
470.2800781273
  0
LINE
  5
22D
100
AcDbEntity
  8
0
100
AcDbLine
 62
7
  6
BYLAYER
 10
258.461569313
 20
212.1198332325
 11
258.5678809435
 21
212.1315576623
  0
LINE
  5
22E
100
AcDbEntity
  8
0
100
AcDbLine
 62
7
  6
BYLAYER
 10
264.7743978893
 20
212.2165384252
 11
265.8828372641
 21
212.2424006602
  0
LINE
  5
22F
100
AcDbEntity
  8
0
100
AcDbLine
 62
7
  6
BYLAYER
 10
255.225026363
 20
212.2171124602
 11
256.3320680377
 21
212.2424006591
  0
LINE
  5
230
100
AcDbEntity
  8
0
100
AcDbLine
 62
7
  6
BYLAYER
 10
440.3684923907
 20
199.9625000023
 11
58.68707535
 21
199.9625000023
  0
LINE
  5
231
100
AcDbEntity
  8
0
100
AcDbLine
 62
7
  6
BYLAYER
 10
59.3385739169
 20
200.1625000023
 11
439.6380228039
 21
200.1625000023
  0
LINE
  5
232
100
AcDbEntity
  8
0
100
AcDbLine
 62
7
  6
BYLAYER
 10
250.1790359442
 20
212.1604556353
 11
250.5955756206
 21
212.1604556353
  0
LINE
  5
233
100
AcDbEntity
  8
0
100
AcDbLine
 62
7
  6
BYLAYER
 10
260.0286234087
 20
212.1604556353
 11
260.444822356
 21
212.1604556353
  0
LINE
  5
234
100
AcDbEntity
  8
0
100
AcDbLine
 62
7
  6
BYLAYER
 10
262.6711374825
 20
212.1604556353
 11
263.0876771581
 21
212.1604556353
  0
LINE
  5
235
100
AcDbEntity
  8
0
100
AcDbLine
 62
7
  6
BYLAYER
 10
247.2526956552
 20
212.162500003
 11
249.1091508064
 21
212.1625000036
  0
LINE
  5
236
100
AcDbEntity
  8
0
100
AcDbLine
 62
7
  6
BYLAYER
 10
242.4354867103
 20
212.3565444573
 11
241.32948443
 21
212.3565444573
  0
LINE
  5
237
100
AcDbEntity
  8
0
100
AcDbLine
 62
7
  6
BYLAYER
 10
249.1091508064
 20
212.5764842201
 11
247.7085893857
 21
212.5764842205
  0
LINE
  5
238
100
AcDbEntity
  8
0
100
AcDbLine
 62
7
  6
BYLAYER
 10
241.5213141542
 20
213.0845092963
 11
242.2319018791
 21
213.0845092963
  0
LINE
  5
239
100
AcDbEntity
  8
0
100
AcDbLine
 62
7
  6
BYLAYER
 10
245.362508456
 20
213.1071676923
 11
244.4726979329
 21
213.1071676923
  0
LINE
  5
23A
100
AcDbEntity
  8
0
100
AcDbLine
 62
7
  6
BYLAYER
 10
252.0814893431
 20
213.1562324883
 11
253.5655290632
 21
213.1562324883
  0
LINE
  5
23B
100
AcDbEntity
  8
0
100
AcDbLine
 62
7
  6
BYLAYER
 10
253.1500115718
 20
213.4344366973
 11
252.0891557174
 21
213.4344366973
  0
LINE
  5
23C
100
AcDbEntity
  8
0
100
AcDbLine
 62
7
  6
BYLAYER
 10
241.6194437469
 20
213.5097375303
 11
240.6548434838
 21
213.5097375303
  0
LINE
  5
23D
100
AcDbEntity
  8
0
100
AcDbLine
 62
7
  6
BYLAYER
 10
244.6083075784
 20
213.5654465183
 11
245.6485494031
 21
213.5654465183
  0
LINE
  5
23E
100
AcDbEntity
  8
0
100
AcDbLine
 62
7
  6
BYLAYER
 10
247.7085893861
 20
213.5732832553
 11
249.0205615912
 21
213.5732832553
  0
LINE
  5
23F
100
AcDbEntity
  8
0
100
AcDbLine
 62
7
  6
BYLAYER
 10
258.183241909
 20
213.9003818962
 11
258.8517497567
 21
213.9003818964
  0
LINE
  5
240
100
AcDbEntity
  8
0
100
AcDbLine
 62
7
  6
BYLAYER
 10
240.7950529517
 20
213.9690385383
 11
241.7765192396
 21
213.9690385383
  0
LINE
  5
241
100
AcDbEntity
  8
0
100
AcDbLine
 62
7
  6
BYLAYER
 10
249.020561591
 20
213.9879489282
 11
247.7085893863
 21
213.9879489284
  0
LINE
  5
242
100
AcDbEntity
  8
0
100
AcDbLine
 62
7
  6
BYLAYER
 10
245.8499195045
 20
214.0010669473
 11
244.7127406345
 21
214.0010669473
  0
LINE
  5
243
100
AcDbEntity
  8
0
100
AcDbLine
 62
7
  6
BYLAYER
 10
263.0876771588
 20
214.2756935143
 11
262.6711374825
 21
214.2756935143
  0
LINE
  5
244
100
AcDbEntity
  8
0
100
AcDbLine
 62
7
  6
BYLAYER
 10
260.4448223573
 20
214.2756935143
 11
260.0286234091
 21
214.2756935143
  0
LINE
  5
245
100
AcDbEntity
  8
0
100
AcDbLine
 62
7
  6
BYLAYER
 10
258.8517497569
 20
214.2756935143
 11
258.1832419088
 21
214.2756935143
  0
LINE
  5
246
100
AcDbEntity
  8
0
100
AcDbLine
 62
7
  6
BYLAYER
 10
257.361967773
 20
213.9047456777
 11
257.7682355085
 21
213.9003818964
  0
LINE
  5
247
100
AcDbEntity
  8
0
100
AcDbLine
 62
7
  6
BYLAYER
 10
258.2429473497
 20
212.1435691052
 11
258.461569313
 21
212.1198332325
  0
LINE
  5
248
100
AcDbEntity
  8
0
100
AcDbLine
 62
7
  6
BYLAYER
 10
122.6245831169
 20
465.5949218772
 11
122.6245831169
 21
470.2800781273
  0
LINE
  5
249
100
AcDbEntity
  8
0
100
AcDbLine
 62
7
  6
BYLAYER
 10
123.7495831169
 20
468.6488281282
 11
123.7495831169
 21
465.5878906262
  0
LINE
  5
24A
100
AcDbEntity
  8
0
100
AcDbLine
 62
7
  6
BYLAYER
 10
124.7995831179
 20
465.5878906256
 11
124.799583118
 21
468.6804687519
  0
LINE
  5
24B
100
AcDbEntity
  8
0
100
AcDbLine
 62
7
  6
BYLAYER
 10
133.8245831169
 20
463.5125000023
 11
133.8245831169
 21
472.5125000023
  0
LINE
  5
24C
100
AcDbEntity
  8
0
100
AcDbLine
 62
7
  6
BYLAYER
 10
241.8327393186
 20
214.4032960563
 11
241.0051116108
 21
214.4032960563
  0
LINE
  5
24D
100
AcDbEntity
  8
0
100
AcDbLine
 62
7
  6
BYLAYER
 10
244.8391506306
 20
214.4593457723
 11
245.9896178811
 21
214.4593457723
  0
LINE
  5
24E
100
AcDbEntity
  8
0
100
AcDbLine
 62
7
  6
BYLAYER
 10
241.3010336633
 20
214.8625970643
 11
241.9937331815
 21
214.8625970643
  0
LINE
  5
24F
100
AcDbEntity
  8
0
100
AcDbLine
 62
7
  6
BYLAYER
 10
245.141546509
 20
214.8644710683
 11
244.4575355488
 21
214.8644710683
  0
LINE
  5
250
100
AcDbEntity
  8
0
100
AcDbLine
 62
7
  6
BYLAYER
 10
247.7085893866
 20
214.9542528306
 11
249.0684338402
 21
214.95425283
  0
LINE
  5
251
100
AcDbEntity
  8
0
100
AcDbLine
 62
7
  6
BYLAYER
 10
249.0684338404
 20
215.3678963202
 11
247.2526956547
 21
215.3678963204
  0
LINE
  5
252
100
AcDbEntity
  8
0
100
AcDbLine
 62
7
  6
BYLAYER
 10
250.5955756206
 20
215.3687481403
 11
250.1790359448
 21
215.3687481403
  0
LINE
  5
253
100
AcDbEntity
  8
0
100
AcDbLine
 62
7
  6
BYLAYER
 10
244.153947123
 20
215.5340010983
 11
245.2863558034
 21
215.5340010983
  0
LINE
  5
254
100
AcDbEntity
  8
0
100
AcDbLine
 62
7
  6
BYLAYER
 10
253.2246309478
 20
216.0149383193
 11
254.3940085896
 21
216.0149383193
  0
LINE
  5
255
100
AcDbEntity
  8
0
100
AcDbLine
 62
7
  6
BYLAYER
 10
257.6481289768
 20
216.0161308673
 11
258.8176769817
 21
216.0161308673
  0
LINE
  5
256
100
AcDbEntity
  8
0
100
AcDbLine
 62
7
  6
BYLAYER
 10
264.948221043
 20
216.0200492363
 11
263.7773101257
 21
216.0200492365
  0
LINE
  5
257
100
AcDbEntity
  8
0
100
AcDbLine
 62
7
  6
BYLAYER
 10
248.4220732962
 20
216.0246490603
 11
247.2516734717
 21
216.0246490601
  0
LINE
  5
258
100
AcDbEntity
  8
0
100
AcDbLine
 62
7
  6
BYLAYER
 10
240.3998087613
 20
216.0258416083
 11
241.570208586
 21
216.0258416083
  0
LINE
  5
259
100
AcDbEntity
  8
0
100
AcDbLine
 62
7
  6
BYLAYER
 10
430.5244831179
 20
216.3625000033
 11
420.5244831179
 21
216.3625000033
  0
LINE
  5
25A
100
AcDbEntity
  8
0
100
AcDbLine
 62
7
  6
BYLAYER
 10
250.0976020117
 20
217.6792230193
 11
252.7719741297
 21
217.6792230193
  0
LINE
  5
25B
100
AcDbEntity
  8
0
100
AcDbLine
 62
7
  6
BYLAYER
 10
260.5242119223
 20
217.6792230193
 11
263.1975618578
 21
217.6792230193
  0
LINE
  5
25C
100
AcDbEntity
  8
0
100
AcDbLine
 62
7
  6
BYLAYER
 10
262.1668604103
 20
218.2966217043
 11
260.548573956
 21
218.2966217043
  0
LINE
  5
25D
100
AcDbEntity
  8
0
100
AcDbLine
 62
7
  6
BYLAYER
 10
251.7388875901
 20
218.2966217043
 11
250.1226455035
 21
218.2966217043
  0
LINE
  5
25E
100
AcDbEntity
  8
0
100
AcDbLine
 62
7
  6
BYLAYER
 10
420.5244831179
 20
218.3625000033
 11
430.5244831179
 21
218.3625000033
  0
LINE
  5
25F
100
AcDbEntity
  8
0
100
AcDbLine
 62
7
  6
BYLAYER
 10
254.3940085896
 20
219.7428406422
 11
253.2246309478
 21
219.7428406424
  0
LINE
  5
260
100
AcDbEntity
  8
0
100
AcDbLine
 62
7
  6
BYLAYER
 10
245.8514527794
 20
219.7428406442
 11
244.6812233174
 21
219.7428406444
  0
LINE
  5
261
100
AcDbEntity
  8
0
100
AcDbLine
 62
7
  6
BYLAYER
 10
264.9482210431
 20
219.7467590133
 11
263.7773101264
 21
219.7467590133
  0
LINE
  5
262
100
AcDbEntity
  8
0
100
AcDbLine
 62
7
  6
BYLAYER
 10
258.8176769817
 20
221.5216098662
 11
257.6481289768
 21
221.5216098664
  0
LINE
  5
263
100
AcDbEntity
  8
0
100
AcDbLine
 62
7
  6
BYLAYER
 10
241.5702085861
 20
221.5216098682
 11
240.3998087617
 21
221.5216098684
  0
LINE
  5
264
100
AcDbEntity
  8
0
100
AcDbLine
 62
7
  6
BYLAYER
 10
276.5245831169
 20
225.1625000023
 11
222.5245831169
 21
225.1625000023
  0
LINE
  5
265
100
AcDbEntity
  8
0
100
AcDbLine
 62
7
  6
BYLAYER
 10
95.8245831169
 20
226.2125000023
 11
403.2245831159
 21
226.2125000023
  0
LINE
  5
266
100
AcDbEntity
  8
0
100
AcDbLine
 62
7
  6
BYLAYER
 10
417.7948672151
 20
229.3125000023
 11
433.208993676
 21
229.3125000023
  0
LINE
  5
267
100
AcDbEntity
  8
0
100
AcDbLine
 62
7
  6
BYLAYER
 10
258.0723918117
 20
212.208107044
 11
258.2429473497
 21
212.1435691052
  0
LINE
  5
268
100
AcDbEntity
  8
0
100
AcDbLine
 62
7
  6
BYLAYER
 10
235.2594210625
 20
220.380860529
 11
235.9810809216
 21
220.0890200404
  0
LINE
  5
269
100
AcDbEntity
  8
0
100
AcDbLine
 62
7
  6
BYLAYER
 10
101.1745831172
 20
469.5875000013
 11
102.1085674882
 21
465.9066406446
  0
LINE
  5
26A
100
AcDbEntity
  8
0
100
AcDbLine
 62
7
  6
BYLAYER
 10
257.9395150902
 20
212.3094814347
 11
258.0723918117
 21
212.208107044
  0
LINE
  5
26B
100
AcDbEntity
  8
0
100
AcDbLine
 62
7
  6
BYLAYER
 10
102.8995831163
 20
466.8875000017
 11
102.05348936
 21
470.0222656476
  0
LINE
  5
26C
100
AcDbEntity
  8
0
100
AcDbLine
 62
7
  6
BYLAYER
 10
432.49196544
 20
272.0125000023
 11
418.5191669688
 21
272.0125000023
  0
LINE
  5
26D
100
AcDbEntity
  8
0
100
AcDbLine
 62
7
  6
BYLAYER
 10
257.8111272761
 20
212.5195347696
 11
257.9395150902
 21
212.3094814347
  0
LINE
  5
26E
100
AcDbEntity
  8
0
100
AcDbLine
 62
7
  6
BYLAYER
 10
218.5245831169
 20
221.1625000023
 11
218.5245831169
 21
200.1625000023
  0
LINE
  5
26F
100
AcDbEntity
  8
0
100
AcDbLine
 62
7
  6
BYLAYER
 10
232.1223391408
 20
216.4791798803
 11
232.1223391408
 21
217.6645717253
  0
LINE
  5
270
100
AcDbEntity
  8
0
100
AcDbLine
 62
7
  6
BYLAYER
 10
235.9810809216
 20
220.0890200404
 11
235.9810809217
 21
221.1623124553
  0
LINE
  5
271
100
AcDbEntity
  8
0
100
AcDbLine
 62
7
  6
BYLAYER
 10
239.859584912
 20
218.6995322703
 11
239.859584912
 21
219.5712842213
  0
LINE
  5
272
100
AcDbEntity
  8
0
100
AcDbLine
 62
7
  6
BYLAYER
 10
239.9164864465
 20
216.1980794854
 11
239.9164864462
 21
217.0406992153
  0
LINE
  5
273
100
AcDbEntity
  8
0
100
AcDbLine
 62
7
  6
BYLAYER
 10
240.3998087613
 20
216.0258416083
 11
240.3998087617
 21
221.5216098683
  0
LINE
  5
274
100
AcDbEntity
  8
0
100
AcDbLine
 62
7
  6
BYLAYER
 10
241.570208586
 20
216.0258416083
 11
241.570208586
 21
218.3875960144
  0
LINE
  5
275
100
AcDbEntity
  8
0
100
AcDbLine
 62
7
  6
BYLAYER
 10
241.570208586
 20
219.174102472
 11
241.5702085861
 21
221.5216098682
  0
LINE
  5
276
100
AcDbEntity
  8
0
100
AcDbLine
 62
7
  6
BYLAYER
 10
242.9581630802
 20
216.8277443703
 11
242.95816308
 21
218.1375018453
  0
LINE
  5
277
100
AcDbEntity
  8
0
100
AcDbLine
 62
7
  6
BYLAYER
 10
244.1285629051
 20
217.1996487093
 11
244.1285629056
 21
218.3875960147
  0
LINE
  5
278
100
AcDbEntity
  8
0
100
AcDbLine
 62
7
  6
BYLAYER
 10
244.6812233174
 20
219.7428406444
 11
244.6812233173
 21
217.2093594503
  0
LINE
  5
279
100
AcDbEntity
  8
0
100
AcDbLine
 62
7
  6
BYLAYER
 10
245.8514527785
 20
216.6759501576
 11
245.851452779
 21
218.4168986011
  0
LINE
  5
27A
100
AcDbEntity
  8
0
100
AcDbLine
 62
7
  6
BYLAYER
 10
245.8514527793
 20
219.2094313506
 11
245.8514527794
 21
219.7428406442
  0
LINE
  5
27B
100
AcDbEntity
  8
0
100
AcDbLine
 62
7
  6
BYLAYER
 10
247.2516734715
 20
218.2879331474
 11
247.2516734715
 21
216.0246490602
  0
LINE
  5
27C
100
AcDbEntity
  8
0
100
AcDbLine
 62
7
  6
BYLAYER
 10
247.2526956547
 20
215.3678963204
 11
247.2526956552
 21
212.162500003
  0
LINE
  5
27D
100
AcDbEntity
  8
0
100
AcDbLine
 62
7
  6
BYLAYER
 10
247.7085893857
 20
212.5764842205
 11
247.7085893861
 21
213.5732832553
  0
LINE
  5
27E
100
AcDbEntity
  8
0
100
AcDbLine
 62
7
  6
BYLAYER
 10
247.7085893863
 20
213.9879489284
 11
247.7085893866
 21
214.9542528306
  0
LINE
  5
27F
100
AcDbEntity
  8
0
100
AcDbLine
 62
7
  6
BYLAYER
 10
248.4220732962
 20
216.0246490604
 11
248.422073296
 21
218.384699828
  0
LINE
  5
280
100
AcDbEntity
  8
0
100
AcDbLine
 62
7
  6
BYLAYER
 10
249.0205615912
 20
213.5732832553
 11
249.020561591
 21
213.9879489282
  0
LINE
  5
281
100
AcDbEntity
  8
0
100
AcDbLine
 62
7
  6
BYLAYER
 10
249.0684338402
 20
214.95425283
 11
249.0684338404
 21
215.3678963202
  0
LINE
  5
282
100
AcDbEntity
  8
0
100
AcDbLine
 62
7
  6
BYLAYER
 10
249.1091508064
 20
212.1625000036
 11
249.1091508064
 21
212.5764842201
  0
LINE
  5
283
100
AcDbEntity
  8
0
100
AcDbLine
 62
7
  6
BYLAYER
 10
250.1790359448
 20
215.3687481403
 11
250.1790359442
 21
212.1604556353
  0
LINE
  5
284
100
AcDbEntity
  8
0
100
AcDbLine
 62
7
  6
BYLAYER
 10
250.5955756206
 20
212.1604556353
 11
250.5955756206
 21
215.3687481403
  0
LINE
  5
285
100
AcDbEntity
  8
0
100
AcDbLine
 62
7
  6
BYLAYER
 10
257.7682355084
 20
212.7839874203
 11
257.8111272761
 21
212.5195347696
  0
LINE
  5
286
100
AcDbEntity
  8
0
100
AcDbLine
 62
7
  6
BYLAYER
 10
252.7063840386
 20
216.4422109193
 11
252.7063840386
 21
217.1700053953
  0
LINE
  5
287
100
AcDbEntity
  8
0
100
AcDbLine
 62
7
  6
BYLAYER
 10
253.2246309478
 20
219.7428406424
 11
253.2246309478
 21
216.0149383193
  0
LINE
  5
288
100
AcDbEntity
  8
0
100
AcDbLine
 62
7
  6
BYLAYER
 10
253.52890083
 20
212.3701735673
 11
253.52890083
 21
212.7758099543
  0
LINE
  5
289
100
AcDbEntity
  8
0
100
AcDbLine
 62
7
  6
BYLAYER
 10
254.3940085896
 20
216.0149383193
 11
254.3940085896
 21
219.7428406422
  0
LINE
  5
28A
100
AcDbEntity
  8
0
100
AcDbLine
 62
7
  6
BYLAYER
 10
256.2855586996
 20
213.7206480083
 11
256.2855586997
 21
214.1705790033
  0
LINE
  5
28B
100
AcDbEntity
  8
0
100
AcDbLine
 62
7
  6
BYLAYER
 10
256.3320680377
 20
212.2424006591
 11
256.3320680376
 21
212.6531479643
  0
LINE
  5
28C
100
AcDbEntity
  8
0
100
AcDbLine
 62
7
  6
BYLAYER
 10
257.6481289768
 20
221.5216098664
 11
257.6481289768
 21
219.5791209593
  0
LINE
  5
28D
100
AcDbEntity
  8
0
100
AcDbLine
 62
7
  6
BYLAYER
 10
257.6481289777
 20
218.8135057013
 11
257.6481289777
 21
217.0338846593
  0
LINE
  5
28E
100
AcDbEntity
  8
0
100
AcDbLine
 62
7
  6
BYLAYER
 10
257.6481289768
 20
216.3161416513
 11
257.6481289768
 21
216.0161308673
  0
LINE
  5
28F
100
AcDbEntity
  8
0
100
AcDbLine
 62
7
  6
BYLAYER
 10
257.7682355085
 20
213.9003818964
 11
257.7682355084
 21
212.7839874203
  0
LINE
  5
290
100
AcDbEntity
  8
0
100
AcDbLine
 62
7
  6
BYLAYER
 10
258.1832419094
 20
212.8153343738
 11
258.183241909
 21
213.9003818962
  0
LINE
  5
291
100
AcDbEntity
  8
0
100
AcDbLine
 62
7
  6
BYLAYER
 10
258.1832419088
 20
214.2756935143
 11
258.1832419086
 21
214.7125064908
  0
LINE
  5
292
100
AcDbEntity
  8
0
100
AcDbLine
 62
7
  6
BYLAYER
 10
258.8176769817
 20
216.0161308673
 11
258.8176769817
 21
221.5216098662
  0
LINE
  5
293
100
AcDbEntity
  8
0
100
AcDbLine
 62
7
  6
BYLAYER
 10
258.8517497567
 20
213.9003818964
 11
258.8517497569
 21
214.2756935143
  0
LINE
  5
294
100
AcDbEntity
  8
0
100
AcDbLine
 62
7
  6
BYLAYER
 10
258.9592493622
 20
212.2613110506
 11
258.9592493624
 21
212.6521257813
  0
LINE
  5
295
100
AcDbEntity
  8
0
100
AcDbLine
 62
7
  6
BYLAYER
 10
260.0286234087
 20
212.1604556353
 11
260.0286234091
 21
214.2756935143
  0
LINE
  5
296
100
AcDbEntity
  8
0
100
AcDbLine
 62
7
  6
BYLAYER
 10
260.444822356
 20
212.1604556353
 11
260.4448223567
 21
213.2633913658
  0
LINE
  5
297
100
AcDbEntity
  8
0
100
AcDbLine
 62
7
  6
BYLAYER
 10
260.444822357
 20
213.7746981498
 11
260.4448223573
 21
214.2756935143
  0
LINE
  5
298
100
AcDbEntity
  8
0
100
AcDbLine
 62
7
  6
BYLAYER
 10
262.6711374825
 20
214.2756935143
 11
262.6711374825
 21
212.1604556353
  0
LINE
  5
299
100
AcDbEntity
  8
0
100
AcDbLine
 62
7
  6
BYLAYER
 10
263.0876771581
 20
212.1604556353
 11
263.0876771588
 21
214.2756935143
  0
LINE
  5
29A
100
AcDbEntity
  8
0
100
AcDbLine
 62
7
  6
BYLAYER
 10
263.1341864963
 20
216.4422109193
 11
263.1341864963
 21
217.1700053953
  0
LINE
  5
29B
100
AcDbEntity
  8
0
100
AcDbLine
 62
7
  6
BYLAYER
 10
263.7773101259
 20
216.0200492363
 11
263.7773101264
 21
219.7467590133
  0
LINE
  5
29C
100
AcDbEntity
  8
0
100
AcDbLine
 62
7
  6
BYLAYER
 10
264.9482210419
 20
216.0200492362
 11
264.9482210424
 21
217.6281138573
  0
LINE
  5
29D
100
AcDbEntity
  8
0
100
AcDbLine
 62
7
  6
BYLAYER
 10
264.9482210427
 20
218.6420742217
 11
264.9482210431
 21
219.7467590133
  0
LINE
  5
29E
100
AcDbEntity
  8
0
100
AcDbLine
 62
7
  6
BYLAYER
 10
265.8353057429
 20
213.7206480084
 11
265.835305743
 21
214.1705790033
  0
LINE
  5
29F
100
AcDbEntity
  8
0
100
AcDbLine
 62
7
  6
BYLAYER
 10
265.8828372641
 20
212.2424006602
 11
265.882837264
 21
212.6531479643
  0
LINE
  5
2A0
100
AcDbEntity
  8
0
100
AcDbLine
 62
7
  6
BYLAYER
 10
280.5245831169
 20
200.1625000023
 11
280.5245831169
 21
221.1625000023
  0
LINE
  5
2A1
100
AcDbEntity
  8
0
100
AcDbLine
 62
7
  6
BYLAYER
 10
245.2863558034
 20
215.5340010983
 11
245.141546509
 21
214.8644710683
  0
LINE
  5
2A2
100
AcDbEntity
  8
0
100
AcDbLine
 62
7
  6
BYLAYER
 10
242.4516712791
 20
213.250102985
 11
242.7465711467
 21
214.4877965395
  0
LINE
  5
2A3
100
AcDbEntity
  8
0
100
AcDbLine
 62
7
  6
BYLAYER
 10
241.32948443
 20
212.3565444573
 11
241.5213141542
 21
213.0845092963
  0
LINE
  5
2A4
100
AcDbEntity
  8
0
100
AcDbLine
 62
7
  6
BYLAYER
 10
244.3023340577
 20
214.7660007468
 11
243.9287260794
 21
213.3494251229
  0
LINE
  5
2A5
100
AcDbEntity
  8
0
100
AcDbLine
 62
7
  6
BYLAYER
 10
244.7127406345
 20
214.0010669473
 11
244.8391506306
 21
214.4593457723
  0
LINE
  5
2A6
100
AcDbEntity
  8
0
100
AcDbLine
 62
7
  6
BYLAYER
 10
244.4726979329
 20
213.1071676923
 11
244.6083075784
 21
213.5654465183
  0
LINE
  5
2A7
100
AcDbEntity
  8
0
100
AcDbLine
 62
7
  6
BYLAYER
 10
241.7765192396
 20
213.9690385383
 11
241.6194437469
 21
213.5097375303
  0
LINE
  5
2A8
100
AcDbEntity
  8
0
100
AcDbLine
 62
7
  6
BYLAYER
 10
241.9937331815
 20
214.8625970643
 11
241.8327393186
 21
214.4032960563
  0
LINE
  5
2A9
100
AcDbEntity
  8
0
100
AcDbLine
 62
7
  6
BYLAYER
 10
266.6048393681
 20
218.4416013632
 11
266.9268270934
 21
219.4750286322
  0
LINE
  5
2AA
100
AcDbEntity
  8
0
100
AcDbLine
 62
7
  6
BYLAYER
 10
261.3463879867
 20
213.7041227123
 11
261.5670092055
 21
214.0712568642
  0
LINE
  5
2AB
100
AcDbEntity
  8
0
100
AcDbLine
 62
7
  6
BYLAYER
 10
258.1832419086
 20
214.7125064908
 11
257.361967773
 21
213.9047456777
  0
LINE
  5
2AC
100
AcDbEntity
  8
0
100
AcDbLine
 62
7
  6
BYLAYER
 10
403.2245831159
 20
457.5125000023
 11
95.8245831169
 21
457.5125000023
  0
LINE
  5
2AD
100
AcDbEntity
  8
0
100
AcDbLine
 62
7
  6
BYLAYER
 10
258.5678809435
 20
212.1315576623
 11
258.9592493622
 21
212.2613110506
  0
LINE
  5
2AE
100
AcDbEntity
  8
0
100
AcDbLine
 62
7
  6
BYLAYER
 10
98.8245831169
 20
460.5125000023
 11
130.8245831179
 21
460.5125000023
  0
LINE
  5
2AF
100
AcDbEntity
  8
0
100
AcDbLine
 62
7
  6
BYLAYER
 10
117.5995831159
 20
466.8875000023
 11
119.7124737419
 21
466.8875000023
  0
LINE
  5
2B0
100
AcDbEntity
  8
0
100
AcDbLine
 62
7
  6
BYLAYER
 10
119.5577862419
 20
467.4875000003
 11
117.5995831159
 21
467.4875000003
  0
LINE
  5
2B1
100
AcDbEntity
  8
0
100
AcDbLine
 62
7
  6
BYLAYER
 10
104.9480206172
 20
470.7875000023
 11
104.5870831174
 21
470.7875000023
  0
LINE
  5
2B2
100
AcDbEntity
  8
0
100
AcDbLine
 62
7
  6
BYLAYER
 10
101.2062237257
 20
470.7875000033
 11
100.846458126
 21
470.7875000033
  0
LINE
  5
2B3
100
AcDbEntity
  8
0
100
AcDbLine
 62
7
  6
BYLAYER
 10
130.8245831179
 20
475.5125000023
 11
98.8245831169
 21
475.5125000023
  0
LINE
  5
2B4
100
AcDbEntity
  8
0
100
AcDbLine
 62
7
  6
BYLAYER
 10
439.7004592509
 20
483.5625000023
 11
59.3732817239
 21
483.5625000023
  0
LINE
  5
2B5
100
AcDbEntity
  8
0
100
AcDbLine
 62
7
  6
BYLAYER
 10
58.6638683861
 20
483.7625000023
 11
440.3974244149
 21
483.7625000023
  0
LINE
  5
2B6
100
AcDbEntity
  8
0
100
AcDbLine
 62
7
  6
BYLAYER
 10
56.9917726044
 20
486.4453105158
 11
442.0573936299
 21
486.4453105158
  0
LINE
  5
2B7
100
AcDbEntity
  8
0
100
AcDbLine
 62
7
  6
BYLAYER
 10
57.5167993459
 20
486.7625000023
 11
441.5997031569
 21
486.7625000023
  0
LINE
  5
2B8
100
AcDbEntity
  8
0
100
AcDbLine
 62
7
  6
BYLAYER
 10
403.2245831159
 20
226.2125000023
 11
403.2245831159
 21
457.5125000023
  0
LINE
  5
2B9
100
AcDbEntity
  8
0
100
AcDbLine
 62
7
  6
BYLAYER
 10
417.5244831169
 20
229.5828841003
 11
417.5244831169
 21
271.0178161507
  0
LINE
  5
2BA
100
AcDbEntity
  8
0
100
AcDbLine
 62
7
  6
BYLAYER
 10
420.5244831179
 20
216.3625000033
 11
420.5244831179
 21
218.3625000033
  0
LINE
  5
2BB
100
AcDbEntity
  8
0
100
AcDbLine
 62
7
  6
BYLAYER
 10
430.5244831179
 20
218.3625000033
 11
430.5244831179
 21
216.3625000033
  0
LINE
  5
2BC
100
AcDbEntity
  8
0
100
AcDbLine
 62
7
  6
BYLAYER
 10
433.5244831169
 20
270.9799823254
 11
433.5244831169
 21
229.6279894443
  0
LINE
  5
2BD
100
AcDbEntity
  8
0
100
AcDbLine
 62
7
  6
BYLAYER
 10
441.6745831179
 20
481.5883761343
 11
441.6745831179
 21
202.1990603153
  0
LINE
  5
2BE
100
AcDbEntity
  8
0
100
AcDbLine
 62
7
  6
BYLAYER
 10
441.8745831169
 20
482.2853413002
 11
441.8745831169
 21
201.4685907285
  0
LINE
  5
2BF
100
AcDbEntity
  8
0
100
AcDbLine
 62
7
  6
BYLAYER
 10
444.5573936301
 20
483.9453105157
 11
444.5573936301
 21
199.7796894893
  0
LINE
  5
2C0
100
AcDbEntity
  8
0
100
AcDbLine
 62
7
  6
BYLAYER
 10
444.8745831179
 20
483.4876200415
 11
444.874583118
 21
200.1930055495
  0
LINE
  5
2C1
100
AcDbEntity
  8
0
100
AcDbLine
 62
7
  6
BYLAYER
 10
444.8745831178
 20
200.1930055493
 11
444.5573936301
 21
199.7796894893
  0
LINE
  5
2C2
100
AcDbEntity
  8
0
100
AcDbLine
 62
7
  6
BYLAYER
 10
441.6440775706
 20
196.9625000014
 11
442.0573936292
 21
197.2796894891
  0
LINE
  5
2C3
100
AcDbEntity
  8
0
100
AcDbLine
 62
7
  6
BYLAYER
 10
441.5997031569
 20
486.7625000028
 11
442.0573936299
 21
486.4453105158
  0
LINE
  5
2C4
100
AcDbEntity
  8
0
100
AcDbLine
 62
7
  6
BYLAYER
 10
444.8745831177
 20
483.4876200409
 11
444.5573936301
 21
483.9453105157
  0
ARC
  5
2C5
100
AcDbEntity
  8
0
100
AcDbCircle
 62
7
  6
BYLAYER
 10
222.5248623713
 20
221.162220748
 40
4.0002792641
100
AcDbArc
 50
90.0039997445
 51
179.9960002555
  0
ARC
  5
2C6
100
AcDbEntity
  8
0
100
AcDbCircle
 62
7
  6
BYLAYER
 10
57.4724329232
 20
200.2603498075
 40
3.2978498143
100
AcDbArc
 50
180.0039996467
 51
269.9960002587
  0
ARC
  5
2C7
100
AcDbEntity
  8
0
100
AcDbCircle
 62
7
  6
BYLAYER
 10
56.9919471383
 20
199.7798640237
 40
2.5001745405
100
AcDbArc
 50
180.0052339318
 51
269.9938188485
  0
ARC
  5
2C8
100
AcDbEntity
  8
0
100
AcDbCircle
 62
7
  6
BYLAYER
 10
59.3385739169
 20
202.1264908023
 40
1.9639908002
100
AcDbArc
 50
180.0
 51
270.0
  0
ARC
  5
2C9
100
AcDbEntity
  8
0
100
AcDbCircle
 62
7
  6
BYLAYER
 10
58.6870753479
 20
201.4749922333
 40
1.5124922306
100
AcDbArc
 50
179.9999999207
 51
270.0000000793
  0
ARC
  5
2CA
100
AcDbEntity
  8
0
100
AcDbCircle
 62
7
  6
BYLAYER
 10
23.8932132519
 20
467.6102970483
 40
86.6645776354
100
AcDbArc
 50
359.2114434817
 51
0.0187591955
  0
ARC
  5
2CB
100
AcDbEntity
  8
0
100
AcDbCircle
 62
7
  6
BYLAYER
 10
57.5170326782
 20
483.420050441
 40
3.3424495694
100
AcDbArc
 50
90.003999749
 51
179.9960003609
  0
ARC
  5
2CC
100
AcDbEntity
  8
0
100
AcDbCircle
 62
7
  6
BYLAYER
 10
98.8247925613
 20
472.512290558
 40
3.0002094516
100
AcDbArc
 50
90.0039998127
 51
179.9960001873
  0
ARC
  5
2CD
100
AcDbEntity
  8
0
100
AcDbCircle
 62
7
  6
BYLAYER
 10
98.8247925613
 20
463.5127094466
 40
3.0002094516
100
AcDbArc
 50
180.0039998127
 51
269.9960001873
  0
ARC
  5
2CE
100
AcDbEntity
  8
0
100
AcDbCircle
 62
7
  6
BYLAYER
 10
130.8243736726
 20
463.5127094466
 40
3.0002094516
100
AcDbArc
 50
270.0039998318
 51
359.9960001873
  0
ARC
  5
2CF
100
AcDbEntity
  8
0
100
AcDbCircle
 62
7
  6
BYLAYER
 10
130.8243736726
 20
472.512290558
 40
3.0002094516
100
AcDbArc
 50
0.0039998127
 51
89.9960001682
  0
ARC
  5
2D0
100
AcDbEntity
  8
0
100
AcDbCircle
 62
7
  6
BYLAYER
 10
56.9919471383
 20
483.9451359809
 40
2.5001745405
100
AcDbArc
 50
90.0052624157
 51
179.9938161429
  0
ARC
  5
2D1
100
AcDbEntity
  8
0
100
AcDbCircle
 62
7
  6
BYLAYER
 10
59.3732817239
 20
481.5638013953
 40
1.9986986072
100
AcDbArc
 50
90.0
 51
180.0
  0
ARC
  5
2D2
100
AcDbEntity
  8
0
100
AcDbCircle
 62
7
  6
BYLAYER
 10
58.6638683879
 20
482.2732147313
 40
1.4892852714
100
AcDbArc
 50
90.000000069
 51
179.999999931
  0
ARC
  5
2D3
100
AcDbEntity
  8
0
100
AcDbCircle
 62
7
  6
BYLAYER
 10
242.0910433716
 20
215.4742938373
 40
4.0372697769
100
AcDbArc
 50
331.783373903
 51
338.5981575191
  0
ARC
  5
2D4
100
AcDbEntity
  8
0
100
AcDbCircle
 62
7
  6
BYLAYER
 10
276.5243038626
 20
221.162220748
 40
4.0002792641
100
AcDbArc
 50
0.0039997445
 51
89.9960002555
  0
ARC
  5
2D5
100
AcDbEntity
  8
0
100
AcDbCircle
 62
7
  6
BYLAYER
 10
244.4007027056
 20
212.4928503103
 40
3.8961316497
100
AcDbArc
 50
150.6367894572
 51
157.7353279728
  0
ARC
  5
2D6
100
AcDbEntity
  8
0
100
AcDbCircle
 62
7
  6
BYLAYER
 10
244.5126577212
 20
213.0990852867
 40
3.5240301884
100
AcDbArc
 50
108.7939839823
 51
111.1600104029
  0
ARC
  5
2D7
100
AcDbEntity
  8
0
100
AcDbCircle
 62
7
  6
BYLAYER
 10
441.6438520367
 20
200.1932310825
 40
3.2307310891
100
AcDbArc
 50
270.0039997597
 51
359.996000258
  0
ARC
  5
2D8
100
AcDbEntity
  8
0
100
AcDbCircle
 62
7
  6
BYLAYER
 10
442.0572190956
 20
199.7798640237
 40
2.5001745405
100
AcDbArc
 50
270.0069538228
 51
359.9929485592
  0
ARC
  5
2D9
100
AcDbEntity
  8
0
100
AcDbCircle
 62
7
  6
BYLAYER
 10
439.6380228039
 20
202.1990603153
 40
2.0365603135
100
AcDbArc
 50
270.0
 51
360.0
  0
ARC
  5
2DA
100
AcDbEntity
  8
0
100
AcDbCircle
 62
7
  6
BYLAYER
 10
440.3684923899
 20
201.4685907293
 40
1.5060907272
100
AcDbArc
 50
270.0000000303
 51
359.9999999697
  0
ARC
  5
2DB
100
AcDbEntity
  8
0
100
AcDbCircle
 62
7
  6
BYLAYER
 10
432.4919654399
 20
270.9799823254
 40
1.0325176769
100
AcDbArc
 50
0.0
 51
89.9999999972
  0
ARC
  5
2DC
100
AcDbEntity
  8
0
100
AcDbCircle
 62
7
  6
BYLAYER
 10
418.5191669689
 20
271.0178161507
 40
0.9946838516
100
AcDbArc
 50
90.0000000063
 51
180.0000000913
  0
ARC
  5
2DD
100
AcDbEntity
  8
0
100
AcDbCircle
 62
7
  6
BYLAYER
 10
433.2089936749
 20
229.6279894443
 40
0.315489442
100
AcDbArc
 50
270.0000001955
 51
359.9999999873
  0
ARC
  5
2DE
100
AcDbEntity
  8
0
100
AcDbCircle
 62
7
  6
BYLAYER
 10
417.7948672149
 20
229.5828841003
 40
0.2703840977
100
AcDbArc
 50
179.999999727
 51
270.000000038
  0
ARC
  5
2DF
100
AcDbEntity
  8
0
100
AcDbCircle
 62
7
  6
BYLAYER
 10
242.2821025941
 20
213.2814738013
 40
0.172446128
100
AcDbArc
 50
317.1695667208
 51
349.5185827027
  0
ARC
  5
2E0
100
AcDbEntity
  8
0
100
AcDbCircle
 62
7
  6
BYLAYER
 10
244.3983748258
 20
214.7587002913
 40
0.0963178372
100
AcDbArc
 50
141.3828539966
 51
175.6530706317
  0
ARC
  5
2E1
100
AcDbEntity
  8
0
100
AcDbCircle
 62
7
  6
BYLAYER
 10
441.5994745254
 20
483.4873914098
 40
3.2751086005
100
AcDbArc
 50
0.0039997553
 51
89.9960002495
  0
ARC
  5
2E2
100
AcDbEntity
  8
0
100
AcDbCircle
 62
7
  6
BYLAYER
 10
442.0572190956
 20
483.9451359809
 40
2.5001745405
100
AcDbArc
 50
0.0052624689
 51
89.9938161811
  0
ARC
  5
2E3
100
AcDbEntity
  8
0
100
AcDbCircle
 62
7
  6
BYLAYER
 10
439.7004592499
 20
481.5883761343
 40
1.974123868
100
AcDbArc
 50
0.000000029
 51
89.999999971
  0
ARC
  5
2E4
100
AcDbEntity
  8
0
100
AcDbCircle
 62
7
  6
BYLAYER
 10
440.3974244149
 20
482.2853413003
 40
1.477158702
100
AcDbArc
 50
0.0
 51
90.0000000019
  0
SPLINE
  5
2E5
100
AcDbEntity
  8
0
100
AcDbSpline
 62
7
  6
BYLAYER
 70
0
 71
3
 72
14
 73
10
 74
0
 42
0.0000001
 43
0.0000001
 44
0.0000000001
 40
0.0
 40
0.0
 40
0.0
 40
0.0
 40
0.126978608
 40
0.2497231574
 40
0.3810387132
 40
0.5290048666
 40
0.6735449269
 40
0.8018384424
 40
1.0
 40
1.0
 40
1.0
 40
1.0
 10
102.8995831174
 20
464.9375000033
 30
0.0
 10
102.9587206726
 20
464.9392689766
 30
0.0
 10
103.0752504133
 20
464.9449595439
 30
0.0
 10
103.2465263503
 20
465.0032444161
 30
0.0
 10
103.391431149
 20
465.1269615444
 30
0.0
 10
103.506909301
 20
465.2746643099
 30
0.0
 10
103.5683454435
 20
465.4593084946
 30
0.0
 10
103.6293309365
 20
465.6703313353
 30
0.0
 10
103.6678652821
 20
465.8172349782
 30
0.0
 10
103.6905987369
 20
465.9066406036
 30
0.0
  0
SPLINE
  5
2E6
100
AcDbEntity
  8
0
100
AcDbSpline
 62
7
  6
BYLAYER
 70
0
 71
3
 72
11
 73
7
 74
0
 42
0.0000001
 43
0.0000001
 44
0.0000000001
 40
0.0
 40
0.0
 40
0.0
 40
0.0
 40
0.066382801
 40
0.4440679256
 40
0.7940252707
 40
1.0
 40
1.0
 40
1.0
 40
1.0
 10
104.624583117
 20
465.5996093762
 30
0.0
 10
104.6252311636
 20
465.5786779999
 30
0.0
 10
104.6291490447
 20
465.4393240843
 30
0.0
 10
104.6697157674
 20
465.1756806508
 30
0.0
 10
104.9100344024
 20
464.9594921877
 30
0.0
 10
105.0787933903
 20
464.941017235
 30
0.0
 10
105.1437237419
 20
464.9375000033
 30
0.0
  0
SPLINE
  5
2E7
100
AcDbEntity
  8
0
100
AcDbSpline
 62
7
  6
BYLAYER
 70
0
 71
3
 72
12
 73
8
 74
0
 42
0.0000001
 43
0.0000001
 44
0.0000000001
 40
0.0
 40
0.0
 40
0.0
 40
0.0
 40
0.1005868416
 40
0.2697989569
 40
0.4402568165
 40
0.6121720005
 40
1.0
 40
1.0
 40
1.0
 40
1.0
 10
105.1437237419
 20
464.9375000033
 30
0.0
 10
105.1762482003
 20
464.9391724166
 30
0.0
 10
105.2632154722
 20
464.9429731908
 30
0.0
 10
105.4042765418
 20
464.9879960622
 30
0.0
 10
105.5358271715
 20
465.0919459038
 30
0.0
 10
105.6598542873
 20
465.302232922
 30
0.0
 10
105.6706670113
 20
465.4706429035
 30
0.0
 10
105.6745831162
 20
465.5960937622
 30
0.0
  0
SPLINE
  5
2E8
100
AcDbEntity
  8
0
100
AcDbSpline
 62
7
  6
BYLAYER
 70
0
 71
3
 72
16
 73
12
 74
0
 42
0.0000001
 43
0.0000001
 44
0.0000000001
 40
0.0
 40
0.0
 40
0.0
 40
0.0
 40
0.0958315182
 40
0.1934427971
 40
0.2728031629
 40
0.3521635287
 40
0.4256934755
 40
0.4992234222
 40
0.6236214225
 40
0.8003394728
 40
1.0
 40
1.0
 40
1.0
 40
1.0
 10
105.6745831162
 20
470.1476562436
 30
0.0
 10
105.673493536
 20
470.1834948327
 30
0.0
 10
105.6720437888
 20
470.2567960795
 30
0.0
 10
105.6581844988
 20
470.3546059945
 30
0.0
 10
105.6339982184
 20
470.4487120294
 30
0.0
 10
105.5969416623
 20
470.5274337733
 30
0.0
 10
105.5501242169
 20
470.5988345978
 30
0.0
 10
105.4718871023
 20
470.6653242423
 30
0.0
 10
105.3464313234
 20
470.7300615115
 30
0.0
 10
105.1640629665
 20
470.7799376142
 30
0.0
 10
105.0227397304
 20
470.7854642523
 30
0.0
 10
104.9480206172
 20
470.7875000023
 30
0.0
  0
SPLINE
  5
2E9
100
AcDbEntity
  8
0
100
AcDbSpline
 62
7
  6
BYLAYER
 70
0
 71
3
 72
13
 73
9
 74
0
 42
0.0000001
 43
0.0000001
 44
0.0000000001
 40
0.0
 40
0.0
 40
0.0
 40
0.0
 40
0.1661598387
 40
0.3171458399
 40
0.4338925005
 40
0.553108977
 40
0.6707843265
 40
1.0
 40
1.0
 40
1.0
 40
1.0
 10
104.5870831174
 20
470.7875000023
 30
0.0
 10
104.5123938506
 20
470.7865599173
 30
0.0
 10
104.3673917303
 20
470.7837132611
 30
0.0
 10
104.1824400056
 20
470.759078779
 30
0.0
 10
104.0208720943
 20
470.6913830174
 30
0.0
 10
103.9142199173
 20
470.5708665603
 30
0.0
 10
103.8196228991
 20
470.3331688397
 30
0.0
 10
103.7727798189
 20
470.1654006236
 30
0.0
 10
103.7351299931
 20
470.0222656354
 30
0.0
  0
SPLINE
  5
2EA
100
AcDbEntity
  8
0
100
AcDbSpline
 62
7
  6
BYLAYER
 70
0
 71
3
 72
13
 73
9
 74
0
 42
0.0000001
 43
0.0000001
 44
0.0000000001
 40
0.0
 40
0.0
 40
0.0
 40
0.0
 40
0.334669018
 40
0.4575609188
 40
0.5737479266
 40
0.6846237344
 40
0.8047790238
 40
1.0
 40
1.0
 40
1.0
 40
1.0
 10
102.0534893605
 20
470.0222656478
 30
0.0
 10
102.0155009644
 20
470.1667514787
 30
0.0
 10
101.969066778
 20
470.3312938129
 30
0.0
 10
101.8732186362
 20
470.5762835828
 30
0.0
 10
101.7634764122
 20
470.6937838857
 30
0.0
 10
101.6206326377
 20
470.7536942799
 30
0.0
 10
101.4354831168
 20
470.7839079552
 30
0.0
 10
101.2933582893
 20
470.7864232925
 30
0.0
 10
101.2062237257
 20
470.7875000025
 30
0.0
  0
SPLINE
  5
2EB
100
AcDbEntity
  8
0
100
AcDbSpline
 62
7
  6
BYLAYER
 70
0
 71
3
 72
14
 73
10
 74
0
 42
0.0000001
 43
0.0000001
 44
0.0000000001
 40
0.0
 40
0.0
 40
0.0
 40
0.0
 40
0.1772704952
 40
0.3713397521
 40
0.5138822002
 40
0.5885431333
 40
0.6632040665
 40
0.8003918513
 40
1.0
 40
1.0
 40
1.0
 40
1.0
 10
100.846458126
 20
470.7875000025
 30
0.0
 10
100.7803334997
 20
470.7857028325
 30
0.0
 10
100.6417533207
 20
470.781114068
 30
0.0
 10
100.4533115712
 20
470.7320109628
 30
0.0
 10
100.3183312018
 20
470.6631024037
 30
0.0
 10
100.2379575423
 20
470.58737205
 30
0.0
 10
100.1825935135
 20
470.4951903738
 30
0.0
 10
100.131151062
 20
470.3488671335
 30
0.0
 10
100.1266979036
 20
470.2220790289
 30
0.0
 10
100.1245831169
 20
470.1476562521
 30
0.0
  0
SPLINE
  5
2EC
100
AcDbEntity
  8
0
100
AcDbSpline
 62
7
  6
BYLAYER
 70
0
 71
3
 72
11
 73
7
 74
0
 42
0.0000001
 43
0.0000001
 44
0.0000000001
 40
0.0
 40
0.0
 40
0.0
 40
0.0
 40
0.2630637595
 40
0.6220547557
 40
0.7957648871
 40
1.0
 40
1.0
 40
1.0
 40
1.0
 10
100.1245831169
 20
465.5960937521
 30
0.0
 10
100.1273085219
 20
465.5122747822
 30
0.0
 10
100.135218986
 20
465.3172156438
 30
0.0
 10
100.2568230265
 20
465.0763887651
 30
0.0
 10
100.4680046402
 20
464.9535189831
 30
0.0
 10
100.5821499503
 20
464.940941
 30
0.0
 10
100.6472393669
 20
464.9375000033
 30
0.0
  0
SPLINE
  5
2ED
100
AcDbEntity
  8
0
100
AcDbSpline
 62
7
  6
BYLAYER
 70
0
 71
3
 72
12
 73
8
 74
0
 42
0.0000001
 43
0.0000001
 44
0.0000000001
 40
0.0
 40
0.0
 40
0.0
 40
0.0
 40
0.1020962743
 40
0.2690335469
 40
0.4368665793
 40
0.6135784964
 40
1.0
 40
1.0
 40
1.0
 40
1.0
 10
100.6472393669
 20
464.9375000033
 30
0.0
 10
100.6804070203
 20
464.939220795
 30
0.0
 10
100.7675897184
 20
464.9431330986
 30
0.0
 10
100.9075607165
 20
464.9893338022
 30
0.0
 10
101.0381515883
 20
465.0960173793
 30
0.0
 10
101.1605320192
 20
465.3072303012
 30
0.0
 10
101.1708004495
 20
465.4740121047
 30
0.0
 10
101.1745831161
 20
465.5996093839
 30
0.0
  0
SPLINE
  5
2EE
100
AcDbEntity
  8
0
100
AcDbSpline
 62
7
  6
BYLAYER
 70
0
 71
3
 72
15
 73
11
 74
0
 42
0.0000001
 43
0.0000001
 44
0.0000000001
 40
0.0
 40
0.0
 40
0.0
 40
0.0
 40
0.1991509471
 40
0.3954023218
 40
0.5353230191
 40
0.6042588637
 40
0.6731947083
 40
0.8001334359
 40
0.900066718
 40
1.0
 40
1.0
 40
1.0
 40
1.0
 10
102.1085674882
 20
465.9066406446
 30
0.0
 10
102.1328914533
 20
465.8184273305
 30
0.0
 10
102.1778021429
 20
465.6428774619
 30
0.0
 10
102.2466827166
 20
465.4046986541
 30
0.0
 10
102.3272598101
 20
465.2394655705
 30
0.0
 10
102.4080518224
 20
465.1394877532
 30
0.0
 10
102.4960382176
 20
465.0556001928
 30
0.0
 10
102.61559327
 20
464.9825616214
 30
0.0
 10
102.7616496706
 20
464.9438609311
 30
0.0
 10
102.8536671556
 20
464.9390434499
 30
0.0
 10
102.8995831174
 20
464.9375000033
 30
0.0
  0
SPLINE
  5
2EF
100
AcDbEntity
  8
0
100
AcDbSpline
 62
7
  6
BYLAYER
 70
0
 71
3
 72
12
 73
8
 74
0
 42
0.0000001
 43
0.0000001
 44
0.0000000001
 40
0.0
 40
0.0
 40
0.0
 40
0.0
 40
0.0952805736
 40
0.2648393075
 40
0.4351115168
 40
0.6130723922
 40
1.0
 40
1.0
 40
1.0
 40
1.0
 10
122.0937237419
 20
464.9375000033
 30
0.0
 10
122.1244566969
 20
464.9391890616
 30
0.0
 10
122.209615121
 20
464.9430956227
 30
0.0
 10
122.3488491892
 20
464.988062874
 30
0.0
 10
122.4813009662
 20
465.0928065605
 30
0.0
 10
122.6100854943
 20
465.30217949
 30
0.0
 10
122.6209471019
 20
465.4700074656
 30
0.0
 10
122.6245831169
 20
465.5949218772
 30
0.0
  0
SPLINE
  5
2F0
100
AcDbEntity
  8
0
100
AcDbSpline
 62
7
  6
BYLAYER
 70
0
 71
3
 72
11
 73
7
 74
0
 42
0.0000001
 43
0.0000001
 44
0.0000000001
 40
0.0
 40
0.0
 40
0.0
 40
0.0
 40
0.0677864639
 40
0.4441725615
 40
0.7950235348
 40
1.0
 40
1.0
 40
1.0
 40
1.0
 10
122.6245831169
 20
470.2800781273
 30
0.0
 10
122.6238884069
 20
470.3016154389
 30
0.0
 10
122.6198164561
 20
470.4420559181
 30
0.0
 10
122.5769240223
 20
470.7079778309
 30
0.0
 10
122.3302774169
 20
470.9176815077
 30
0.0
 10
122.1588453419
 20
470.934148385
 30
0.0
 10
122.0937237419
 20
470.9375000033
 30
0.0
  0
SPLINE
  5
2F1
100
AcDbEntity
  8
0
100
AcDbSpline
 62
7
  6
BYLAYER
 70
0
 71
3
 72
11
 73
7
 74
0
 42
0.0000001
 43
0.0000001
 44
0.0000000001
 40
0.0
 40
0.0
 40
0.0
 40
0.0
 40
0.0934218963
 40
0.2598555639
 40
0.6067973932
 40
1.0
 40
1.0
 40
1.0
 40
1.0
 10
122.0937237419
 20
470.9375000033
 30
0.0
 10
122.0640055236
 20
470.9359394566
 30
0.0
 10
121.9817540528
 20
470.932299186
 30
0.0
 10
121.7884091181
 20
470.8737649112
 30
0.0
 10
121.5974182192
 20
470.6407816743
 30
0.0
 10
121.5789826731
 20
470.4051563919
 30
0.0
 10
121.5745831163
 20
470.2800781367
 30
0.0
  0
SPLINE
  5
2F2
100
AcDbEntity
  8
0
100
AcDbSpline
 62
7
  6
BYLAYER
 70
0
 71
3
 72
11
 73
7
 74
0
 42
0.0000001
 43
0.0000001
 44
0.0000000001
 40
0.0
 40
0.0
 40
0.0
 40
0.0
 40
0.2668317308
 40
0.4471606876
 40
0.7968464502
 40
1.0
 40
1.0
 40
1.0
 40
1.0
 10
121.5745831161
 20
465.5949218713
 30
0.0
 10
121.5772789345
 20
465.5101125368
 30
0.0
 10
121.5863870324
 20
465.3741050687
 30
0.0
 10
121.6722221177
 20
465.1310063097
 30
0.0
 10
121.8600251248
 20
464.9600669966
 30
0.0
 10
122.0291432819
 20
464.9407171066
 30
0.0
 10
122.0937237419
 20
464.9375000033
 30
0.0
  0
SPLINE
  5
2F3
100
AcDbEntity
  8
0
100
AcDbSpline
 62
7
  6
BYLAYER
 70
0
 71
3
 72
12
 73
8
 74
0
 42
0.0000001
 43
0.0000001
 44
0.0000000001
 40
0.0
 40
0.0
 40
0.0
 40
0.0
 40
0.0801674484
 40
0.2541378452
 40
0.4293240237
 40
0.6105164097
 40
1.0
 40
1.0
 40
1.0
 40
1.0
 10
124.2687237419
 20
469.2875000033
 30
0.0
 10
124.2436554536
 20
469.2861194383
 30
0.0
 10
124.1644255413
 20
469.2823882693
 30
0.0
 10
124.0304479771
 20
469.2454594733
 30
0.0
 10
123.895909739
 20
469.1443000579
 30
0.0
 10
123.7658262012
 20
468.9417389485
 30
0.0
 10
123.7536919836
 20
468.7706577949
 30
0.0
 10
123.7495831169
 20
468.6488281282
 30
0.0
  0
SPLINE
  5
2F4
100
AcDbEntity
  8
0
100
AcDbSpline
 62
7
  6
BYLAYER
 70
0
 71
3
 72
11
 73
7
 74
0
 42
0.0000001
 43
0.0000001
 44
0.0000000001
 40
0.0
 40
0.0
 40
0.0
 40
0.0
 40
0.2553668853
 40
0.6250263611
 40
0.798592093
 40
1.0
 40
1.0
 40
1.0
 40
1.0
 10
123.7495831169
 20
465.5878906262
 30
0.0
 10
123.7522877803
 20
465.5064820079
 30
0.0
 10
123.7650995113
 20
465.3106238963
 30
0.0
 10
123.8796118317
 20
465.0837997038
 30
0.0
 10
124.0912849966
 20
464.9529979734
 30
0.0
 10
124.2044823853
 20
464.9406513563
 30
0.0
 10
124.2687237419
 20
464.9375000013
 30
0.0
  0
SPLINE
  5
2F5
100
AcDbEntity
  8
0
100
AcDbSpline
 62
7
  6
BYLAYER
 70
0
 71
3
 72
13
 73
9
 74
0
 42
0.0000001
 43
0.0000001
 44
0.0000000001
 40
0.0
 40
0.0
 40
0.0
 40
0.0
 40
0.0795944286
 40
0.2548971039
 40
0.4315217696
 40
0.6130362137
 40
0.7995339035
 40
1.0
 40
1.0
 40
1.0
 40
1.0
 10
124.2687237419
 20
464.9375000013
 30
0.0
 10
124.2937771069
 20
464.938867363
 30
0.0
 10
124.3737681997
 20
464.9425310184
 30
0.0
 10
124.5093038552
 20
464.9809896234
 30
0.0
 10
124.6458722679
 20
465.0832835366
 30
0.0
 10
124.7424961531
 20
465.2284496482
 30
0.0
 10
124.7926035428
 20
465.4026660008
 30
0.0
 10
124.7976344562
 20
465.5247638208
 30
0.0
 10
124.7995831179
 20
465.5878906256
 30
0.0
  0
SPLINE
  5
2F6
100
AcDbEntity
  8
0
100
AcDbSpline
 62
7
  6
BYLAYER
 70
0
 71
3
 72
11
 73
7
 74
0
 42
0.0000001
 43
0.0000001
 44
0.0000000001
 40
0.0
 40
0.0
 40
0.0
 40
0.0
 40
0.2435574309
 40
0.4305480239
 40
0.7975833964
 40
1.0
 40
1.0
 40
1.0
 40
1.0
 10
124.7995831179
 20
468.6804687519
 30
0.0
 10
124.7969625446
 20
468.7545887904
 30
0.0
 10
124.7882286531
 20
468.881309388
 30
0.0
 10
124.6936978652
 20
469.1102392046
 30
0.0
 10
124.4993325676
 20
469.2681370444
 30
0.0
 10
124.3302658169
 20
469.28396688
 30
0.0
 10
124.2687237419
 20
469.2875000033
 30
0.0
  0
SPLINE
  5
2F7
100
AcDbEntity
  8
0
100
AcDbSpline
 62
7
  6
BYLAYER
 70
0
 71
3
 72
11
 73
7
 74
0
 42
0.0000001
 43
0.0000001
 44
0.0000000001
 40
0.0
 40
0.0
 40
0.0
 40
0.0
 40
0.2403620891
 40
0.4178397464
 40
0.797960777
 40
1.0
 40
1.0
 40
1.0
 40
1.0
 10
124.7995831159
 20
470.3398437519
 30
0.0
 10
124.7974454843
 20
470.407049302
 30
0.0
 10
124.7878961014
 20
470.5186854603
 30
0.0
 10
124.6825153651
 20
470.7228751297
 30
0.0
 10
124.4926873482
 20
470.8436500022
 30
0.0
 10
124.3368608229
 20
470.8599826516
 30
0.0
 10
124.2804424929
 20
470.8625000033
 30
0.0
  0
SPLINE
  5
2F8
100
AcDbEntity
  8
0
100
AcDbSpline
 62
7
  6
BYLAYER
 70
0
 71
3
 72
11
 73
7
 74
0
 42
0.0000001
 43
0.0000001
 44
0.0000000001
 40
0.0
 40
0.0
 40
0.0
 40
0.0
 40
0.2045944851
 40
0.4040682194
 40
0.7982447086
 40
1.0
 40
1.0
 40
1.0
 40
1.0
 10
124.2804424929
 20
470.8625000033
 30
0.0
 10
124.2238937429
 20
470.8594700383
 30
0.0
 10
124.1149915138
 20
470.8498021676
 30
0.0
 10
123.9157290716
 20
470.7442610665
 30
0.0
 10
123.7666708736
 20
470.5591373654
 30
0.0
 10
123.7527478729
 20
470.3956096723
 30
0.0
 10
123.7495831179
 20
470.3398437523
 30
0.0
  0
SPLINE
  5
2F9
100
AcDbEntity
  8
0
100
AcDbSpline
 62
7
  6
BYLAYER
 70
0
 71
3
 72
11
 73
7
 74
0
 42
0.0000001
 43
0.0000001
 44
0.0000000001
 40
0.0
 40
0.0
 40
0.0
 40
0.0
 40
0.2147771357
 40
0.5992820615
 40
0.7977037715
 40
1.0
 40
1.0
 40
1.0
 40
1.0
 10
123.7495831179
 20
470.3398437523
 30
0.0
 10
123.7519714013
 20
470.2791884423
 30
0.0
 10
123.7629851777
 20
470.1102777403
 30
0.0
 10
123.9077203666
 20
469.9211667755
 30
0.0
 10
124.1140967387
 20
469.8240418143
 30
0.0
 10
124.2233067986
 20
469.8147351856
 30
0.0
 10
124.2804424919
 20
469.8125000023
 30
0.0
  0
SPLINE
  5
2FA
100
AcDbEntity
  8
0
100
AcDbSpline
 62
7
  6
BYLAYER
 70
0
 71
3
 72
11
 73
7
 74
0
 42
0.0000001
 43
0.0000001
 44
0.0000000001
 40
0.0
 40
0.0
 40
0.0
 40
0.0
 40
0.2311929666
 40
0.4271050443
 40
0.8054632393
 40
1.0
 40
1.0
 40
1.0
 40
1.0
 10
124.2804424919
 20
469.8125000023
 30
0.0
 10
124.3461573503
 20
469.8149909606
 30
0.0
 10
124.4581522501
 20
469.8282563056
 30
0.0
 10
124.6650512571
 20
469.945007608
 30
0.0
 10
124.7846697835
 20
470.1172754903
 30
0.0
 10
124.7974592042
 20
470.284557427
 30
0.0
 10
124.7995831159
 20
470.3398437519
 30
0.0
  0
SPLINE
  5
2FB
100
AcDbEntity
  8
0
100
AcDbSpline
 62
7
  6
BYLAYER
 70
0
 71
3
 72
15
 73
11
 74
0
 42
0.0000001
 43
0.0000001
 44
0.0000000001
 40
0.0
 40
0.0
 40
0.0
 40
0.0
 40
0.1037879724
 40
0.303362507
 40
0.5029413824
 40
0.6877054887
 40
0.8003152226
 40
0.9002187346
 40
0.9501093675
 40
1.0
 40
1.0
 40
1.0
 40
1.0
 10
127.9167706169
 20
467.5718750023
 30
0.0
 10
127.8693837569
 20
467.583441524
 30
0.0
 10
127.730739995
 20
467.6170095929
 30
0.0
 10
127.5025525502
 20
467.6764104132
 30
0.0
 10
127.2344328591
 20
467.7449666468
 30
0.0
 10
127.0222625526
 20
467.8286559903
 30
0.0
 10
126.8606300057
 20
467.9278024613
 30
0.0
 10
126.7835805829
 20
468.027839175
 30
0.0
 10
126.7527317457
 20
468.1176305914
 30
0.0
 10
126.7507134569
 20
468.164787894
 30
0.0
 10
126.7495831169
 20
468.1882812523
 30
0.0
  0
SPLINE
  5
2FC
100
AcDbEntity
  8
0
100
AcDbSpline
 62
7
  6
BYLAYER
 70
0
 71
3
 72
13
 73
9
 74
0
 42
0.0000001
 43
0.0000001
 44
0.0000000001
 40
0.0
 40
0.0
 40
0.0
 40
0.0
 40
0.0896060438
 40
0.1570788975
 40
0.4050051939
 40
0.6069816813
 40
0.8026941732
 40
1.0
 40
1.0
 40
1.0
 40
1.0
 10
126.7495831169
 20
468.1882812523
 30
0.0
 10
126.7514375386
 20
468.214296274
 30
0.0
 10
126.7543640911
 20
468.2600478437
 30
0.0
 10
126.7954074637
 20
468.3716577625
 30
0.0
 10
126.9033661432
 20
468.4778450485
 30
0.0
 10
127.0680402993
 20
468.5627437241
 30
0.0
 10
127.2428648477
 20
468.6067164216
 30
0.0
 10
127.3591427569
 20
468.6112635706
 30
0.0
 10
127.4163799919
 20
468.6125000023
 30
0.0
  0
SPLINE
  5
2FD
100
AcDbEntity
  8
0
100
AcDbSpline
 62
7
  6
BYLAYER
 70
0
 71
3
 72
12
 73
8
 74
0
 42
0.0000001
 43
0.0000001
 44
0.0000000001
 40
0.0
 40
0.0
 40
0.0
 40
0.0
 40
0.2013583968
 40
0.3973322567
 40
0.5962498033
 40
0.7948162717
 40
1.0
 40
1.0
 40
1.0
 40
1.0
 10
127.4163799919
 20
468.6125000023
 30
0.0
 10
127.4719631086
 20
468.611328424
 30
0.0
 10
127.5798130011
 20
468.6075416685
 30
0.0
 10
127.7503855183
 20
468.5753337609
 30
0.0
 10
127.8980274663
 20
468.5022019516
 30
0.0
 10
128.0353946062
 20
468.3973427387
 30
0.0
 10
128.1053018119
 20
468.317152605
 30
0.0
 10
128.1417706169
 20
468.2738281283
 30
0.0
  0
SPLINE
  5
2FE
100
AcDbEntity
  8
0
100
AcDbSpline
 62
7
  6
BYLAYER
 70
0
 71
3
 72
11
 73
7
 74
0
 42
0.0000001
 43
0.0000001
 44
0.0000000001
 40
0.0
 40
0.0
 40
0.0
 40
0.0
 40
0.4056831975
 40
0.6001846505
 40
0.7987849991
 40
1.0
 40
1.0
 40
1.0
 40
1.0
 10
128.1417706169
 20
468.2738281283
 30
0.0
 10
128.2013797353
 20
468.1970719883
 30
0.0
 10
128.2847872863
 20
468.0990458495
 30
0.0
 10
128.4235830712
 20
467.960270983
 30
0.0
 10
128.5503894917
 20
467.8959511622
 30
0.0
 10
128.6407907236
 20
467.8863905346
 30
0.0
 10
128.6890362419
 20
467.8847656263
 30
0.0
  0
SPLINE
  5
2FF
100
AcDbEntity
  8
0
100
AcDbSpline
 62
7
  6
BYLAYER
 70
0
 71
3
 72
12
 73
8
 74
0
 42
0.0000001
 43
0.0000001
 44
0.0000000001
 40
0.0
 40
0.0
 40
0.0
 40
0.0
 40
0.2000674422
 40
0.397618443
 40
0.5973898103
 40
0.7971767363
 40
1.0
 40
1.0
 40
1.0
 40
1.0
 10
128.6890362419
 20
467.8847656263
 30
0.0
 10
128.7367444819
 20
467.8861105913
 30
0.0
 10
128.8308985325
 20
467.8909805262
 30
0.0
 10
128.9714622281
 20
467.9390868003
 30
0.0
 10
129.0802216761
 20
468.0330055346
 30
0.0
 10
129.1547915275
 20
468.1615276718
 30
0.0
 10
129.1620207653
 20
468.2560242756
 30
0.0
 10
129.1648174919
 20
468.3042968773
 30
0.0
  0
SPLINE
  5
300
100
AcDbEntity
  8
0
100
AcDbSpline
 62
7
  6
BYLAYER
 70
0
 71
3
 72
14
 73
10
 74
0
 42
0.0000001
 43
0.0000001
 44
0.0000000001
 40
0.0
 40
0.0
 40
0.0
 40
0.0
 40
0.0641648964
 40
0.1338249609
 40
0.2295797804
 40
0.3426949569
 40
0.4896865074
 40
0.8073216806
 40
1.0
 40
1.0
 40
1.0
 40
1.0
 10
129.1648174919
 20
468.3042968773
 30
0.0
 10
129.1625030203
 20
468.3525918556
 30
0.0
 10
129.1526168213
 20
468.4474820567
 30
0.0
 10
129.0800789526
 20
468.6106238106
 30
0.0
 10
128.9570055608
 20
468.7749349632
 30
0.0
 10
128.7610204425
 20
468.9442930396
 30
0.0
 10
128.3667801118
 20
469.1601343058
 30
0.0
 10
127.9386426587
 20
469.2654759657
 30
0.0
 10
127.5308972603
 20
469.2846413266
 30
0.0
 10
127.3859112419
 20
469.2875000033
 30
0.0
  0
SPLINE
  5
301
100
AcDbEntity
  8
0
100
AcDbSpline
 62
7
  6
BYLAYER
 70
0
 71
3
 72
14
 73
10
 74
0
 42
0.0000001
 43
0.0000001
 44
0.0000000001
 40
0.0
 40
0.0
 40
0.0
 40
0.0
 40
0.1927758493
 40
0.3316485148
 40
0.4705601572
 40
0.5828680924
 40
0.7998451555
 40
0.8993964626
 40
1.0
 40
1.0
 40
1.0
 40
1.0
 10
127.3859112419
 20
469.2875000033
 30
0.0
 10
127.2365088619
 20
469.28433844
 30
0.0
 10
126.9928857599
 20
469.2731847294
 30
0.0
 10
126.6312354951
 20
469.1915443424
 30
0.0
 10
126.3536332285
 20
469.0706650272
 30
0.0
 10
126.045754799
 20
468.8753672421
 30
0.0
 10
125.8301627646
 20
468.6083742721
 30
0.0
 10
125.7151906516
 20
468.3011926394
 30
0.0
 10
125.7026152579
 20
468.1490984206
 30
0.0
 10
125.6995831179
 20
468.0710937523
 30
0.0
  0
SPLINE
  5
302
100
AcDbEntity
  8
0
100
AcDbSpline
 62
7
  6
BYLAYER
 70
0
 71
3
 72
13
 73
9
 74
0
 42
0.0000001
 43
0.0000001
 44
0.0000000001
 40
0.0
 40
0.0
 40
0.0
 40
0.0
 40
0.1698314098
 40
0.330716415
 40
0.4982564099
 40
0.6741127804
 40
0.8959339916
 40
1.0
 40
1.0
 40
1.0
 40
1.0
 10
125.6995831179
 20
468.0710937523
 30
0.0
 10
125.7022770713
 20
467.9950595423
 30
0.0
 10
125.7117579248
 20
467.8451604372
 30
0.0
 10
125.7926549802
 20
467.6307033734
 30
0.0
 10
125.9252039169
 20
467.4469552076
 30
0.0
 10
126.1161463799
 20
467.2779625475
 30
0.0
 10
126.3078180016
 20
467.1621481669
 30
0.0
 10
126.4421140076
 20
467.09978281
 30
0.0
 10
126.4856781839
 20
467.0810097236
 30
0.0
  0
SPLINE
  5
303
100
AcDbEntity
  8
0
100
AcDbSpline
 62
7
  6
BYLAYER
 70
0
 71
3
 72
9
 73
5
 74
0
 42
0.0000001
 43
0.0000001
 44
0.0000000001
 40
0.0
 40
0.0
 40
0.0
 40
0.0
 40
0.5142820359
 40
1.0
 40
1.0
 40
1.0
 40
1.0
 10
126.4856781839
 20
467.0810097236
 30
0.0
 10
126.6423588498
 20
467.0134914109
 30
0.0
 10
126.964102302
 20
466.9109315229
 30
0.0
 10
127.2627027369
 20
466.83451161
 30
0.0
 10
127.4163799919
 20
466.7972656283
 30
0.0
  0
SPLINE
  5
304
100
AcDbEntity
  8
0
100
AcDbSpline
 62
7
  6
BYLAYER
 70
0
 71
3
 72
12
 73
8
 74
0
 42
0.0000001
 43
0.0000001
 44
0.0000000001
 40
0.0
 40
0.0
 40
0.0
 40
0.0
 40
0.3350589624
 40
0.5375062821
 40
0.8014408665
 40
0.9007204336
 40
1.0
 40
1.0
 40
1.0
 40
1.0
 10
127.4163799919
 20
466.7972656283
 30
0.0
 10
127.5491988219
 20
466.7638574383
 30
0.0
 10
127.7650009356
 20
466.7078772892
 30
0.0
 10
128.062733587
 20
466.5950568623
 30
0.0
 10
128.2569674504
 20
466.4563670154
 30
0.0
 10
128.3189317708
 20
466.2721294185
 30
0.0
 10
128.3226573296
 20
466.191016574
 30
0.0
 10
128.3245831179
 20
466.1503906273
 30
0.0
  0
SPLINE
  5
305
100
AcDbEntity
  8
0
100
AcDbSpline
 62
7
  6
BYLAYER
 70
0
 71
3
 72
14
 73
10
 74
0
 42
0.0000001
 43
0.0000001
 44
0.0000000001
 40
0.0
 40
0.0
 40
0.0
 40
0.0
 40
0.0883117753
 40
0.1523767681
 40
0.2317969771
 40
0.3987294565
 40
0.5997610441
 40
0.8006165023
 40
1.0
 40
1.0
 40
1.0
 40
1.0
 10
128.3245831179
 20
466.1503906273
 30
0.0
 10
128.3222385796
 20
466.122371384
 30
0.0
 10
128.3183784779
 20
466.0737368611
 30
0.0
 10
128.2906583239
 20
466.005016469
 30
0.0
 10
128.2364898099
 20
465.921766646
 30
0.0
 10
128.1292261134
 20
465.8257158947
 30
0.0
 10
127.9696795969
 20
465.7426123714
 30
0.0
 10
127.7853344877
 20
465.6949595829
 30
0.0
 10
127.6577048269
 20
465.6898916346
 30
0.0
 10
127.5945049919
 20
465.6875000013
 30
0.0
  0
SPLINE
  5
306
100
AcDbEntity
  8
0
100
AcDbSpline
 62
7
  6
BYLAYER
 70
0
 71
3
 72
11
 73
7
 74
0
 42
0.0000001
 43
0.0000001
 44
0.0000000001
 40
0.0
 40
0.0
 40
0.0
 40
0.0
 40
0.2711292619
 40
0.4412690391
 40
0.7997442694
 40
1.0
 40
1.0
 40
1.0
 40
1.0
 10
127.5945049919
 20
465.6875000013
 30
0.0
 10
127.4820425419
 20
465.689383383
 30
0.0
 10
127.313089772
 20
465.6998347633
 30
0.0
 10
126.9853605668
 20
465.7882157926
 30
0.0
 10
126.746362668
 20
465.9874811081
 30
0.0
 10
126.6221724663
 20
466.175848215
 30
0.0
 10
126.5784893679
 20
466.2464843783
 30
0.0
  0
SPLINE
  5
307
100
AcDbEntity
  8
0
100
AcDbSpline
 62
7
  6
BYLAYER
 70
0
 71
3
 72
11
 73
7
 74
0
 42
0.0000001
 43
0.0000001
 44
0.0000000001
 40
0.0
 40
0.0
 40
0.0
 40
0.0
 40
0.1997237381
 40
0.6009002715
 40
0.8003674351
 40
1.0
 40
1.0
 40
1.0
 40
1.0
 10
126.5784893679
 20
466.2464843783
 30
0.0
 10
126.5574841246
 20
466.2793013616
 30
0.0
 10
126.4943384212
 20
466.377532083
 30
0.0
 10
126.3898270098
 20
466.4991077523
 30
0.0
 10
126.2384159264
 20
466.5507411352
 30
0.0
 10
126.1604155753
 20
466.5537305663
 30
0.0
 10
126.1214581169
 20
466.5546875013
 30
0.0
  0
SPLINE
  5
308
100
AcDbEntity
  8
0
100
AcDbSpline
 62
7
  6
BYLAYER
 70
0
 71
3
 72
12
 73
8
 74
0
 42
0.0000001
 43
0.0000001
 44
0.0000000001
 40
0.0
 40
0.0
 40
0.0
 40
0.0
 40
0.1984662311
 40
0.398557932
 40
0.5990190307
 40
0.7973418541
 40
1.0
 40
1.0
 40
1.0
 40
1.0
 10
126.1214581169
 20
466.5546875013
 30
0.0
 10
126.0738488069
 20
466.5523858146
 30
0.0
 10
125.9770257951
 20
466.5457762788
 30
0.0
 10
125.8456319539
 20
466.4834241375
 30
0.0
 10
125.7407530083
 20
466.3871401775
 30
0.0
 10
125.6641662719
 20
466.257964324
 30
0.0
 10
125.6552959963
 20
466.1650295006
 30
0.0
 10
125.6527081179
 20
466.1164062523
 30
0.0
  0
SPLINE
  5
309
100
AcDbEntity
  8
0
100
AcDbSpline
 62
7
  6
BYLAYER
 70
0
 71
3
 72
13
 73
9
 74
0
 42
0.0000001
 43
0.0000001
 44
0.0000000001
 40
0.0
 40
0.0
 40
0.0
 40
0.0
 40
0.0936974814
 40
0.1781736747
 40
0.285026259
 40
0.5073826518
 40
0.7971757164
 40
1.0
 40
1.0
 40
1.0
 40
1.0
 10
125.6527081179
 20
466.1164062523
 30
0.0
 10
125.6571348829
 20
466.0411568023
 30
0.0
 10
125.6711288251
 20
465.9041853282
 30
0.0
 10
125.7646930036
 20
465.6895513032
 30
0.0
 10
125.9534632554
 20
465.4156563494
 30
0.0
 10
126.3848957824
 20
465.1185855378
 30
0.0
 10
126.924838721
 20
464.9600586792
 30
0.0
 10
127.3072882336
 20
464.941184433
 30
0.0
 10
127.4702862419
 20
464.9375000013
 30
0.0
  0
SPLINE
  5
30A
100
AcDbEntity
  8
0
100
AcDbSpline
 62
7
  6
BYLAYER
 70
0
 71
3
 72
14
 73
10
 74
0
 42
0.0000001
 43
0.0000001
 44
0.0000000001
 40
0.0
 40
0.0
 40
0.0
 40
0.0
 40
0.1262445845
 40
0.2663144142
 40
0.3945786796
 40
0.6048472143
 40
0.7994079973
 40
0.9005391648
 40
1.0
 40
1.0
 40
1.0
 40
1.0
 10
127.4702862419
 20
464.9375000013
 30
0.0
 10
127.5829526203
 20
464.9395983496
 30
0.0
 10
127.8297553601
 20
464.9459631701
 30
0.0
 10
128.1824384248
 20
464.9977380232
 30
0.0
 10
128.5935114216
 20
465.1212793864
 30
0.0
 10
129.0040814545
 20
465.3527178078
 30
0.0
 10
129.2750037367
 20
465.7687358732
 30
0.0
 10
129.3619731527
 20
466.1061444646
 30
0.0
 10
129.3714567553
 20
466.292486661
 30
0.0
 10
129.3745831169
 20
466.3812500028
 30
0.0
  0
SPLINE
  5
30B
100
AcDbEntity
  8
0
100
AcDbSpline
 62
7
  6
BYLAYER
 70
0
 71
3
 72
13
 73
9
 74
0
 42
0.0000001
 43
0.0000001
 44
0.0000000001
 40
0.0
 40
0.0
 40
0.0
 40
0.0
 40
0.1369775296
 40
0.2502627458
 40
0.357002789
 40
0.6291805606
 40
0.7987323583
 40
1.0
 40
1.0
 40
1.0
 40
1.0
 10
129.3745831169
 20
466.3812500028
 30
0.0
 10
129.3705620636
 20
466.4760309093
 30
0.0
 10
129.3532618322
 20
466.636646646
 30
0.0
 10
129.247245808
 20
466.8625376829
 30
0.0
 10
129.0214976048
 20
467.1248205216
 30
0.0
 10
128.710726603
 20
467.3134009365
 30
0.0
 10
128.2856911779
 20
467.4763581579
 30
0.0
 10
128.0519453453
 20
467.538340869
 30
0.0
 10
127.9167706169
 20
467.5718750023
 30
0.0
  0
SPLINE
  5
30C
100
AcDbEntity
  8
0
100
AcDbSpline
 62
7
  6
BYLAYER
 70
0
 71
3
 72
12
 73
8
 74
0
 42
0.0000001
 43
0.0000001
 44
0.0000000001
 40
0.0
 40
0.0
 40
0.0
 40
0.0
 40
0.421159396
 40
0.6157612369
 40
0.8111622801
 40
0.9055811392
 40
1.0
 40
1.0
 40
1.0
 40
1.0
 10
109.4995831169
 20
466.8957031273
 30
0.0
 10
109.4985872336
 20
466.781440249
 30
0.0
 10
109.4958800248
 20
466.654078947
 30
0.0
 10
109.463051851
 20
466.4344436676
 30
0.0
 10
109.4312616952
 20
466.3151063091
 30
0.0
 10
109.3930887716
 20
466.2166404369
 30
0.0
 10
109.3673146491
 20
466.1724564615
 30
0.0
 10
109.3542706172
 20
466.1503906261
 30
0.0
  0
SPLINE
  5
30D
100
AcDbEntity
  8
0
100
AcDbSpline
 62
7
  6
BYLAYER
 70
0
 71
3
 72
11
 73
7
 74
0
 42
0.0000001
 43
0.0000001
 44
0.0000000001
 40
0.0
 40
0.0
 40
0.0
 40
0.0
 40
0.2149608639
 40
0.3995953223
 40
0.8044269234
 40
1.0
 40
1.0
 40
1.0
 40
1.0
 10
109.3542706171
 20
466.1503906262
 30
0.0
 10
109.3066788407
 20
466.0823219133
 30
0.0
 10
109.2178878165
 20
465.9719641926
 30
0.0
 10
108.9487244057
 20
465.7944014302
 30
0.0
 10
108.6796933172
 20
465.7038227978
 30
0.0
 10
108.4442309329
 20
465.6896310289
 30
0.0
 10
108.3687237409
 20
465.6875000023
 30
0.0
  0
SPLINE
  5
30E
100
AcDbEntity
  8
0
100
AcDbSpline
 62
7
  6
BYLAYER
 70
0
 71
3
 72
12
 73
8
 74
0
 42
0.0000001
 43
0.0000001
 44
0.0000000001
 40
0.0
 40
0.0
 40
0.0
 40
0.0
 40
0.2406570477
 40
0.4345286269
 40
0.6249843991
 40
0.7956828807
 40
1.0
 40
1.0
 40
1.0
 40
1.0
 10
108.368723741
 20
465.6875000023
 30
0.0
 10
108.290762953
 20
465.689867149
 30
0.0
 10
108.1558706836
 20
465.6994928209
 30
0.0
 10
107.9631918727
 20
465.7776587248
 30
0.0
 10
107.8239169627
 20
465.8925203224
 30
0.0
 10
107.7188501439
 20
466.0511996546
 30
0.0
 10
107.7034609677
 20
466.1650789443
 30
0.0
 10
107.699583116
 20
466.2312500023
 30
0.0
  0
SPLINE
  5
30F
100
AcDbEntity
  8
0
100
AcDbSpline
 62
7
  6
BYLAYER
 70
0
 71
3
 72
19
 73
15
 74
0
 42
0.0000001
 43
0.0000001
 44
0.0000000001
 40
0.0
 40
0.0
 40
0.0
 40
0.0
 40
0.0457194799
 40
0.0854561027
 40
0.1238383282
 40
0.1622205537
 40
0.233252382
 40
0.3402536729
 40
0.4086355103
 40
0.5276905384
 40
0.6012689501
 40
0.798371283
 40
0.8991856417
 40
1.0
 40
1.0
 40
1.0
 40
1.0
 10
107.6995831159
 20
466.2312500023
 30
0.0
 10
107.7008377292
 20
466.2631758993
 30
0.0
 10
107.7028939554
 20
466.3231086551
 30
0.0
 10
107.7285190424
 20
466.4060986123
 30
0.0
 10
107.7648378293
 20
466.4795772208
 30
0.0
 10
107.8322001325
 20
466.5586287343
 30
0.0
 10
107.9542871236
 20
466.6461314533
 30
0.0
 10
108.1210019268
 20
466.7238202104
 30
0.0
 10
108.3197036258
 20
466.7668506159
 30
0.0
 10
108.4986310514
 20
466.8050173303
 30
0.0
 10
108.763091026
 20
466.8585179763
 30
0.0
 10
109.0293490756
 20
466.9121834859
 30
0.0
 10
109.2977885113
 20
466.9751347397
 30
0.0
 10
109.432753158
 20
467.0157758461
 30
0.0
 10
109.499583116
 20
467.037500001
 30
0.0
  0
SPLINE
  5
310
100
AcDbEntity
  8
0
100
AcDbSpline
 62
7
  6
BYLAYER
 70
0
 71
3
 72
13
 73
9
 74
0
 42
0.0000001
 43
0.0000001
 44
0.0000000001
 40
0.0
 40
0.0
 40
0.0
 40
0.0
 40
0.2073503211
 40
0.4065160946
 40
0.605673287
 40
0.8007101169
 40
0.9003550585
 40
1.0
 40
1.0
 40
1.0
 40
1.0
 10
110.2425518659
 20
464.9375000023
 30
0.0
 10
110.2934469926
 20
464.9397076906
 30
0.0
 10
110.3898112532
 20
464.9488336352
 30
0.0
 10
110.5273573853
 20
465.0147383645
 30
0.0
 10
110.6405541943
 20
465.1070741034
 30
0.0
 10
110.7143339616
 20
465.2051086868
 30
0.0
 10
110.7465011759
 20
465.2976099378
 30
0.0
 10
110.7495273236
 20
465.3466475573
 30
0.0
 10
110.7511456169
 20
465.3710937523
 30
0.0
  0
SPLINE
  5
311
100
AcDbEntity
  8
0
100
AcDbSpline
 62
7
  6
BYLAYER
 70
0
 71
3
 72
13
 73
9
 74
0
 42
0.0000001
 43
0.0000001
 44
0.0000000001
 40
0.0
 40
0.0
 40
0.0
 40
0.0
 40
0.1003687157
 40
0.2007374314
 40
0.4014701771
 40
0.5985248878
 40
0.7993057577
 40
1.0
 40
1.0
 40
1.0
 40
1.0
 10
110.7511456169
 20
465.3710937523
 30
0.0
 10
110.7484450619
 20
465.406663809
 30
0.0
 10
110.7397487511
 20
465.4775223401
 30
0.0
 10
110.7028790285
 20
465.6158640413
 30
0.0
 10
110.6516289267
 20
465.7833058629
 30
0.0
 10
110.5925316899
 20
465.9948180631
 30
0.0
 10
110.5575349507
 20
466.2032985612
 30
0.0
 10
110.5508518778
 20
466.3462629892
 30
0.0
 10
110.5495831179
 20
466.4175781302
 30
0.0
  0
SPLINE
  5
312
100
AcDbEntity
  8
0
100
AcDbSpline
 62
7
  6
BYLAYER
 70
0
 71
3
 72
17
 73
13
 74
0
 42
0.0000001
 43
0.0000001
 44
0.0000000001
 40
0.0
 40
0.0
 40
0.0
 40
0.0
 40
0.1464834523
 40
0.2578893206
 40
0.3354091087
 40
0.413359482
 40
0.4949042478
 40
0.5940813965
 40
0.6810011716
 40
0.7987071218
 40
0.8978843847
 40
1.0
 40
1.0
 40
1.0
 40
1.0
 10
110.557786242
 20
467.6386718735
 30
0.0
 10
110.556881082
 20
467.7814211182
 30
0.0
 10
110.5460302435
 20
468.0244050436
 30
0.0
 10
110.48840808
 20
468.3397532503
 30
0.0
 10
110.3977110096
 20
468.5993989925
 30
0.0
 10
110.2740208065
 20
468.8052363561
 30
0.0
 10
110.0901933038
 20
468.9806964125
 30
0.0
 10
109.8881693157
 20
469.1013051207
 30
0.0
 10
109.5931038653
 20
469.203495628
 30
0.0
 10
109.3137119324
 20
469.2557926123
 30
0.0
 10
108.9959075444
 20
469.2832860144
 30
0.0
 10
108.8127653343
 20
469.2869589596
 30
0.0
 10
108.7132549909
 20
469.2875000013
 30
0.0
  0
SPLINE
  5
313
100
AcDbEntity
  8
0
100
AcDbSpline
 62
7
  6
BYLAYER
 70
0
 71
3
 72
13
 73
9
 74
0
 42
0.0000001
 43
0.0000001
 44
0.0000000001
 40
0.0
 40
0.0
 40
0.0
 40
0.0
 40
0.1952230902
 40
0.3374522362
 40
0.5980322908
 40
0.8055981135
 40
0.897644319
 40
1.0
 40
1.0
 40
1.0
 40
1.0
 10
108.7132549909
 20
469.2875000013
 30
0.0
 10
108.5529513426
 20
469.2847596463
 30
0.0
 10
108.2841251073
 20
469.2752255896
 30
0.0
 10
107.7992689303
 20
469.1846496838
 30
0.0
 10
107.3185178078
 20
468.9807281608
 30
0.0
 10
107.0008212035
 20
468.6591863673
 30
0.0
 10
106.8590874657
 20
468.3524293809
 30
0.0
 10
106.8417369319
 20
468.203151644
 30
0.0
 10
106.8370831169
 20
468.1191406273
 30
0.0
  0
SPLINE
  5
314
100
AcDbEntity
  8
0
100
AcDbSpline
 62
7
  6
BYLAYER
 70
0
 71
3
 72
12
 73
8
 74
0
 42
0.0000001
 43
0.0000001
 44
0.0000000001
 40
0.0
 40
0.0
 40
0.0
 40
0.0
 40
0.0996827256
 40
0.1993654512
 40
0.3984704747
 40
0.7975160485
 40
1.0
 40
1.0
 40
1.0
 40
1.0
 10
106.8370831169
 20
468.1191406273
 30
0.0
 10
106.8381711853
 20
468.0966381756
 30
0.0
 10
106.8400823788
 20
468.0515611661
 30
0.0
 10
106.8607876865
 20
467.9637154118
 30
0.0
 10
106.9362911242
 20
467.8223218418
 30
0.0
 10
107.1002309528
 20
467.7186616788
 30
0.0
 10
107.2320170559
 20
467.7061735806
 30
0.0
 10
107.2777081159
 20
467.7042968773
 30
0.0
  0
SPLINE
  5
315
100
AcDbEntity
  8
0
100
AcDbSpline
 62
7
  6
BYLAYER
 70
0
 71
3
 72
16
 73
12
 74
0
 42
0.0000001
 43
0.0000001
 44
0.0000000001
 40
0.0
 40
0.0
 40
0.0
 40
0.0
 40
0.0769405465
 40
0.1308327646
 40
0.17912631
 40
0.2315585166
 40
0.2839907233
 40
0.4383246449
 40
0.6828827276
 40
0.7968846816
 40
1.0
 40
1.0
 40
1.0
 40
1.0
 10
107.2777081159
 20
467.7042968773
 30
0.0
 10
107.3231433959
 20
467.7052596006
 30
0.0
 10
107.3995055418
 20
467.7093407934
 30
0.0
 10
107.5053789671
 20
467.7383047278
 30
0.0
 10
107.5665128428
 20
467.8096450107
 30
0.0
 10
107.6158882698
 20
467.8841512829
 30
0.0
 10
107.7044384737
 20
468.0124415895
 30
0.0
 10
107.8153995225
 20
468.2109923864
 30
0.0
 10
108.0851636615
 20
468.4469401237
 30
0.0
 10
108.4061460113
 20
468.5279543585
 30
0.0
 10
108.5875437676
 20
468.535292918
 30
0.0
 10
108.7073956159
 20
468.5375000013
 30
0.0
  0
SPLINE
  5
316
100
AcDbEntity
  8
0
100
AcDbSpline
 62
7
  6
BYLAYER
 70
0
 71
3
 72
13
 73
9
 74
0
 42
0.0000001
 43
0.0000001
 44
0.0000000001
 40
0.0
 40
0.0
 40
0.0
 40
0.0
 40
0.2651702257
 40
0.4067129672
 40
0.474882482
 40
0.5430519968
 40
0.8002140485
 40
1.0
 40
1.0
 40
1.0
 40
1.0
 10
108.7073956159
 20
468.5375000013
 30
0.0
 10
108.8252459659
 20
468.535296913
 30
0.0
 10
109.0095211788
 20
468.5264291585
 30
0.0
 10
109.2055059466
 20
468.4502300394
 30
0.0
 10
109.3048938272
 20
468.3743040779
 30
0.0
 10
109.4084092945
 20
468.2312728082
 30
0.0
 10
109.4776509421
 20
468.0035242054
 30
0.0
 10
109.4939498453
 20
467.8011601756
 30
0.0
 10
109.4995831169
 20
467.7125000023
 30
0.0
  0
SPLINE
  5
317
100
AcDbEntity
  8
0
100
AcDbSpline
 62
7
  6
BYLAYER
 70
0
 71
3
 72
14
 73
10
 74
0
 42
0.0000001
 43
0.0000001
 44
0.0000000001
 40
0.0
 40
0.0
 40
0.0
 40
0.0
 40
0.3674390845
 40
0.5967369949
 40
0.6975530509
 40
0.7983691068
 40
0.8991841263
 40
0.9495920631
 40
1.0
 40
1.0
 40
1.0
 40
1.0
 10
109.4995831169
 20
467.7125000023
 30
0.0
 10
109.2800462553
 20
467.6476435473
 30
0.0
 10
108.8031258468
 20
467.5155593556
 30
0.0
 10
108.4927021
 20
467.447524083
 30
0.0
 10
108.2201511624
 20
467.3870638621
 30
0.0
 10
108.0374591313
 20
467.3500055035
 30
0.0
 10
107.8836759744
 20
467.3159363763
 30
0.0
 10
107.7608645434
 20
467.28981495
 30
0.0
 10
107.6997299369
 20
467.2753547116
 30
0.0
 10
107.6691143669
 20
467.2683593783
 30
0.0
  0
SPLINE
  5
318
100
AcDbEntity
  8
0
100
AcDbSpline
 62
7
  6
BYLAYER
 70
0
 71
3
 72
14
 73
10
 74
0
 42
0.0000001
 43
0.0000001
 44
0.0000000001
 40
0.0
 40
0.0
 40
0.0
 40
0.0
 40
0.2129606891
 40
0.3541538155
 40
0.4990674149
 40
0.6469335178
 40
0.7966576042
 40
0.8974686016
 40
1.0
 40
1.0
 40
1.0
 40
1.0
 10
107.6691143669
 20
467.2683593783
 30
0.0
 10
107.5548675419
 20
467.2411201066
 30
0.0
 10
107.3803022415
 20
467.1916627106
 30
0.0
 10
107.1092483336
 20
467.0398862588
 30
0.0
 10
106.9356743009
 20
466.886533926
 30
0.0
 10
106.7819707756
 20
466.6843461824
 30
0.0
 10
106.696020583
 20
466.4827597379
 30
0.0
 10
106.6562976114
 20
466.2891645796
 30
0.0
 10
106.6511241303
 20
466.1811413473
 30
0.0
 10
106.6495831169
 20
466.1246093773
 30
0.0
  0
SPLINE
  5
319
100
AcDbEntity
  8
0
100
AcDbSpline
 62
7
  6
BYLAYER
 70
0
 71
3
 72
14
 73
10
 74
0
 42
0.0000001
 43
0.0000001
 44
0.0000000001
 40
0.0
 40
0.0
 40
0.0
 40
0.0
 40
0.1498410977
 40
0.2759321079
 40
0.3992664225
 40
0.5324644161
 40
0.6683067874
 40
0.7986574623
 40
1.0
 40
1.0
 40
1.0
 40
1.0
 10
106.6495831169
 20
466.1246093773
 30
0.0
 10
106.6533489703
 20
466.0221914123
 30
0.0
 10
106.6708258818
 20
465.8483111433
 30
0.0
 10
106.7699532951
 20
465.5922296469
 30
0.0
 10
106.9198855898
 20
465.3736239589
 30
0.0
 10
107.1163405876
 20
465.1963210806
 30
0.0
 10
107.3487412982
 20
465.0600769554
 30
0.0
 10
107.662180681
 20
464.9559230014
 30
0.0
 10
107.8772655019
 20
464.941932124
 30
0.0
 10
108.0148174919
 20
464.9375000023
 30
0.0
  0
SPLINE
  5
31A
100
AcDbEntity
  8
0
100
AcDbSpline
 62
7
  6
BYLAYER
 70
0
 71
3
 72
11
 73
7
 74
0
 42
0.0000001
 43
0.0000001
 44
0.0000000001
 40
0.0
 40
0.0
 40
0.0
 40
0.0
 40
0.2208537034
 40
0.4059136131
 40
0.600220241
 40
1.0
 40
1.0
 40
1.0
 40
1.0
 10
108.0148174919
 20
464.9375000023
 30
0.0
 10
108.1432532686
 20
464.9410127656
 30
0.0
 10
108.3657268715
 20
464.9533660715
 30
0.0
 10
108.7115378199
 20
465.0423501061
 30
0.0
 10
109.1156290066
 20
465.2362586088
 30
0.0
 10
109.3898584513
 20
465.4375424223
 30
0.0
 10
109.5710674929
 20
465.5832031273
 30
0.0
  0
SPLINE
  5
31B
100
AcDbEntity
  8
0
100
AcDbSpline
 62
7
  6
BYLAYER
 70
0
 71
3
 72
12
 73
8
 74
0
 42
0.0000001
 43
0.0000001
 44
0.0000000001
 40
0.0
 40
0.0
 40
0.0
 40
0.0
 40
0.2197134687
 40
0.6233152004
 40
0.8016023311
 40
0.9008011656
 40
1.0
 40
1.0
 40
1.0
 40
1.0
 10
109.5710674929
 20
465.5832031273
 30
0.0
 10
109.6072207779
 20
465.5214781073
 30
0.0
 10
109.713176897
 20
465.3472025498
 30
0.0
 10
109.8620558087
 20
465.1399875157
 30
0.0
 10
110.0317266959
 20
464.9972044332
 30
0.0
 10
110.1454920707
 20
464.9459728288
 30
0.0
 10
110.2102809826
 20
464.940005964
 30
0.0
 10
110.2425518659
 20
464.9375000023
 30
0.0
  0
SPLINE
  5
31C
100
AcDbEntity
  8
0
100
AcDbSpline
 62
7
  6
BYLAYER
 70
0
 71
3
 72
14
 73
10
 74
0
 42
0.0000001
 43
0.0000001
 44
0.0000000001
 40
0.0
 40
0.0
 40
0.0
 40
0.0
 40
0.1600934108
 40
0.3077017315
 40
0.4362444239
 40
0.5642377107
 40
0.679155646
 40
0.7952892982
 40
1.0
 40
1.0
 40
1.0
 40
1.0
 10
112.4245831169
 20
467.1382812523
 30
0.0
 10
112.4264653119
 20
467.238864079
 30
0.0
 10
112.4323602086
 20
467.4208340736
 30
0.0
 10
112.4872636508
 20
467.7032540986
 30
0.0
 10
112.5815773613
 20
467.9460681358
 30
0.0
 10
112.7154529301
 20
468.1433588033
 30
0.0
 10
112.8889741737
 20
468.3035908395
 30
0.0
 10
113.1329144696
 20
468.4342785847
 30
0.0
 10
113.3284224179
 20
468.458234784
 30
0.0
 10
113.4570049929
 20
468.4625000023
 30
0.0
  0
SPLINE
  5
31D
100
AcDbEntity
  8
0
100
AcDbSpline
 62
7
  6
BYLAYER
 70
0
 71
3
 72
13
 73
9
 74
0
 42
0.0000001
 43
0.0000001
 44
0.0000000001
 40
0.0
 40
0.0
 40
0.0
 40
0.0
 40
0.1564252201
 40
0.2709780582
 40
0.3890152229
 40
0.650273164
 40
0.7891900303
 40
1.0
 40
1.0
 40
1.0
 40
1.0
 10
113.4570049929
 20
468.4625000023
 30
0.0
 10
113.5600259563
 20
468.459390204
 30
0.0
 10
113.7281819342
 20
468.4448022127
 30
0.0
 10
113.9736064286
 20
468.3404996586
 30
0.0
 10
114.2298417695
 20
468.1378912496
 30
0.0
 10
114.4115910658
 20
467.843109699
 30
0.0
 10
114.5135025428
 20
467.4298236697
 30
0.0
 10
114.5224703719
 20
467.2349669012
 30
0.0
 10
114.5245831169
 20
467.0960937533
 30
0.0
  0
SPLINE
  5
31E
100
AcDbEntity
  8
0
100
AcDbSpline
 62
7
  6
BYLAYER
 70
0
 71
3
 72
10
 73
6
 74
0
 42
0.0000001
 43
0.0000001
 44
0.0000000001
 40
0.0
 40
0.0
 40
0.0
 40
0.0
 40
0.4918719467
 40
0.7757535751
 40
1.0
 40
1.0
 40
1.0
 40
1.0
 10
114.524583117
 20
467.0960937533
 30
0.0
 10
114.5204255486
 20
466.9350308846
 30
0.0
 10
114.5021363147
 20
466.6948632312
 30
0.0
 10
114.3734179887
 20
466.3893344235
 30
0.0
 10
114.2806158276
 20
466.2521353477
 30
0.0
 10
114.2338713458
 20
466.1961838434
 30
0.0
  0
SPLINE
  5
31F
100
AcDbEntity
  8
0
100
AcDbSpline
 62
7
  6
BYLAYER
 70
0
 71
3
 72
12
 73
8
 74
0
 42
0.0000001
 43
0.0000001
 44
0.0000000001
 40
0.0
 40
0.0
 40
0.0
 40
0.0
 40
0.046995221
 40
0.3152631877
 40
0.5816409475
 40
0.7908204737
 40
1.0
 40
1.0
 40
1.0
 40
1.0
 10
114.2338713458
 20
466.1961838434
 30
0.0
 10
114.2250928091
 20
466.185676243
 30
0.0
 10
114.1648331136
 20
466.1162745817
 30
0.0
 10
114.0364565211
 20
466.0022888449
 30
0.0
 10
113.8427562228
 20
465.9053217537
 30
0.0
 10
113.6484545314
 20
465.8468978759
 30
0.0
 10
113.5253837903
 20
465.840191034
 30
0.0
 10
113.4640362419
 20
465.8375000023
 30
0.0
  0
SPLINE
  5
320
100
AcDbEntity
  8
0
100
AcDbSpline
 62
7
  6
BYLAYER
 70
0
 71
3
 72
15
 73
11
 74
0
 42
0.0000001
 43
0.0000001
 44
0.0000000001
 40
0.0
 40
0.0
 40
0.0
 40
0.0
 40
0.0239799981
 40
0.1565704797
 40
0.2893861273
 40
0.4187306748
 40
0.549147315
 40
0.6751298446
 40
0.801754135
 40
1.0
 40
1.0
 40
1.0
 40
1.0
 10
113.4640362419
 20
465.8375000023
 30
0.0
 10
113.4488652953
 20
465.8377554656
 30
0.0
 10
113.3501373194
 20
465.8388895448
 30
0.0
 10
113.1604893178
 20
465.8683520844
 30
0.0
 10
112.9412278352
 20
465.9620154414
 30
0.0
 10
112.7417622454
 20
466.1210244193
 30
0.0
 10
112.5966691283
 20
466.3147648454
 30
0.0
 10
112.5034714948
 20
466.5313228772
 30
0.0
 10
112.4372704435
 20
466.8055934921
 30
0.0
 10
112.4269570736
 20
467.0129350806
 30
0.0
 10
112.4245831169
 20
467.1382812523
 30
0.0
  0
SPLINE
  5
321
100
AcDbEntity
  8
0
100
AcDbSpline
 62
7
  6
BYLAYER
 70
0
 71
3
 72
14
 73
10
 74
0
 42
0.0000001
 43
0.0000001
 44
0.0000000001
 40
0.0
 40
0.0
 40
0.0
 40
0.0
 40
0.0256348146
 40
0.124658608
 40
0.2236824014
 40
0.4250138652
 40
0.6224342438
 40
0.8019602255
 40
1.0
 40
1.0
 40
1.0
 40
1.0
 10
115.0577862419
 20
469.2957031263
 30
0.0
 10
115.0502803853
 20
469.2953896263
 30
0.0
 10
115.0137843385
 20
469.2938778714
 30
0.0
 10
114.9484546321
 20
469.2887657449
 30
0.0
 10
114.8362021032
 20
469.2508349535
 30
0.0
 10
114.7181654316
 20
469.1690996339
 30
0.0
 10
114.6214152267
 20
469.0269383711
 30
0.0
 10
114.5710611733
 20
468.8577291808
 30
0.0
 10
114.5657641463
 20
468.7454645323
 30
0.0
 10
114.5644268679
 20
468.6875000023
 30
0.0
  0
SPLINE
  5
322
100
AcDbEntity
  8
0
100
AcDbSpline
 62
7
  6
BYLAYER
 70
0
 71
3
 72
11
 73
7
 74
0
 42
0.0000001
 43
0.0000001
 44
0.0000000001
 40
0.0
 40
0.0
 40
0.0
 40
0.0
 40
0.2939850683
 40
0.4695007408
 40
0.8050823928
 40
1.0
 40
1.0
 40
1.0
 40
1.0
 10
114.5644268679
 20
468.5363281283
 30
0.0
 10
114.4608315046
 20
468.6709867983
 30
0.0
 10
114.3088138324
 20
468.8510887435
 30
0.0
 10
113.9288448334
 20
469.1392750465
 30
0.0
 10
113.5677089389
 20
469.2661689312
 30
0.0
 10
113.2613990436
 20
469.284235049
 30
0.0
 10
113.1488018669
 20
469.2875000023
 30
0.0
  0
SPLINE
  5
323
100
AcDbEntity
  8
0
100
AcDbSpline
 62
7
  6
BYLAYER
 70
0
 71
3
 72
15
 73
11
 74
0
 42
0.0000001
 43
0.0000001
 44
0.0000000001
 40
0.0
 40
0.0
 40
0.0
 40
0.0
 40
0.0761340028
 40
0.1738564088
 40
0.2727504655
 40
0.472411939
 40
0.6833993386
 40
0.8012296318
 40
0.9006148159
 40
1.0
 40
1.0
 40
1.0
 40
1.0
 10
113.1488018669
 20
469.2875000023
 30
0.0
 10
113.0703182519
 20
469.2857444006
 30
0.0
 10
112.8864937666
 20
469.2793092207
 30
0.0
 10
112.6066728305
 20
469.2192697517
 30
0.0
 10
112.2280116327
 20
469.0660829433
 30
0.0
 10
111.8082263561
 20
468.7169406047
 30
0.0
 10
111.5557164788
 20
468.2719448275
 30
0.0
 10
111.4305863239
 20
467.8411099269
 30
0.0
 10
111.382109443
 20
467.518590188
 30
0.0
 10
111.3765659576
 20
467.3133713456
 30
0.0
 10
111.3745831159
 20
467.2109375023
 30
0.0
  0
SPLINE
  5
324
100
AcDbEntity
  8
0
100
AcDbSpline
 62
7
  6
BYLAYER
 70
0
 71
3
 72
16
 73
12
 74
0
 42
0.0000001
 43
0.0000001
 44
0.0000000001
 40
0.0
 40
0.0
 40
0.0
 40
0.0
 40
0.1939229778
 40
0.3118587236
 40
0.4180178779
 40
0.5223350874
 40
0.6215617796
 40
0.7163323259
 40
0.8000927143
 40
0.8963392459
 40
1.0
 40
1.0
 40
1.0
 40
1.0
 10
111.3745831159
 20
467.2109375023
 30
0.0
 10
111.3800113843
 20
467.002865269
 30
0.0
 10
111.396738857
 20
466.6882517276
 30
0.0
 10
111.5094934001
 20
466.2495088831
 30
0.0
 10
111.6507996112
 20
465.9166071956
 30
0.0
 10
111.8367236277
 20
465.628526977
 30
0.0
 10
112.027302736
 20
465.4260245258
 30
0.0
 10
112.2698889015
 20
465.2407393383
 30
0.0
 10
112.5409523718
 20
465.1069795554
 30
0.0
 10
112.8559655594
 20
465.0252303356
 30
0.0
 10
113.0457785069
 20
465.014918623
 30
0.0
 10
113.1570049919
 20
465.0125000013
 30
0.0
  0
SPLINE
  5
325
100
AcDbEntity
  8
0
100
AcDbSpline
 62
7
  6
BYLAYER
 70
0
 71
3
 72
11
 73
7
 74
0
 42
0.0000001
 43
0.0000001
 44
0.0000000001
 40
0.0
 40
0.0
 40
0.0
 40
0.0
 40
0.2699666628
 40
0.4413765052
 40
0.7997795584
 40
1.0
 40
1.0
 40
1.0
 40
1.0
 10
113.1570049919
 20
465.0125000013
 30
0.0
 10
113.3022987136
 20
465.0166489413
 30
0.0
 10
113.5215687187
 20
465.0325220857
 30
0.0
 10
113.9369159746
 20
465.1728861921
 30
0.0
 10
114.2616633666
 20
465.4226813916
 30
0.0
 10
114.4406380236
 20
465.657064374
 30
0.0
 10
114.5046612419
 20
465.7437500023
 30
0.0
  0
SPLINE
  5
326
100
AcDbEntity
  8
0
100
AcDbSpline
 62
7
  6
BYLAYER
 70
0
 71
3
 72
20
 73
16
 74
0
 42
0.0000001
 43
0.0000001
 44
0.0000000001
 40
0.0
 40
0.0
 40
0.0
 40
0.0
 40
0.1190879604
 40
0.1681872457
 40
0.217286531
 40
0.277975728
 40
0.3083203269
 40
0.3386649258
 40
0.4582307759
 40
0.5457624342
 40
0.6300709454
 40
0.7125951134
 40
0.8039428607
 40
0.9015872396
 40
1.0
 40
1.0
 40
1.0
 40
1.0
 10
114.5046612419
 20
465.7437500023
 30
0.0
 10
114.5030069619
 20
465.648152899
 30
0.0
 10
114.5010199818
 20
465.5131329282
 30
0.0
 10
114.4964313966
 20
465.3387417178
 30
0.0
 10
114.4925440561
 20
465.2112404611
 30
0.0
 10
114.4889630143
 20
465.0987772607
 30
0.0
 10
114.4824451411
 20
465.0015364253
 30
0.0
 10
114.4755949001
 20
464.8569842882
 30
0.0
 10
114.4394883686
 20
464.6679802265
 30
0.0
 10
114.3613570474
 20
464.4486189901
 30
0.0
 10
114.2389390237
 20
464.2832993476
 30
0.0
 10
114.0679649695
 20
464.1600682399
 30
0.0
 10
113.8649828975
 20
464.0820441601
 30
0.0
 10
113.6274372311
 20
464.0426604067
 30
0.0
 10
113.4657336746
 20
464.038590894
 30
0.0
 10
113.3866924929
 20
464.0375000023
 30
0.0
  0
SPLINE
  5
327
100
AcDbEntity
  8
0
100
AcDbSpline
 62
7
  6
BYLAYER
 70
0
 71
3
 72
12
 73
8
 74
0
 42
0.0000001
 43
0.0000001
 44
0.0000000001
 40
0.0
 40
0.0
 40
0.0
 40
0.0
 40
0.055700983
 40
0.4372262265
 40
0.6244439509
 40
0.8003713671
 40
1.0
 40
1.0
 40
1.0
 40
1.0
 10
113.3866924929
 20
464.0375000023
 30
0.0
 10
113.3636417146
 20
464.0380328406
 30
0.0
 10
113.1831239381
 20
464.0416162572
 30
0.0
 10
112.9167761133
 20
464.0788881264
 30
0.0
 10
112.6608645129
 20
464.2453050861
 30
0.0
 10
112.5032382691
 20
464.4199393418
 30
0.0
 10
112.4073410229
 20
464.5416022606
 30
0.0
 10
112.3554424929
 20
464.6058593773
 30
0.0
  0
SPLINE
  5
328
100
AcDbEntity
  8
0
100
AcDbSpline
 62
7
  6
BYLAYER
 70
0
 71
3
 72
9
 73
5
 74
0
 42
0.0000001
 43
0.0000001
 44
0.0000000001
 40
0.0
 40
0.0
 40
0.0
 40
0.0
 40
0.5984920438
 40
1.0
 40
1.0
 40
1.0
 40
1.0
 10
112.3554424929
 20
464.6058593773
 30
0.0
 10
112.2946544413
 20
464.6885939956
 30
0.0
 10
112.1843180083
 20
464.8227026349
 30
0.0
 10
112.0210572736
 20
464.8564778433
 30
0.0
 10
111.9523174919
 20
464.8625000033
 30
0.0
  0
SPLINE
  5
329
100
AcDbEntity
  8
0
100
AcDbSpline
 62
7
  6
BYLAYER
 70
0
 71
3
 72
13
 73
9
 74
0
 42
0.0000001
 43
0.0000001
 44
0.0000000001
 40
0.0
 40
0.0
 40
0.0
 40
0.0
 40
0.1003257153
 40
0.2006514305
 40
0.4010401694
 40
0.6016261629
 40
0.799510984
 40
1.0
 40
1.0
 40
1.0
 40
1.0
 10
111.9523174919
 20
464.8625000033
 30
0.0
 10
111.9283616236
 20
464.86139025
 30
0.0
 10
111.8803543142
 20
464.8594564164
 30
0.0
 10
111.7870641626
 20
464.8365730795
 30
0.0
 10
111.679383191
 20
464.7798717293
 30
0.0
 10
111.5793406602
 20
464.6756292426
 30
0.0
 10
111.517313458
 20
464.5400546559
 30
0.0
 10
111.5102402269
 20
464.4451141113
 30
0.0
 10
111.5081768669
 20
464.3972656263
 30
0.0
  0
SPLINE
  5
32A
100
AcDbEntity
  8
0
100
AcDbSpline
 62
7
  6
BYLAYER
 70
0
 71
3
 72
13
 73
9
 74
0
 42
0.0000001
 43
0.0000001
 44
0.0000000001
 40
0.0
 40
0.0
 40
0.0
 40
0.0
 40
0.0853624169
 40
0.1567843146
 40
0.3623546451
 40
0.4879430026
 40
0.7971494772
 40
1.0
 40
1.0
 40
1.0
 40
1.0
 10
111.5081768669
 20
464.3972656263
 30
0.0
 10
111.5128671019
 20
464.3279008596
 30
0.0
 10
111.5274012913
 20
464.2041936487
 30
0.0
 10
111.6639669744
 20
463.9345888911
 30
0.0
 10
111.8887760721
 20
463.7135262965
 30
0.0
 10
112.3469546704
 20
463.4537641287
 30
0.0
 10
112.8551173624
 20
463.3097161416
 30
0.0
 10
113.2499385419
 20
463.2911785856
 30
0.0
 10
113.4148174919
 20
463.2875000023
 30
0.0
  0
SPLINE
  5
32B
100
AcDbEntity
  8
0
100
AcDbSpline
 62
7
  6
BYLAYER
 70
0
 71
3
 72
15
 73
11
 74
0
 42
0.0000001
 43
0.0000001
 44
0.0000000001
 40
0.0
 40
0.0
 40
0.0
 40
0.0
 40
0.062970848
 40
0.2887224111
 40
0.3803465234
 40
0.5406215393
 40
0.6227057442
 40
0.7131652703
 40
0.7994509454
 40
1.0
 40
1.0
 40
1.0
 40
1.0
 10
113.4148174919
 20
463.2875000023
 30
0.0
 10
113.4887041203
 20
463.2887721473
 30
0.0
 10
113.8277290916
 20
463.2946258175
 30
0.0
 10
114.270220844
 20
463.3406212082
 30
0.0
 10
114.8045801719
 20
463.5444618278
 30
0.0
 10
115.0988061688
 20
463.7559892274
 30
0.0
 10
115.3276048315
 20
464.0798232343
 30
0.0
 10
115.4467048842
 20
464.3544245652
 30
0.0
 10
115.5549444837
 20
464.7898712236
 30
0.0
 10
115.5710495819
 20
465.1134963933
 30
0.0
 10
115.5745831169
 20
465.3488281283
 30
0.0
  0
SPLINE
  5
32C
100
AcDbEntity
  8
0
100
AcDbSpline
 62
7
  6
BYLAYER
 70
0
 71
3
 72
12
 73
8
 74
0
 42
0.0000001
 43
0.0000001
 44
0.0000000001
 40
0.0
 40
0.0
 40
0.0
 40
0.0
 40
0.1790076431
 40
0.5407650739
 40
0.6681339265
 40
0.8000173671
 40
1.0
 40
1.0
 40
1.0
 40
1.0
 10
115.5745831169
 20
468.4789062523
 30
0.0
 10
115.5738422203
 20
468.5445083573
 30
0.0
 10
115.5695178214
 20
468.7400990875
 30
0.0
 10
115.5300057298
 20
468.9990337333
 30
0.0
 10
115.4061923306
 20
469.1944089489
 30
0.0
 10
115.2568570618
 20
469.2823878257
 30
0.0
 10
115.1310374453
 20
469.293579693
 30
0.0
 10
115.0577862419
 20
469.2957031263
 30
0.0
  0
SPLINE
  5
32D
100
AcDbEntity
  8
0
100
AcDbSpline
 62
7
  6
BYLAYER
 70
0
 71
3
 72
13
 73
9
 74
0
 42
0.0000001
 43
0.0000001
 44
0.0000000001
 40
0.0
 40
0.0
 40
0.0
 40
0.0
 40
0.197201027
 40
0.377572738
 40
0.5222325857
 40
0.6628329275
 40
0.801467903
 40
1.0
 40
1.0
 40
1.0
 40
1.0
 10
117.5995831158
 20
467.4875000003
 30
0.0
 10
117.6131348608
 20
467.593260404
 30
0.0
 10
117.6425594925
 20
467.7802900219
 30
0.0
 10
117.7386688309
 20
468.0388999993
 30
0.0
 10
117.8825802485
 20
468.2521806689
 30
0.0
 10
118.0530321584
 20
468.3991092236
 30
0.0
 10
118.2907509028
 20
468.5154379711
 30
0.0
 10
118.4696382536
 20
468.5339913773
 30
0.0
 10
118.576926867
 20
468.5375000023
 30
0.0
  0
SPLINE
  5
32E
100
AcDbEntity
  8
0
100
AcDbSpline
 62
7
  6
BYLAYER
 70
0
 71
3
 72
14
 73
10
 74
0
 42
0.0000001
 43
0.0000001
 44
0.0000000001
 40
0.0
 40
0.0
 40
0.0
 40
0.0
 40
0.0991248575
 40
0.2417603827
 40
0.3774447122
 40
0.5111874013
 40
0.6481344743
 40
0.7916401856
 40
1.0
 40
1.0
 40
1.0
 40
1.0
 10
118.5769268669
 20
468.5375000023
 30
0.0
 10
118.6315481819
 20
468.536837784
 30
0.0
 10
118.762447787
 20
468.5303033156
 30
0.0
 10
118.9510568031
 20
468.4841932467
 30
0.0
 10
119.1546737345
 20
468.379641351
 30
0.0
 10
119.3181714802
 20
468.2241251812
 30
0.0
 10
119.4352733362
 20
468.0357586088
 30
0.0
 10
119.5275161426
 20
467.7637998616
 30
0.0
 10
119.5482032587
 20
467.6018955791
 30
0.0
 10
119.557786242
 20
467.4875000003
 30
0.0
  0
SPLINE
  5
32F
100
AcDbEntity
  8
0
100
AcDbSpline
 62
7
  6
BYLAYER
 70
0
 71
3
 72
17
 73
13
 74
0
 42
0.0000001
 43
0.0000001
 44
0.0000000001
 40
0.0
 40
0.0
 40
0.0
 40
0.0
 40
0.0842489531
 40
0.2886249842
 40
0.3975229253
 40
0.4911471273
 40
0.5410940334
 40
0.5910409395
 40
0.6936945542
 40
0.7958296411
 40
0.8956105096
 40
1.0
 40
1.0
 40
1.0
 40
1.0
 10
120.6019268679
 20
467.5179687523
 30
0.0
 10
120.5987121413
 20
467.6016100256
 30
0.0
 10
120.5841538304
 20
467.8981890485
 30
0.0
 10
120.4327293636
 20
468.2815945964
 30
0.0
 10
120.2321338493
 20
468.5914811457
 30
0.0
 10
120.0410772522
 20
468.7874409899
 30
0.0
 10
119.8911982489
 20
468.9030942358
 30
0.0
 10
119.7243386073
 20
469.0182261858
 30
0.0
 10
119.5045248126
 20
469.1313771972
 30
0.0
 10
119.2047813636
 20
469.2307758657
 30
0.0
 10
118.8995058754
 20
469.2782607424
 30
0.0
 10
118.7157459103
 20
469.2866716973
 30
0.0
 10
118.6120831169
 20
469.2875000023
 30
0.0
  0
SPLINE
  5
330
100
AcDbEntity
  8
0
100
AcDbSpline
 62
7
  6
BYLAYER
 70
0
 71
3
 72
15
 73
11
 74
0
 42
0.0000001
 43
0.0000001
 44
0.0000000001
 40
0.0
 40
0.0
 40
0.0
 40
0.0
 40
0.1166075943
 40
0.2182307095
 40
0.4076304423
 40
0.5912584952
 40
0.6903174125
 40
0.8015075249
 40
0.9007537625
 40
1.0
 40
1.0
 40
1.0
 40
1.0
 10
118.6120831169
 20
469.2875000023
 30
0.0
 10
118.4792752153
 20
469.284863919
 30
0.0
 10
118.2426846849
 20
469.2737053139
 30
0.0
 10
117.7832703573
 20
469.1744846143
 30
0.0
 10
117.2833989754
 20
468.9303968742
 30
0.0
 10
116.9346192068
 20
468.5416242279
 30
0.0
 10
116.7271066441
 20
468.1365853102
 30
0.0
 10
116.6218804229
 20
467.8045748391
 30
0.0
 10
116.5596298994
 20
467.4549966245
 30
0.0
 10
116.5516520219
 20
467.2290426123
 30
0.0
 10
116.5495831169
 20
467.1160156273
 30
0.0
  0
SPLINE
  5
331
100
AcDbEntity
  8
0
100
AcDbSpline
 62
7
  6
BYLAYER
 70
0
 71
3
 72
15
 73
11
 74
0
 42
0.0000001
 43
0.0000001
 44
0.0000000001
 40
0.0
 40
0.0
 40
0.0
 40
0.0
 40
0.1217423469
 40
0.3321882826
 40
0.432544679
 40
0.5240724213
 40
0.7052947191
 40
0.8013797674
 40
0.9006898837
 40
1.0
 40
1.0
 40
1.0
 40
1.0
 10
116.5495831169
 20
467.1160156273
 30
0.0
 10
116.5520394353
 20
466.974152644
 30
0.0
 10
116.5668475161
 20
466.6031279865
 30
0.0
 10
116.7001025703
 20
466.1096554861
 30
0.0
 10
116.9353226457
 20
465.7096664817
 30
0.0
 10
117.2176802065
 20
465.3791068458
 30
0.0
 10
117.5857216723
 20
465.1403310631
 30
0.0
 10
118.0047280379
 20
465.0049664897
 30
0.0
 10
118.3444388334
 20
464.9470294643
 30
0.0
 10
118.5760596396
 20
464.9400041056
 30
0.0
 10
118.6917706179
 20
464.9375000023
 30
0.0
  0
SPLINE
  5
332
100
AcDbEntity
  8
0
100
AcDbSpline
 62
7
  6
BYLAYER
 70
0
 71
3
 72
16
 73
12
 74
0
 42
0.0000001
 43
0.0000001
 44
0.0000000001
 40
0.0
 40
0.0
 40
0.0
 40
0.0
 40
0.144161055
 40
0.2912117101
 40
0.440933001
 40
0.573755479
 40
0.6996362419
 40
0.7984722101
 40
0.8994076601
 40
0.9493417247
 40
1.0
 40
1.0
 40
1.0
 40
1.0
 10
118.6917706179
 20
464.9375000023
 30
0.0
 10
118.8055235379
 20
464.9391508823
 30
0.0
 10
119.0280897901
 20
464.9466856328
 30
0.0
 10
119.3777515799
 20
465.0119209731
 30
0.0
 10
119.6844063492
 20
465.1238745399
 30
0.0
 10
119.9703458927
 20
465.2726177843
 30
0.0
 10
120.1946976725
 20
465.4523342849
 30
0.0
 10
120.3766065654
 20
465.6537450443
 30
0.0
 10
120.471787935
 20
465.8236569851
 30
0.0
 10
120.5289933777
 20
465.9748175049
 30
0.0
 10
120.5362788652
 20
466.051862002
 30
0.0
 10
120.5386456169
 20
466.0917968768
 30
0.0
  0
SPLINE
  5
333
100
AcDbEntity
  8
0
100
AcDbSpline
 62
7
  6
BYLAYER
 70
0
 71
3
 72
12
 73
8
 74
0
 42
0.0000001
 43
0.0000001
 44
0.0000000001
 40
0.0
 40
0.0
 40
0.0
 40
0.0
 40
0.2000065597
 40
0.3999251822
 40
0.5999178834
 40
0.7999463295
 40
1.0
 40
1.0
 40
1.0
 40
1.0
 10
120.5386456169
 20
466.0917968768
 30
0.0
 10
120.537514757
 20
466.130460092
 30
0.0
 10
120.5321668227
 20
466.2082457757
 30
0.0
 10
120.4805957754
 20
466.3153522264
 30
0.0
 10
120.3928873605
 20
466.3947488171
 30
0.0
 10
120.2832487308
 20
466.4385210117
 30
0.0
 10
120.2058129553
 20
466.444347699
 30
0.0
 10
120.1671612419
 20
466.4457031273
 30
0.0
  0
SPLINE
  5
334
100
AcDbEntity
  8
0
100
AcDbSpline
 62
7
  6
BYLAYER
 70
0
 71
3
 72
10
 73
6
 74
0
 42
0.0000001
 43
0.0000001
 44
0.0000000001
 40
0.0
 40
0.0
 40
0.0
 40
0.0
 40
0.4001232403
 40
0.7998216466
 40
1.0
 40
1.0
 40
1.0
 40
1.0
 10
120.1671612419
 20
466.4457031273
 30
0.0
 10
120.1334600536
 20
466.444433354
 30
0.0
 10
120.0661349822
 20
466.4410883507
 30
0.0
 10
119.9838770145
 20
466.4153062778
 30
0.0
 10
119.9429182653
 20
466.385344369
 30
0.0
 10
119.9292706169
 20
466.3753906273
 30
0.0
  0
SPLINE
  5
335
100
AcDbEntity
  8
0
100
AcDbSpline
 62
7
  6
BYLAYER
 70
0
 71
3
 72
11
 73
7
 74
0
 42
0.0000001
 43
0.0000001
 44
0.0000000001
 40
0.0
 40
0.0
 40
0.0
 40
0.0
 40
0.2622997579
 40
0.4610651776
 40
0.8010640661
 40
1.0
 40
1.0
 40
1.0
 40
1.0
 10
119.9292706169
 20
466.3753906273
 30
0.0
 10
119.8325291119
 20
466.285064934
 30
0.0
 10
119.6915806152
 20
466.1536313666
 30
0.0
 10
119.3800202853
 20
465.890670639
 30
0.0
 10
119.0262215068
 20
465.7039337985
 30
0.0
 10
118.7604819876
 20
465.691249444
 30
0.0
 10
118.6601299909
 20
465.6875000023
 30
0.0
  0
SPLINE
  5
336
100
AcDbEntity
  8
0
100
AcDbSpline
 62
7
  6
BYLAYER
 70
0
 71
3
 72
13
 73
9
 74
0
 42
0.0000001
 43
0.0000001
 44
0.0000000001
 40
0.0
 40
0.0
 40
0.0
 40
0.0
 40
0.1138730284
 40
0.2477868181
 40
0.5049176964
 40
0.6457124324
 40
0.7917671446
 40
1.0
 40
1.0
 40
1.0
 40
1.0
 10
118.6601299909
 20
465.6875000023
 30
0.0
 10
118.5917387426
 20
465.6904124356
 30
0.0
 10
118.4415071178
 20
465.6995828546
 30
0.0
 10
118.1557998937
 20
465.7909582808
 30
0.0
 10
117.8881200662
 20
466.0020383063
 30
0.0
 10
117.7207261464
 20
466.2819892249
 30
0.0
 10
117.6205932942
 20
466.5716469567
 30
0.0
 10
117.6039847793
 20
466.762377009
 30
0.0
 10
117.5995831159
 20
466.8875000023
 30
0.0
  0
SPLINE
  5
337
100
AcDbEntity
  8
0
100
AcDbSpline
 62
7
  6
BYLAYER
 70
0
 71
3
 72
14
 73
10
 74
0
 42
0.0000001
 43
0.0000001
 44
0.0000000001
 40
0.0
 40
0.0
 40
0.0
 40
0.0
 40
0.273235114
 40
0.4564341035
 40
0.5714899505
 40
0.6277139185
 40
0.6839378865
 40
0.7987830033
 40
1.0
 40
1.0
 40
1.0
 40
1.0
 10
119.7124737419
 20
466.8875000023
 30
0.0
 10
119.8286613003
 20
466.8894201573
 30
0.0
 10
120.0167722826
 20
466.8964445978
 30
0.0
 10
120.250338746
 20
466.9505322936
 30
0.0
 10
120.3911525167
 20
467.0103857807
 30
0.0
 10
120.4661274132
 20
467.0727757286
 30
0.0
 10
120.5270414905
 20
467.1474980571
 30
0.0
 10
120.5930316955
 20
467.3043057465
 30
0.0
 10
120.6002312513
 20
467.4324146306
 30
0.0
 10
120.6019268679
 20
467.5179687523
 30
0.0
  0
SPLINE
  5
338
100
AcDbEntity
  8
0
100
AcDbSpline
 62
7
  6
BYLAYER
 70
0
 71
3
 72
27
 73
23
 74
0
 42
0.0000001
 43
0.0000001
 44
0.0000000001
 40
0.0
 40
0.0
 40
0.0
 40
0.0
 40
0.1100996814
 40
0.1921660612
 40
0.2640809682
 40
0.3229867887
 40
0.4015549367
 40
0.4542808926
 40
0.5346315019
 40
0.5627078791
 40
0.5924741096
 40
0.6633610785
 40
0.7629190368
 40
0.7783485026
 40
0.8060699907
 40
0.8199528565
 40
0.8337563925
 40
0.8477596499
 40
0.8799062844
 40
0.903014768
 40
0.9661361231
 40
1.0
 40
1.0
 40
1.0
 40
1.0
 10
235.9810809217
 20
221.1623124553
 30
0.0
 10
235.6007896995
 20
221.300784302
 30
0.0
 10
234.9327328673
 20
221.5487386086
 30
0.0
 10
233.9755892955
 20
221.6198575824
 30
0.0
 10
233.2015961177
 20
221.5003970493
 30
0.0
 10
232.49634324
 20
221.1686127559
 30
0.0
 10
232.050852403
 20
220.5866592529
 30
0.0
 10
231.9710722597
 20
219.7895823382
 30
0.0
 10
232.1503867084
 20
219.2356833366
 30
0.0
 10
232.4945556804
 20
218.85112259
 30
0.0
 10
232.8660754118
 20
218.5582289705
 30
0.0
 10
233.5466752036
 20
218.2709854666
 30
0.0
 10
234.21549179
 20
218.0878012572
 30
0.0
 10
234.6527739199
 20
217.8080999175
 30
0.0
 10
234.8042433979
 20
217.6453391901
 30
0.0
 10
234.8277745328
 20
217.4414287395
 30
0.0
 10
234.7985017727
 20
217.2895432359
 30
0.0
 10
234.6750052084
 20
217.1012330177
 30
0.0
 10
234.426471128
 20
216.9924498137
 30
0.0
 10
234.0031746404
 20
216.9366827628
 30
0.0
 10
233.5570759757
 20
216.9727423366
 30
0.0
 10
233.2182095852
 20
217.0808140524
 30
0.0
 10
233.1025962255
 20
217.1257982462
 30
0.0
  0
SPLINE
  5
339
100
AcDbEntity
  8
0
100
AcDbSpline
 62
7
  6
BYLAYER
 70
0
 71
3
 72
30
 73
26
 74
0
 42
0.0000001
 43
0.0000001
 44
0.0000000001
 40
0.0
 40
0.0
 40
0.0
 40
0.0
 40
0.107236975
 40
0.1831167926
 40
0.25781871
 40
0.3443880961
 40
0.3973602343
 40
0.4509378753
 40
0.5031214825
 40
0.5540748819
 40
0.5826942009
 40
0.6482679567
 40
0.7047187847
 40
0.7611696126
 40
0.7879727203
 40
0.8007749492
 40
0.8137493704
 40
0.8200337556
 40
0.8263181409
 40
0.8528947711
 40
0.870692396
 40
0.8939904244
 40
0.9222239634
 40
0.9560741804
 40
1.0
 40
1.0
 40
1.0
 40
1.0
 10
232.1223391409
 20
216.4791798803
 30
0.0
 10
232.4899602182
 20
216.313190727
 30
0.0
 10
233.1232658883
 20
216.0206697804
 30
0.0
 10
234.0693710259
 20
215.9114100453
 30
0.0
 10
234.9604717501
 20
216.0061405635
 30
0.0
 10
235.7097063998
 20
216.3541477226
 30
0.0
 10
236.1450486695
 20
216.9662552734
 30
0.0
 10
236.2606133869
 20
217.5502515645
 30
0.0
 10
236.1932835467
 20
218.1459730294
 30
0.0
 10
235.9250816472
 20
218.5788322941
 30
0.0
 10
235.5252806754
 20
218.9531653654
 30
0.0
 10
235.0249968015
 20
219.2192975404
 30
0.0
 10
234.3764341263
 20
219.4263596757
 30
0.0
 10
233.9035365787
 20
219.6106326548
 30
0.0
 10
233.5710163719
 20
219.8152319289
 30
0.0
 10
233.4479619346
 20
219.9701429233
 30
0.0
 10
233.4165636428
 20
220.0899022923
 30
0.0
 10
233.4225167254
 20
220.1854588713
 30
0.0
 10
233.4630217048
 20
220.3282324194
 30
0.0
 10
233.6172230239
 20
220.4628098336
 30
0.0
 10
233.8557381491
 20
220.5463693098
 30
0.0
 10
234.1131273555
 20
220.5866773979
 30
0.0
 10
234.4339619933
 20
220.5811693297
 30
0.0
 10
234.8265767762
 20
220.5182522905
 30
0.0
 10
235.1045817855
 20
220.4350431528
 30
0.0
 10
235.2594302355
 20
220.380886757
 30
0.0
  0
SPLINE
  5
33A
100
AcDbEntity
  8
0
100
AcDbSpline
 62
7
  6
BYLAYER
 70
0
 71
3
 72
15
 73
11
 74
0
 42
0.0000001
 43
0.0000001
 44
0.0000000001
 40
0.0
 40
0.0
 40
0.0
 40
0.0
 40
0.1421826874
 40
0.2842582147
 40
0.416198696
 40
0.5373886921
 40
0.6627322877
 40
0.7945834945
 40
0.9162084415
 40
1.0
 40
1.0
 40
1.0
 40
1.0
 10
239.9164864462
 20
217.0406992153
 30
0.0
 10
239.7417610086
 20
216.9749919003
 30
0.0
 10
239.3930440257
 20
216.8434850906
 30
0.0
 10
238.8467086807
 20
216.7493039441
 30
0.0
 10
238.3264412253
 20
216.8505202552
 30
0.0
 10
237.9238663291
 20
217.1729275065
 30
0.0
 10
237.7372964758
 20
217.6423962509
 30
0.0
 10
237.7453790627
 20
218.1619710764
 30
0.0
 10
237.9420357541
 20
218.5704800341
 30
0.0
 10
238.1584366917
 20
218.7408234374
 30
0.0
 10
238.2551943626
 20
218.7957362291
 30
0.0
  0
SPLINE
  5
33B
100
AcDbEntity
  8
0
100
AcDbSpline
 62
7
  6
BYLAYER
 70
0
 71
3
 72
15
 73
11
 74
0
 42
0.0000001
 43
0.0000001
 44
0.0000000001
 40
0.0
 40
0.0
 40
0.0
 40
0.0
 40
0.1865373953
 40
0.346123621
 40
0.4922907664
 40
0.5875438773
 40
0.7371719106
 40
0.8303022509
 40
0.9233761485
 40
1.0
 40
1.0
 40
1.0
 40
1.0
 10
239.859584912
 20
219.5712842213
 30
0.0
 10
239.4475739062
 20
219.6890542596
 30
0.0
 10
238.6726321217
 20
219.9080635953
 30
0.0
 10
237.5269932249
 20
219.6683872263
 30
0.0
 10
236.8121248425
 20
219.0528523753
 30
0.0
 10
236.4695163029
 20
218.2178286408
 30
0.0
 10
236.4857076805
 20
217.4095284607
 30
0.0
 10
236.8211159722
 20
216.7033744994
 30
0.0
 10
237.2750302709
 20
216.2904614427
 30
0.0
 10
237.6308391548
 20
216.1286669662
 30
0.0
 10
237.797478762
 20
216.0743868507
 30
0.0
  0
SPLINE
  5
33C
100
AcDbEntity
  8
0
100
AcDbSpline
 62
7
  6
BYLAYER
 70
0
 71
3
 72
14
 73
10
 74
0
 42
0.0000001
 43
0.0000001
 44
0.0000000001
 40
0.0
 40
0.0
 40
0.0
 40
0.0
 40
0.1993045738
 40
0.2953946073
 40
0.4756657194
 40
0.6382503288
 40
0.806879735
 40
0.9120998851
 40
1.0
 40
1.0
 40
1.0
 40
1.0
 10
241.570208586
 20
218.3875960144
 30
0.0
 10
241.6545568923
 20
218.5035940194
 30
0.0
 10
241.7804590137
 20
218.6756737065
 30
0.0
 10
242.0487154134
 20
218.8960841951
 30
0.0
 10
242.3503274266
 20
218.9917283198
 30
0.0
 10
242.7351648612
 20
218.875755953
 30
0.0
 10
242.9006726467
 20
218.5967739757
 30
0.0
 10
242.9511520466
 20
218.3397026168
 30
0.0
 10
242.9558435938
 20
218.2007451475
 30
0.0
 10
242.9581630799
 20
218.1375018435
 30
0.0
  0
SPLINE
  5
33D
100
AcDbEntity
  8
0
100
AcDbSpline
 62
7
  6
BYLAYER
 70
0
 71
3
 72
9
 73
5
 74
0
 42
0.0000001
 43
0.0000001
 44
0.0000000001
 40
0.0
 40
0.0
 40
0.0
 40
0.0
 40
0.5942608983
 40
1.0
 40
1.0
 40
1.0
 40
1.0
 10
242.9581630802
 20
216.8277443703
 30
0.0
 10
243.1773648991
 20
216.9290514686
 30
0.0
 10
243.5700110795
 20
217.1074376994
 30
0.0
 10
243.9661666077
 20
217.1720493976
 30
0.0
 10
244.1285629051
 20
217.1996487093
 30
0.0
  0
SPLINE
  5
33E
100
AcDbEntity
  8
0
100
AcDbSpline
 62
7
  6
BYLAYER
 70
0
 71
3
 72
15
 73
11
 74
0
 42
0.0000001
 43
0.0000001
 44
0.0000000001
 40
0.0
 40
0.0
 40
0.0
 40
0.0
 40
0.0993364002
 40
0.1986728005
 40
0.4207719551
 40
0.5784988194
 40
0.7361375273
 40
0.8877768291
 40
0.9941871811
 40
1.0
 40
1.0
 40
1.0
 40
1.0
 10
244.1285629056
 20
218.3875960147
 30
0.0
 10
244.1215689573
 20
218.5076598413
 30
0.0
 10
244.1088428246
 20
218.7478019563
 30
0.0
 10
243.9608936758
 20
219.2417913233
 30
0.0
 10
243.5407049131
 20
219.6752628573
 30
0.0
 10
242.8935435326
 20
219.8396383856
 30
0.0
 10
242.3238301645
 20
219.7883863235
 30
0.0
 10
241.8754384571
 20
219.5206267647
 30
0.0
 10
241.666913122
 20
219.2794435834
 30
0.0
 10
241.5769017068
 20
219.1775816711
 30
0.0
 10
241.5722335812
 20
219.1723094892
 30
0.0
  0
SPLINE
  5
33F
100
AcDbEntity
  8
0
100
AcDbSpline
 62
7
  6
BYLAYER
 70
0
 71
3
 72
10
 73
6
 74
0
 42
0.0000001
 43
0.0000001
 44
0.0000000001
 40
0.0
 40
0.0
 40
0.0
 40
0.0
 40
0.3981590042
 40
0.8007337379
 40
1.0
 40
1.0
 40
1.0
 40
1.0
 10
244.6812233173
 20
217.2093594503
 30
0.0
 10
244.8559174992
 20
217.1789907436
 30
0.0
 10
245.2154819665
 20
217.120456962
 30
0.0
 10
245.581393469
 20
216.9111546625
 30
0.0
 10
245.7844563556
 20
216.7336913808
 30
0.0
 10
245.8514527785
 20
216.6759501576
 30
0.0
  0
SPLINE
  5
340
100
AcDbEntity
  8
0
100
AcDbSpline
 62
7
  6
BYLAYER
 70
0
 71
3
 72
14
 73
10
 74
0
 42
0.0000001
 43
0.0000001
 44
0.0000000001
 40
0.0
 40
0.0
 40
0.0
 40
0.0
 40
0.2005420508
 40
0.2978275857
 40
0.4753341109
 40
0.5622567586
 40
0.7209529342
 40
0.8951714876
 40
1.0
 40
1.0
 40
1.0
 40
1.0
 10
245.851452779
 20
218.4168986011
 30
0.0
 10
245.9334420357
 20
218.5348867162
 30
0.0
 10
246.0523750583
 20
218.7067966673
 30
0.0
 10
246.3030444283
 20
218.9455403893
 30
0.0
 10
246.5431344362
 20
219.0417589433
 30
0.0
 10
246.8531266847
 20
219.0276005465
 30
0.0
 10
247.1245551216
 20
218.8775787547
 30
0.0
 10
247.2413612157
 20
218.5612366602
 30
0.0
 10
247.2486605124
 20
218.3630507207
 30
0.0
 10
247.2516734715
 20
218.2879331474
 30
0.0
  0
SPLINE
  5
341
100
AcDbEntity
  8
0
100
AcDbSpline
 62
7
  6
BYLAYER
 70
0
 71
3
 72
11
 73
7
 74
0
 42
0.0000001
 43
0.0000001
 44
0.0000000001
 40
0.0
 40
0.0
 40
0.0
 40
0.0
 40
0.1992010207
 40
0.4463456513
 40
0.8071631237
 40
1.0
 40
1.0
 40
1.0
 40
1.0
 10
248.4220732959
 20
218.384699828
 30
0.0
 10
248.4146675825
 20
218.5306772668
 30
0.0
 10
248.3951939086
 20
218.8683318632
 30
0.0
 10
248.1484699214
 20
219.4173902296
 30
0.0
 10
247.6246547226
 20
219.7691996695
 30
0.0
 10
247.2059453329
 20
219.8020885333
 30
0.0
 10
247.0647843
 20
219.8125194683
 30
0.0
  0
SPLINE
  5
342
100
AcDbEntity
  8
0
100
AcDbSpline
 62
7
  6
BYLAYER
 70
0
 71
3
 72
10
 73
6
 74
0
 42
0.0000001
 43
0.0000001
 44
0.0000000001
 40
0.0
 40
0.0
 40
0.0
 40
0.0
 40
0.2015173922
 40
0.5824029392
 40
1.0
 40
1.0
 40
1.0
 40
1.0
 10
247.0647843
 20
219.8125194683
 30
0.0
 10
246.9714406181
 20
219.8070614433
 30
0.0
 10
246.7029056713
 20
219.7949996654
 30
0.0
 10
246.2442434647
 20
219.616260779
 30
0.0
 10
245.9879562639
 20
219.3479129155
 30
0.0
 10
245.8514527793
 20
219.2094313507
 30
0.0
  0
SPLINE
  5
343
100
AcDbEntity
  8
0
100
AcDbSpline
 62
7
  6
BYLAYER
 70
0
 71
3
 72
12
 73
8
 74
0
 42
0.0000001
 43
0.0000001
 44
0.0000000001
 40
0.0
 40
0.0
 40
0.0
 40
0.0
 40
0.2052068349
 40
0.3619204814
 40
0.5309879415
 40
0.723778865
 40
1.0
 40
1.0
 40
1.0
 40
1.0
 10
254.4486953931
 20
221.3108697553
 30
0.0
 10
254.4203310409
 20
221.3714460003
 30
0.0
 10
254.363945686
 20
221.468029324
 30
0.0
 10
254.2077759583
 20
221.5582863321
 30
0.0
 10
254.0405852298
 20
221.5890663606
 30
0.0
 10
253.8301914509
 20
221.5665483455
 30
0.0
 10
253.6922458786
 20
221.4982806543
 30
0.0
 10
253.6113569456
 20
221.4585752343
 30
0.0
  0
SPLINE
  5
344
100
AcDbEntity
  8
0
100
AcDbSpline
 62
7
  6
BYLAYER
 70
0
 71
3
 72
11
 73
7
 74
0
 42
0.0000001
 43
0.0000001
 44
0.0000000001
 40
0.0
 40
0.0
 40
0.0
 40
0.0
 40
0.1984839242
 40
0.3967522575
 40
0.7512940191
 40
1.0
 40
1.0
 40
1.0
 40
1.0
 10
253.6113569456
 20
221.4585752343
 30
0.0
 10
253.5520923988
 20
221.4175943426
 30
0.0
 10
253.4325077841
 20
221.3362705135
 30
0.0
 10
253.2513043816
 20
221.1316823191
 30
0.0
 10
253.1197585335
 20
220.8593036476
 30
0.0
 10
253.1502341566
 20
220.645127425
 30
0.0
 10
253.1723292378
 20
220.5573503333
 30
0.0
  0
SPLINE
  5
345
100
AcDbEntity
  8
0
100
AcDbSpline
 62
7
  6
BYLAYER
 70
0
 71
3
 72
12
 73
8
 74
0
 42
0.0000001
 43
0.0000001
 44
0.0000000001
 40
0.0
 40
0.0
 40
0.0
 40
0.0
 40
0.2052792482
 40
0.3614763513
 40
0.5305105287
 40
0.7238231152
 40
1.0
 40
1.0
 40
1.0
 40
1.0
 10
253.1723292378
 20
220.5573503333
 30
0.0
 10
253.2004016359
 20
220.4966891016
 30
0.0
 10
253.2563559133
 20
220.4002219717
 30
0.0
 10
253.4123665518
 20
220.310290638
 30
0.0
 10
253.5793730893
 20
220.2797212333
 30
0.0
 10
253.7896463337
 20
220.3022141166
 30
0.0
 10
253.9277472059
 20
220.3700607126
 30
0.0
 10
254.008645503
 20
220.4094744893
 30
0.0
  0
SPLINE
  5
346
100
AcDbEntity
  8
0
100
AcDbSpline
 62
7
  6
BYLAYER
 70
0
 71
3
 72
11
 73
7
 74
0
 42
0.0000001
 43
0.0000001
 44
0.0000000001
 40
0.0
 40
0.0
 40
0.0
 40
0.0
 40
0.1984328786
 40
0.3966558078
 40
0.7509780574
 40
1.0
 40
1.0
 40
1.0
 40
1.0
 10
254.008645503
 20
220.4094744893
 30
0.0
 10
254.0677756231
 20
220.450621896
 30
0.0
 10
254.1870843355
 20
220.53228439
 30
0.0
 10
254.3680944561
 20
220.7368679931
 30
0.0
 10
254.5002714765
 20
221.0088298489
 30
0.0
 10
254.4706144185
 20
221.222919912
 30
0.0
 10
254.4486953931
 20
221.3108697553
 30
0.0
  0
SPLINE
  5
347
100
AcDbEntity
  8
0
100
AcDbSpline
 62
7
  6
BYLAYER
 70
0
 71
3
 72
14
 73
10
 74
0
 42
0.0000001
 43
0.0000001
 44
0.0000000001
 40
0.0
 40
0.0
 40
0.0
 40
0.0
 40
0.3285716456
 40
0.427363155
 40
0.596336122
 40
0.6803451095
 40
0.764135464
 40
0.8688634855
 40
1.0
 40
1.0
 40
1.0
 40
1.0
 10
264.9482210424
 20
217.6281138573
 30
0.0
 10
265.0406715667
 20
217.8639850443
 30
0.0
 10
265.162431392
 20
218.1719326202
 30
0.0
 10
265.4444172446
 20
218.5349800703
 30
0.0
 10
265.668769744
 20
218.6937339234
 30
0.0
 10
265.9318367864
 20
218.725881583
 30
0.0
 10
266.1386493156
 20
218.6857903576
 30
0.0
 10
266.3650385947
 20
218.5880988053
 30
0.0
 10
266.5191169384
 20
218.4940057966
 30
0.0
 10
266.6048393681
 20
218.4416013632
 30
0.0
  0
SPLINE
  5
348
100
AcDbEntity
  8
0
100
AcDbSpline
 62
7
  6
BYLAYER
 70
0
 71
3
 72
13
 73
9
 74
0
 42
0.0000001
 43
0.0000001
 44
0.0000000001
 40
0.0
 40
0.0
 40
0.0
 40
0.0
 40
0.1972959118
 40
0.3649582554
 40
0.5345721998
 40
0.7514155616
 40
0.9857372863
 40
1.0
 40
1.0
 40
1.0
 40
1.0
 10
266.9268270934
 20
219.4750286322
 30
0.0
 10
266.7862435549
 20
219.5758457456
 30
0.0
 10
266.5260279205
 20
219.770410898
 30
0.0
 10
266.0428884454
 20
219.8533182718
 30
0.0
 10
265.5831157871
 20
219.6436795849
 30
0.0
 10
265.2305476473
 20
219.2193204013
 30
0.0
 10
265.049340853
 20
218.8491397257
 30
0.0
 10
264.9547348131
 20
218.6528065378
 30
0.0
 10
264.9493094209
 20
218.6415496641
 30
0.0
  0
SPLINE
  5
349
100
AcDbEntity
  8
0
100
AcDbSpline
 62
7
  6
BYLAYER
 70
0
 71
3
 72
17
 73
13
 74
0
 42
0.0000001
 43
0.0000001
 44
0.0000000001
 40
0.0
 40
0.0
 40
0.0
 40
0.0
 40
0.131170076
 40
0.2245349034
 40
0.3813439382
 40
0.453169256
 40
0.5248643223
 40
0.6851750756
 40
0.7672467521
 40
0.9127916474
 40
0.9838384859
 40
1.0
 40
1.0
 40
1.0
 40
1.0
 10
265.882837264
 20
212.6531479643
 30
0.0
 10
265.7757103863
 20
212.611386281
 30
0.0
 10
265.5914854081
 20
212.5383750166
 30
0.0
 10
265.2647039999
 20
212.4951792679
 30
0.0
 10
264.9816831244
 20
212.5528512861
 30
0.0
 10
264.7715241366
 20
212.7168873666
 30
0.0
 10
264.6249350007
 20
212.94253935
 30
0.0
 10
264.5910454939
 20
213.2251830921
 30
0.0
 10
264.6554498773
 20
213.5594896538
 30
0.0
 10
264.802966007
 20
213.7840354976
 30
0.0
 10
264.9845134311
 20
213.8820322867
 30
0.0
 10
265.0576212196
 20
213.9053070024
 30
0.0
 10
265.0713127448
 20
213.9091659528
 30
0.0
  0
SPLINE
  5
34A
100
AcDbEntity
  8
0
100
AcDbSpline
 62
7
  6
BYLAYER
 70
0
 71
3
 72
16
 73
12
 74
0
 42
0.0000001
 43
0.0000001
 44
0.0000000001
 40
0.0
 40
0.0
 40
0.0
 40
0.0
 40
0.1316581363
 40
0.2042284829
 40
0.3398201528
 40
0.4688828588
 40
0.5384352208
 40
0.6948491711
 40
0.8322670133
 40
0.9659970928
 40
1.0
 40
1.0
 40
1.0
 40
1.0
 10
265.835305743
 20
214.1705790033
 30
0.0
 10
265.6857855563
 20
214.22299119
 30
0.0
 10
265.451788425
 20
214.3065605271
 30
0.0
 10
265.0507601428
 20
214.3268003226
 30
0.0
 10
264.6497615402
 20
214.2128058934
 30
0.0
 10
264.3660685492
 20
213.920517817
 30
0.0
 10
264.1962167965
 20
213.5255424297
 30
0.0
 10
264.1525713744
 20
213.0911341649
 30
0.0
 10
264.2891055892
 20
212.5919154062
 30
0.0
 10
264.5592700083
 20
212.3245037597
 30
0.0
 10
264.7373220041
 20
212.2328658342
 30
0.0
 10
264.7743777571
 20
212.2164928615
 30
0.0
  0
SPLINE
  5
34B
100
AcDbEntity
  8
0
100
AcDbSpline
 62
7
  6
BYLAYER
 70
0
 71
3
 72
11
 73
7
 74
0
 42
0.0000001
 43
0.0000001
 44
0.0000000001
 40
0.0
 40
0.0
 40
0.0
 40
0.0
 40
0.4056564762
 40
0.6038319041
 40
0.8021611795
 40
1.0
 40
1.0
 40
1.0
 40
1.0
 10
262.8057249442
 20
215.0878181083
 30
0.0
 10
262.7625383577
 20
215.058112585
 30
0.0
 10
262.7032128549
 20
215.0118136278
 30
0.0
 10
262.6536828812
 20
214.919081052
 30
0.0
 10
262.6317914893
 20
214.8436310105
 30
0.0
 10
262.6422819889
 20
214.792609698
 30
0.0
 10
262.6483087234
 20
214.7677043863
 30
0.0
  0
SPLINE
  5
34C
100
AcDbEntity
  8
0
100
AcDbSpline
 62
7
  6
BYLAYER
 70
0
 71
3
 72
11
 73
7
 74
0
 42
0.0000001
 43
0.0000001
 44
0.0000000001
 40
0.0
 40
0.0
 40
0.0
 40
0.0
 40
0.1568782495
 40
0.313756499
 40
0.6266222184
 40
1.0
 40
1.0
 40
1.0
 40
1.0
 10
262.6483087234
 20
214.7677043863
 30
0.0
 10
262.6531358303
 20
214.7572682513
 30
0.0
 10
262.6626957874
 20
214.7362700254
 30
0.0
 10
262.6935551778
 20
214.7015922473
 30
0.0
 10
262.7503414466
 20
214.6730624734
 30
0.0
 10
262.8015967636
 20
214.6709971306
 30
0.0
 10
262.8290163734
 20
214.6745430581
 30
0.0
  0
SPLINE
  5
34D
100
AcDbEntity
  8
0
100
AcDbSpline
 62
7
  6
BYLAYER
 70
0
 71
3
 72
9
 73
5
 74
0
 42
0.0000001
 43
0.0000001
 44
0.0000000001
 40
0.0
 40
0.0
 40
0.0
 40
0.0
 40
0.443515529
 40
1.0
 40
1.0
 40
1.0
 40
1.0
 10
262.8290163734
 20
214.6745430581
 30
0.0
 10
262.8474139252
 20
214.6769222454
 30
0.0
 10
262.8884202097
 20
214.6870265792
 30
0.0
 10
262.925348334
 20
214.7053716123
 30
0.0
 10
262.9461047773
 20
214.7154026773
 30
0.0
  0
SPLINE
  5
34E
100
AcDbEntity
  8
0
100
AcDbSpline
 62
7
  6
BYLAYER
 70
0
 71
3
 72
10
 73
6
 74
0
 42
0.0000001
 43
0.0000001
 44
0.0000000001
 40
0.0
 40
0.0
 40
0.0
 40
0.0
 40
0.5962395897
 40
0.8874770528
 40
1.0
 40
1.0
 40
1.0
 40
1.0
 10
262.9461047773
 20
214.7154026773
 30
0.0
 10
262.9890802913
 20
214.7453181006
 30
0.0
 10
263.0481048484
 20
214.7918358683
 30
0.0
 10
263.0900485403
 20
214.8703477133
 30
0.0
 10
263.1022873509
 20
214.9042648502
 30
0.0
 10
263.1050990959
 20
214.9138304466
 30
0.0
  0
SPLINE
  5
34F
100
AcDbEntity
  8
0
100
AcDbSpline
 62
7
  6
BYLAYER
 70
0
 71
3
 72
9
 73
5
 74
0
 42
0.0000001
 43
0.0000001
 44
0.0000000001
 40
0.0
 40
0.0
 40
0.0
 40
0.0
 40
0.3810791621
 40
1.0
 40
1.0
 40
1.0
 40
1.0
 10
263.1050990959
 20
214.9138304466
 30
0.0
 10
263.1095718462
 20
214.9290468062
 30
0.0
 10
263.1173310386
 20
214.9697289112
 30
0.0
 10
263.1081572893
 20
215.0107534176
 30
0.0
 10
263.1016469964
 20
215.0355163993
 30
0.0
  0
SPLINE
  5
350
100
AcDbEntity
  8
0
100
AcDbSpline
 62
7
  6
BYLAYER
 70
0
 71
3
 72
12
 73
8
 74
0
 42
0.0000001
 43
0.0000001
 44
0.0000000001
 40
0.0
 40
0.0
 40
0.0
 40
0.0
 40
0.1001280589
 40
0.2002561177
 40
0.4610220902
 40
0.6616225133
 40
1.0
 40
1.0
 40
1.0
 40
1.0
 10
263.1016469964
 20
215.0355163993
 30
0.0
 10
263.0968863083
 20
215.045949441
 30
0.0
 10
263.087466789
 20
215.0669265774
 30
0.0
 10
263.0524740692
 20
215.1072756605
 30
0.0
 10
262.9904726611
 20
215.1331694298
 30
0.0
 10
262.8971554306
 20
215.1320363887
 30
0.0
 10
262.8404874629
 20
215.10501911
 30
0.0
 10
262.8057249442
 20
215.0878181083
 30
0.0
  0
SPLINE
  5
351
100
AcDbEntity
  8
0
100
AcDbSpline
 62
7
  6
BYLAYER
 70
0
 71
3
 72
12
 73
8
 74
0
 42
0.0000001
 43
0.0000001
 44
0.0000000001
 40
0.0
 40
0.0
 40
0.0
 40
0.0
 40
0.1976009138
 40
0.4652894976
 40
0.6754216139
 40
0.774883438
 40
1.0
 40
1.0
 40
1.0
 40
1.0
 10
260.4448223567
 20
213.2633913658
 30
0.0
 10
260.4524611357
 20
213.3530348643
 30
0.0
 10
260.4743663644
 20
213.5722622806
 30
0.0
 10
260.6515400964
 20
213.8362852097
 30
0.0
 10
260.9218304403
 20
213.9418472873
 30
0.0
 10
261.1593686453
 20
213.8637132494
 30
0.0
 10
261.269726777
 20
213.7717280006
 30
0.0
 10
261.3463879867
 20
213.7041227123
 30
0.0
  0
SPLINE
  5
352
100
AcDbEntity
  8
0
100
AcDbSpline
 62
7
  6
BYLAYER
 70
0
 71
3
 72
14
 73
10
 74
0
 42
0.0000001
 43
0.0000001
 44
0.0000000001
 40
0.0
 40
0.0
 40
0.0
 40
0.0
 40
0.1969835943
 40
0.427305973
 40
0.5384977438
 40
0.6605209624
 40
0.8207665798
 40
0.9900301364
 40
1.0
 40
1.0
 40
1.0
 40
1.0
 10
261.5670092055
 20
214.0712568642
 30
0.0
 10
261.4965975125
 20
214.1334713592
 30
0.0
 10
261.3403321425
 20
214.2683771568
 30
0.0
 10
261.0767456393
 20
214.3414893165
 30
0.0
 10
260.8646592885
 20
214.2723466582
 30
0.0
 10
260.7141463228
 20
214.1561293259
 30
0.0
 10
260.5758108351
 20
213.9900336882
 30
0.0
 10
260.4922598498
 20
213.8513717141
 30
0.0
 10
260.4480856318
 20
213.778276237
 30
0.0
 10
260.4456271657
 20
213.774211392
 30
0.0
  0
SPLINE
  5
353
100
AcDbEntity
  8
0
100
AcDbSpline
 62
7
  6
BYLAYER
 70
0
 71
3
 72
13
 73
9
 74
0
 42
0.0000001
 43
0.0000001
 44
0.0000000001
 40
0.0
 40
0.0
 40
0.0
 40
0.0
 40
0.3641045031
 40
0.5073828326
 40
0.7028648415
 40
0.8057790235
 40
0.9340003541
 40
1.0
 40
1.0
 40
1.0
 40
1.0
 10
258.9592493624
 20
212.6521257813
 30
0.0
 10
258.8514916559
 20
212.595822163
 30
0.0
 10
258.6997303509
 20
212.517346473
 30
0.0
 10
258.4669798754
 20
212.4833008844
 30
0.0
 10
258.3162961031
 20
212.5252331863
 30
0.0
 10
258.2178585956
 20
212.6322249645
 30
0.0
 10
258.1878760125
 20
212.7289710557
 30
0.0
 10
258.1845644118
 20
212.7934062456
 30
0.0
 10
258.1832419095
 20
212.8153343738
 30
0.0
  0
SPLINE
  5
354
100
AcDbEntity
  8
0
100
AcDbSpline
 62
7
  6
BYLAYER
 70
0
 71
3
 72
17
 73
13
 74
0
 42
0.0000001
 43
0.0000001
 44
0.0000000001
 40
0.0
 40
0.0
 40
0.0
 40
0.0
 40
0.1309689619
 40
0.2247045331
 40
0.3814383103
 40
0.4531190107
 40
0.52466889
 40
0.6847095289
 40
0.7664146527
 40
0.911990624
 40
0.9831061292
 40
1.0
 40
1.0
 40
1.0
 40
1.0
 10
256.3320680376
 20
212.6531479643
 30
0.0
 10
256.2249911066
 20
212.611205591
 30
0.0
 10
256.0403210657
 20
212.5376053224
 30
0.0
 10
255.7132072943
 20
212.4953895536
 30
0.0
 10
255.4300708365
 20
212.5534410525
 30
0.0
 10
255.2199532126
 20
212.7178004333
 30
0.0
 10
255.0737794765
 20
212.9436189998
 30
0.0
 10
255.0402709403
 20
213.2261922309
 30
0.0
 10
255.105346402
 20
213.5603982774
 30
0.0
 10
255.2539697713
 20
213.7845284882
 30
0.0
 10
255.4367137523
 20
213.8824897674
 30
0.0
 10
255.510671601
 20
213.9057925824
 30
0.0
 10
255.5250207307
 20
213.9097719161
 30
0.0
  0
SPLINE
  5
355
100
AcDbEntity
  8
0
100
AcDbSpline
 62
7
  6
BYLAYER
 70
0
 71
3
 72
16
 73
12
 74
0
 42
0.0000001
 43
0.0000001
 44
0.0000000001
 40
0.0
 40
0.0
 40
0.0
 40
0.0
 40
0.1316596235
 40
0.204261734
 40
0.3398066732
 40
0.4688566564
 40
0.5384629694
 40
0.69523193
 40
0.832788884
 40
0.9665117602
 40
1.0
 40
1.0
 40
1.0
 40
1.0
 10
256.2855586997
 20
214.1705790033
 30
0.0
 10
256.1362242464
 20
214.22300321
 30
0.0
 10
255.9024622642
 20
214.3066149977
 30
0.0
 10
255.5019453493
 20
214.3267620989
 30
0.0
 10
255.1014067682
 20
214.2128533069
 30
0.0
 10
254.818349979
 20
213.9205006153
 30
0.0
 10
254.6490119134
 20
213.5253058813
 30
0.0
 10
254.6056433917
 20
213.0908167026
 30
0.0
 10
254.7419254361
 20
212.5914623904
 30
0.0
 10
255.0113820136
 20
212.3245996299
 30
0.0
 10
255.1885808005
 20
212.2332272505
 30
0.0
 10
255.2250055034
 20
212.2170654479
 30
0.0
  0
SPLINE
  5
356
100
AcDbEntity
  8
0
100
AcDbSpline
 62
7
  6
BYLAYER
 70
0
 71
3
 72
14
 73
10
 74
0
 42
0.0000001
 43
0.0000001
 44
0.0000000001
 40
0.0
 40
0.0
 40
0.0
 40
0.0
 40
0.1402742964
 40
0.3034935065
 40
0.4667879124
 40
0.6367507887
 40
0.7999881652
 40
0.9003947061
 40
1.0
 40
1.0
 40
1.0
 40
1.0
 10
250.122645503
 20
218.2966217044
 30
0.0
 10
250.1415571023
 20
218.4149482544
 30
0.0
 10
250.1820087644
 20
218.672979699
 30
0.0
 10
250.4348174581
 20
219.0083179811
 30
0.0
 10
250.8450031875
 20
219.1418735328
 30
0.0
 10
251.2821460325
 20
219.0865128435
 30
0.0
 10
251.5743939887
 20
218.8342984018
 30
0.0
 10
251.6975360342
 20
218.549895846
 30
0.0
 10
251.7249252301
 20
218.3805658626
 30
0.0
 10
251.7388875895
 20
218.2966217042
 30
0.0
  0
SPLINE
  5
357
100
AcDbEntity
  8
0
100
AcDbSpline
 62
7
  6
BYLAYER
 70
0
 71
3
 72
17
 73
13
 74
0
 42
0.0000001
 43
0.0000001
 44
0.0000000001
 40
0.0
 40
0.0
 40
0.0
 40
0.0
 40
0.0633227836
 40
0.1274435581
 40
0.2800165163
 40
0.3832681123
 40
0.5476689383
 40
0.6477686333
 40
0.7469069438
 40
0.8525341496
 40
0.9730574331
 40
1.0
 40
1.0
 40
1.0
 40
1.0
 10
250.850610342
 20
219.8116676503
 30
0.0
 10
250.7157262442
 20
219.8018389986
 30
0.0
 10
250.4422800748
 20
219.7828952723
 30
0.0
 10
249.873395733
 20
219.6383866395
 30
0.0
 10
249.2942835438
 20
219.2063656336
 30
0.0
 10
248.8853734963
 20
218.3961619861
 30
0.0
 10
248.8423060489
 20
217.5862029858
 30
0.0
 10
249.1092778314
 20
216.8420159664
 30
0.0
 10
249.5576822862
 20
216.3506384464
 30
0.0
 10
250.1855327485
 20
216.0322837327
 30
0.0
 10
250.7246871267
 20
215.9542154945
 30
0.0
 10
251.0316052352
 20
215.9460355283
 30
0.0
 10
251.087502698
 20
215.9458661688
 30
0.0
  0
SPLINE
  5
358
100
AcDbEntity
  8
0
100
AcDbSpline
 62
7
  6
BYLAYER
 70
0
 71
3
 72
15
 73
11
 74
0
 42
0.0000001
 43
0.0000001
 44
0.0000000001
 40
0.0
 40
0.0
 40
0.0
 40
0.0
 40
0.0998735007
 40
0.1997470014
 40
0.395328411
 40
0.5822338331
 40
0.732202222
 40
0.8032531807
 40
0.872978314
 40
1.0
 40
1.0
 40
1.0
 40
1.0
 10
252.7063840386
 20
217.1700053953
 30
0.0
 10
252.615642062
 20
217.108184727
 30
0.0
 10
252.4344265526
 20
216.984810003
 30
0.0
 10
252.0555862281
 20
216.7671275088
 30
0.0
 10
251.5485835958
 20
216.6228433482
 30
0.0
 10
250.9464024464
 20
216.6478062104
 30
0.0
 10
250.526539233
 20
216.831530883
 30
0.0
 10
250.2988366265
 20
217.0630225048
 30
0.0
 10
250.1494156508
 20
217.3235101739
 30
0.0
 10
250.118343511
 20
217.5402641726
 30
0.0
 10
250.0976020117
 20
217.6792230193
 30
0.0
  0
SPLINE
  5
359
100
AcDbEntity
  8
0
100
AcDbSpline
 62
7
  6
BYLAYER
 70
0
 71
3
 72
10
 73
6
 74
0
 42
0.0000001
 43
0.0000001
 44
0.0000000001
 40
0.0
 40
0.0
 40
0.0
 40
0.0
 40
0.4798054596
 40
0.7269172279
 40
1.0
 40
1.0
 40
1.0
 40
1.0
 10
252.7719741297
 20
217.6792230193
 30
0.0
 10
252.766442546
 20
217.8955604826
 30
0.0
 10
252.7588868215
 20
218.2246723328
 30
0.0
 10
252.6337888955
 20
218.6597876929
 30
0.0
 10
252.5272818813
 20
218.8695319323
 30
0.0
 10
252.4609968679
 20
218.9730159286
 30
0.0
  0
SPLINE
  5
35A
100
AcDbEntity
  8
0
100
AcDbSpline
 62
7
  6
BYLAYER
 70
0
 71
3
 72
11
 73
7
 74
0
 42
0.0000001
 43
0.0000001
 44
0.0000000001
 40
0.0
 40
0.0
 40
0.0
 40
0.0
 40
0.1544785142
 40
0.4942107578
 40
0.6610909247
 40
1.0
 40
1.0
 40
1.0
 40
1.0
 10
252.4609968679
 20
218.9730159286
 30
0.0
 10
252.4084202878
 20
219.0550983534
 30
0.0
 10
252.2193379992
 20
219.3043655379
 30
0.0
 10
251.8842010757
 20
219.566746088
 30
0.0
 10
251.3855233489
 20
219.7659939359
 30
0.0
 10
251.0644113741
 20
219.7930035886
 30
0.0
 10
250.850610342
 20
219.8116676503
 30
0.0
  0
SPLINE
  5
35B
100
AcDbEntity
  8
0
100
AcDbSpline
 62
7
  6
BYLAYER
 70
0
 71
3
 72
17
 73
13
 74
0
 42
0.0000001
 43
0.0000001
 44
0.0000000001
 40
0.0
 40
0.0
 40
0.0
 40
0.0
 40
0.069282355
 40
0.1329533278
 40
0.2605642115
 40
0.3832282456
 40
0.5103753826
 40
0.665804303
 40
0.8365278036
 40
0.9042794998
 40
0.9666604785
 40
1.0
 40
1.0
 40
1.0
 40
1.0
 10
257.6481289778
 20
217.0338846591
 30
0.0
 10
257.5856260505
 20
216.9812501455
 30
0.0
 10
257.4657465681
 20
216.8798418664
 30
0.0
 10
257.1930763311
 20
216.7335673487
 30
0.0
 10
256.8038086308
 20
216.6994372175
 30
0.0
 10
256.383654869
 20
216.8855823161
 30
0.0
 10
256.1105991702
 20
217.2979004077
 30
0.0
 10
256.0293034856
 20
217.8333935932
 30
0.0
 10
256.0763784296
 20
218.2952751513
 30
0.0
 10
256.2199162481
 20
218.6231525443
 30
0.0
 10
256.3392814927
 20
218.7780686399
 30
0.0
 10
256.4254941176
 20
218.8500176344
 30
0.0
 10
256.4571521237
 20
218.8727197485
 30
0.0
  0
SPLINE
  5
35C
100
AcDbEntity
  8
0
100
AcDbSpline
 62
7
  6
BYLAYER
 70
0
 71
3
 72
12
 73
8
 74
0
 42
0.0000001
 43
0.0000001
 44
0.0000000001
 40
0.0
 40
0.0
 40
0.0
 40
0.0
 40
0.1652594663
 40
0.3310800161
 40
0.6122759767
 40
0.8741954407
 40
1.0
 40
1.0
 40
1.0
 40
1.0
 10
257.6481289768
 20
219.5791209593
 30
0.0
 10
257.525482053
 20
219.6311377343
 30
0.0
 10
257.279393954
 20
219.7370474566
 30
0.0
 10
256.7964580764
 20
219.8327513594
 30
0.0
 10
256.2151108313
 20
219.7989919765
 30
0.0
 10
255.7140548723
 20
219.5822362307
 30
0.0
 10
255.4764081421
 20
219.3775421975
 30
0.0
 10
255.4055598202
 20
219.3046044359
 30
0.0
  0
SPLINE
  5
35D
100
AcDbEntity
  8
0
100
AcDbSpline
 62
7
  6
BYLAYER
 70
0
 71
3
 72
12
 73
8
 74
0
 42
0.0000001
 43
0.0000001
 44
0.0000000001
 40
0.0
 40
0.0
 40
0.0
 40
0.0
 40
0.1775958024
 40
0.4756429009
 40
0.6688475734
 40
0.9349983731
 40
1.0
 40
1.0
 40
1.0
 40
1.0
 10
255.4055598202
 20
219.3046044359
 30
0.0
 10
255.2550025948
 20
219.1496070171
 30
0.0
 10
254.9274967973
 20
218.6556209409
 30
0.0
 10
254.8202983464
 20
217.8384109558
 30
0.0
 10
255.0134144998
 20
216.9249194923
 30
0.0
 10
255.4056761805
 20
216.3960383362
 30
0.0
 10
255.7445908102
 20
216.1800502066
 30
0.0
 10
255.8138532972
 20
216.1426803533
 30
0.0
  0
SPLINE
  5
35E
100
AcDbEntity
  8
0
100
AcDbSpline
 62
7
  6
BYLAYER
 70
0
 71
3
 72
14
 73
10
 74
0
 42
0.0000001
 43
0.0000001
 44
0.0000000001
 40
0.0
 40
0.0
 40
0.0
 40
0.0
 40
0.1398006641
 40
0.3028401141
 40
0.4657746574
 40
0.6362519739
 40
0.7999882482
 40
0.9004000156
 40
1.0
 40
1.0
 40
1.0
 40
1.0
 10
260.5485739569
 20
218.2966217042
 30
0.0
 10
260.5675205193
 20
218.4145875262
 30
0.0
 10
260.6080147123
 20
218.6720559011
 30
0.0
 10
260.8593172117
 20
219.0077007376
 30
0.0
 10
261.2694849547
 20
219.1420095585
 30
0.0
 10
261.7072584672
 20
219.0865292294
 30
0.0
 10
262.0011553277
 20
218.834604113
 30
0.0
 10
262.1252898591
 20
218.5500248972
 30
0.0
 10
262.1528188093
 20
218.3805988013
 30
0.0
 10
262.1668604105
 20
218.2966217043
 30
0.0
  0
SPLINE
  5
35F
100
AcDbEntity
  8
0
100
AcDbSpline
 62
7
  6
BYLAYER
 70
0
 71
3
 72
17
 73
13
 74
0
 42
0.0000001
 43
0.0000001
 44
0.0000000001
 40
0.0
 40
0.0
 40
0.0
 40
0.0
 40
0.0633298395
 40
0.1274586246
 40
0.279975069
 40
0.3832456977
 40
0.5477381234
 40
0.6478610464
 40
0.7470269177
 40
0.8526798919
 40
0.9731878186
 40
1.0
 40
1.0
 40
1.0
 40
1.0
 10
261.2756869787
 20
219.8116676503
 30
0.0
 10
261.1408092521
 20
219.8018385736
 30
0.0
 10
260.8673728619
 20
219.7828946338
 30
0.0
 10
260.2987049903
 20
219.6382486595
 30
0.0
 10
259.7200736937
 20
219.205824697
 30
0.0
 10
259.3120496223
 20
218.3952618014
 30
0.0
 10
259.2693725349
 20
217.5851133826
 30
0.0
 10
259.5367952831
 20
216.8409175158
 30
0.0
 10
259.9855187845
 20
216.3497227542
 30
0.0
 10
260.6135410278
 20
216.0317035993
 30
0.0
 10
261.1522997204
 20
215.9540372241
 30
0.0
 10
261.4589121312
 20
215.9460307677
 30
0.0
 10
261.5145401977
 20
215.9458848072
 30
0.0
  0
SPLINE
  5
360
100
AcDbEntity
  8
0
100
AcDbSpline
 62
7
  6
BYLAYER
 70
0
 71
3
 72
14
 73
10
 74
0
 42
0.0000001
 43
0.0000001
 44
0.0000000001
 40
0.0
 40
0.0
 40
0.0
 40
0.0
 40
0.1982029369
 40
0.3947095963
 40
0.5815888747
 40
0.7319518958
 40
0.8031595688
 40
0.8730598197
 40
1.0
 40
1.0
 40
1.0
 40
1.0
 10
263.1341864963
 20
217.1700053953
 30
0.0
 10
262.9543707862
 20
217.0475984886
 30
0.0
 10
262.5840125381
 20
216.7954819704
 30
0.0
 10
261.9754502062
 20
216.6231951034
 30
0.0
 10
261.3722562945
 20
216.6476967055
 30
0.0
 10
260.9528783856
 20
216.8319987093
 30
0.0
 10
260.7251352363
 20
217.0637981461
 30
0.0
 10
260.5760129449
 20
217.3241316125
 30
0.0
 10
260.5449452013
 20
217.5405977613
 30
0.0
 10
260.5242119222
 20
217.6792230193
 30
0.0
  0
SPLINE
  5
361
100
AcDbEntity
  8
0
100
AcDbSpline
 62
7
  6
BYLAYER
 70
0
 71
3
 72
13
 73
9
 74
0
 42
0.0000001
 43
0.0000001
 44
0.0000000001
 40
0.0
 40
0.0
 40
0.0
 40
0.0
 40
0.1997385149
 40
0.3025899994
 40
0.5064796032
 40
0.7048396014
 40
0.8022677108
 40
1.0
 40
1.0
 40
1.0
 40
1.0
 10
263.1975618577
 20
217.6792230193
 30
0.0
 10
263.1920121225
 20
217.8955755996
 30
0.0
 10
263.1844308714
 20
218.2246924643
 30
0.0
 10
263.032070046
 20
218.7540701824
 30
0.0
 10
262.7432095314
 20
219.2270863437
 30
0.0
 10
262.309147296
 20
219.5667794623
 30
0.0
 10
261.8104443227
 20
219.7659721383
 30
0.0
 10
261.4893989447
 20
219.792996317
 30
0.0
 10
261.2756869787
 20
219.8116676503
 30
0.0
  0
SPLINE
  5
362
100
AcDbEntity
  8
0
100
AcDbSpline
 62
7
  6
BYLAYER
 70
0
 71
3
 72
11
 73
7
 74
0
 42
0.0000001
 43
0.0000001
 44
0.0000000001
 40
0.0
 40
0.0
 40
0.0
 40
0.0
 40
0.4039587164
 40
0.6027162974
 40
0.799375548
 40
1.0
 40
1.0
 40
1.0
 40
1.0
 10
252.0891557167
 20
213.4344366975
 30
0.0
 10
252.1156798053
 20
213.5458945874
 30
0.0
 10
252.1628831156
 20
213.7163952102
 30
0.0
 10
252.3295704015
 20
213.8772601401
 30
0.0
 10
252.4885916851
 20
213.9467828629
 30
0.0
 10
252.6010944891
 20
213.9535730543
 30
0.0
 10
252.657830334
 20
213.9574537943
 30
0.0
  0
SPLINE
  5
363
100
AcDbEntity
  8
0
100
AcDbSpline
 62
7
  6
BYLAYER
 70
0
 71
3
 72
11
 73
7
 74
0
 42
0.0000001
 43
0.0000001
 44
0.0000000001
 40
0.0
 40
0.0
 40
0.0
 40
0.0
 40
0.2053230018
 40
0.5990536737
 40
0.7994190405
 40
1.0
 40
1.0
 40
1.0
 40
1.0
 10
252.657830334
 20
213.9574537942
 30
0.0
 10
252.7126908825
 20
213.9536619659
 30
0.0
 10
252.8807253854
 20
213.9400491327
 30
0.0
 10
253.0539942994
 20
213.7955118868
 30
0.0
 10
253.1336269106
 20
213.5947291906
 30
0.0
 10
253.1443572728
 20
213.4878314872
 30
0.0
 10
253.150011571
 20
213.4344366972
 30
0.0
  0
SPLINE
  5
364
100
AcDbEntity
  8
0
100
AcDbSpline
 62
7
  6
BYLAYER
 70
0
 71
3
 72
13
 73
9
 74
0
 42
0.0000001
 43
0.0000001
 44
0.0000000001
 40
0.0
 40
0.0
 40
0.0
 40
0.0
 40
0.200055432
 40
0.3394405703
 40
0.5708253409
 40
0.7732622126
 40
0.8766010827
 40
1.0
 40
1.0
 40
1.0
 40
1.0
 10
253.52890083
 20
212.7758099543
 30
0.0
 10
253.4229368356
 20
212.712949156
 30
0.0
 10
253.2425178769
 20
212.604932334
 30
0.0
 10
252.903979058
 20
212.5098572054
 30
0.0
 10
252.5343839741
 20
212.5130914714
 30
0.0
 10
252.2488633279
 20
212.7061930243
 30
0.0
 10
252.1265421692
 20
212.9453109706
 30
0.0
 10
252.0975647008
 20
213.0819023583
 30
0.0
 10
252.0814893431
 20
213.1562324883
 30
0.0
  0
SPLINE
  5
365
100
AcDbEntity
  8
0
100
AcDbSpline
 62
7
  6
BYLAYER
 70
0
 71
3
 72
16
 73
12
 74
0
 42
0.0000001
 43
0.0000001
 44
0.0000000001
 40
0.0
 40
0.0
 40
0.0
 40
0.0
 40
0.0770076205
 40
0.154015241
 40
0.2686400425
 40
0.3816955177
 40
0.5046444783
 40
0.6260684847
 40
0.7501018218
 40
0.9611993397
 40
1.0
 40
1.0
 40
1.0
 40
1.0
 10
253.5655290632
 20
213.1562324883
 30
0.0
 10
253.5617420394
 20
213.2542378616
 30
0.0
 10
253.5545085586
 20
213.4505215196
 30
0.0
 10
253.4812880085
 20
213.7858274034
 30
0.0
 10
253.2771435553
 20
214.1340646692
 30
0.0
 10
252.8645774069
 20
214.3326728512
 30
0.0
 10
252.3859668843
 20
214.3219913006
 30
0.0
 10
251.9551462224
 20
214.0991683774
 30
0.0
 10
251.643600677
 20
213.5903981206
 30
0.0
 10
251.6396688291
 20
213.0833483575
 30
0.0
 10
251.7463034622
 20
212.7796247025
 30
0.0
 10
251.7656300366
 20
212.7338088536
 30
0.0
  0
SPLINE
  5
366
100
AcDbEntity
  8
0
100
AcDbSpline
 62
7
  6
BYLAYER
 70
0
 71
3
 72
12
 73
8
 74
0
 42
0.0000001
 43
0.0000001
 44
0.0000000001
 40
0.0
 40
0.0
 40
0.0
 40
0.0
 40
0.3810179142
 40
0.5663232722
 40
0.7156054643
 40
0.8733810427
 40
1.0
 40
1.0
 40
1.0
 40
1.0
 10
245.9896178811
 20
214.4593457723
 30
0.0
 10
246.0254618774
 20
214.6845694173
 30
0.0
 10
246.0746793872
 20
215.0335571448
 30
0.0
 10
246.0023479849
 20
215.4553925349
 30
0.0
 10
245.9089311197
 20
215.7395636027
 30
0.0
 10
245.7776474562
 20
215.954842967
 30
0.0
 10
245.6657150625
 20
216.0852997083
 30
0.0
 10
245.6165209941
 20
216.1430519533
 30
0.0
  0
SPLINE
  5
367
100
AcDbEntity
  8
0
100
AcDbSpline
 62
7
  6
BYLAYER
 70
0
 71
3
 72
9
 73
5
 74
0
 42
0.0000001
 43
0.0000001
 44
0.0000000001
 40
0.0
 40
0.0
 40
0.0
 40
0.0
 40
0.5927660854
 40
1.0
 40
1.0
 40
1.0
 40
1.0
 10
244.7902561973
 20
212.4323563813
 30
0.0
 10
244.9104092585
 20
212.555540368
 30
0.0
 10
245.1269458432
 20
212.7797772624
 30
0.0
 10
245.2931524752
 20
213.011466009
 30
0.0
 10
245.362508456
 20
213.1071676923
 30
0.0
  0
SPLINE
  5
368
100
AcDbEntity
  8
0
100
AcDbSpline
 62
7
  6
BYLAYER
 70
0
 71
3
 72
13
 73
9
 74
0
 42
0.0000001
 43
0.0000001
 44
0.0000000001
 40
0.0
 40
0.0
 40
0.0
 40
0.0
 40
0.0998247369
 40
0.2013694852
 40
0.3591373102
 40
0.5617584136
 40
0.7791744722
 40
1.0
 40
1.0
 40
1.0
 40
1.0
 10
241.0100521638
 20
211.7379532253
 30
0.0
 10
241.1224945971
 20
211.6533226036
 30
0.0
 10
241.3505283193
 20
211.4792092221
 30
0.0
 10
241.8032669111
 20
211.2873417423
 30
0.0
 10
242.4714378824
 20
211.2624218467
 30
0.0
 10
243.2630199359
 20
211.429161499
 30
0.0
 10
244.0850058654
 20
211.8369827547
 30
0.0
 10
244.5528099701
 20
212.233541648
 30
0.0
 10
244.7902561973
 20
212.4323563813
 30
0.0
  0
SPLINE
  5
369
100
AcDbEntity
  8
0
100
AcDbSpline
 62
7
  6
BYLAYER
 70
0
 71
3
 72
11
 73
7
 74
0
 42
0.0000001
 43
0.0000001
 44
0.0000000001
 40
0.0
 40
0.0
 40
0.0
 40
0.0
 40
0.3785460323
 40
0.5608939622
 40
0.8569480459
 40
1.0
 40
1.0
 40
1.0
 40
1.0
 10
240.6548434838
 20
213.5097375303
 30
0.0
 10
240.6129481016
 20
213.2772833853
 30
0.0
 10
240.554681247
 20
212.9168064755
 30
0.0
 10
240.6258463216
 20
212.3881514517
 30
0.0
 10
240.7730927303
 20
212.013639257
 30
0.0
 10
240.9525298589
 20
211.806353907
 30
0.0
 10
241.0100521638
 20
211.7379532253
 30
0.0
  0
SPLINE
  5
36A
100
AcDbEntity
  8
0
100
AcDbSpline
 62
7
  6
BYLAYER
 70
0
 71
3
 72
9
 73
5
 74
0
 42
0.0000001
 43
0.0000001
 44
0.0000000001
 40
0.0
 40
0.0
 40
0.0
 40
0.0
 40
0.5926685513
 40
1.0
 40
1.0
 40
1.0
 40
1.0
 10
241.8204731203
 20
215.4648333653
 30
0.0
 10
241.7123498013
 20
215.3543951403
 30
0.0
 10
241.5172346577
 20
215.1532425312
 30
0.0
 10
241.3646878998
 20
214.9476095443
 30
0.0
 10
241.3010336633
 20
214.8625970643
 30
0.0
  0
SPLINE
  5
36B
100
AcDbEntity
  8
0
100
AcDbSpline
 62
7
  6
BYLAYER
 70
0
 71
3
 72
12
 73
8
 74
0
 42
0.0000001
 43
0.0000001
 44
0.0000000001
 40
0.0
 40
0.0
 40
0.0
 40
0.0
 40
0.1770952026
 40
0.3571694388
 40
0.6366150623
 40
0.9937777388
 40
1.0
 40
1.0
 40
1.0
 40
1.0
 10
245.6165209941
 20
216.1430519533
 30
0.0
 10
245.5038473812
 20
216.2282707283
 30
0.0
 10
245.2754471215
 20
216.4034330854
 30
0.0
 10
244.8225049761
 20
216.5995120861
 30
0.0
 10
244.1550729549
 20
216.6304658632
 30
0.0
 10
243.6558404507
 20
216.5293213856
 30
0.0
 10
243.3820200894
 20
216.4368193174
 30
0.0
 10
243.3773339687
 20
216.4352250838
 30
0.0
  0
SPLINE
  5
36C
100
AcDbEntity
  8
0
100
AcDbSpline
 62
7
  6
BYLAYER
 70
0
 71
3
 72
9
 73
5
 74
0
 42
0.0000001
 43
0.0000001
 44
0.0000000001
 40
0.0
 40
0.0
 40
0.0
 40
0.0
 40
0.4656953525
 40
1.0
 40
1.0
 40
1.0
 40
1.0
 10
243.2405752707
 20
216.3855111581
 30
0.0
 10
243.0056524447
 20
216.2946037034
 30
0.0
 10
242.5184301635
 20
216.0446804789
 30
0.0
 10
242.1049828915
 20
215.7027298344
 30
0.0
 10
241.8845691631
 20
215.5184420809
 30
0.0
  0
LINE
  5
36D
100
AcDbEntity
  8
0
100
AcDbLine
 62
7
  6
BYLAYER
 10
241.8845691631
 20
215.5184420809
 11
241.8204731203
 21
215.4648333653
  0
SPLINE
  5
36E
100
AcDbEntity
  8
0
100
AcDbSpline
 62
7
  6
BYLAYER
 70
0
 71
3
 72
13
 73
9
 74
0
 42
0.0000001
 43
0.0000001
 44
0.0000000001
 40
0.0
 40
0.0
 40
0.0
 40
0.0
 40
0.0907767905
 40
0.2164670228
 40
0.3318006625
 40
0.4867828161
 40
0.7998238785
 40
1.0
 40
1.0
 40
1.0
 40
1.0
 10
243.9287260795
 20
213.3494251229
 30
0.0
 10
243.9119782391
 20
213.2933678147
 30
0.0
 10
243.872327905
 20
213.1582108903
 30
0.0
 10
243.7776453238
 20
212.9745320579
 30
0.0
 10
243.602108921
 20
212.7832101208
 30
0.0
 10
243.3078970626
 20
212.5528351722
 30
0.0
 10
242.8927053589
 20
212.3877761202
 30
0.0
 10
242.5639580892
 20
212.366272839
 30
0.0
 10
242.4354867103
 20
212.3565444573
 30
0.0
  0
SPLINE
  5
36F
100
AcDbEntity
  8
0
100
AcDbSpline
 62
7
  6
BYLAYER
 70
0
 71
3
 72
9
 73
5
 74
0
 42
0.0000001
 43
0.0000001
 44
0.0000000001
 40
0.0
 40
0.0
 40
0.0
 40
0.0
 40
0.5999512842
 40
1.0
 40
1.0
 40
1.0
 40
1.0
 10
244.4575355488
 20
214.8644710683
 30
0.0
 10
244.4282917499
 20
214.86386275
 30
0.0
 10
244.3759268182
 20
214.8652405908
 30
0.0
 10
244.3376442247
 20
214.832182927
 30
0.0
 10
244.3231184497
 20
214.8188135483
 30
0.0
  0
SPLINE
  5
370
100
AcDbEntity
  8
0
100
AcDbSpline
 62
7
  6
BYLAYER
 70
0
 71
3
 72
12
 73
8
 74
0
 42
0.0000001
 43
0.0000001
 44
0.0000000001
 40
0.0
 40
0.0
 40
0.0
 40
0.0
 40
0.097962421
 40
0.364535408
 40
0.6497644187
 40
0.8007555851
 40
1.0
 40
1.0
 40
1.0
 40
1.0
 10
242.7465711467
 20
214.4877965395
 30
0.0
 10
242.7659041033
 20
214.5471262511
 30
0.0
 10
242.8368634437
 20
214.7702982173
 30
0.0
 10
243.0310059139
 20
215.1118406409
 30
0.0
 10
243.4277105994
 20
215.3844103359
 30
0.0
 10
243.8030612723
 20
215.5060508835
 30
0.0
 10
244.0276508559
 20
215.523571355
 30
0.0
 10
244.153947123
 20
215.5340010983
 30
0.0
  0
SPLINE
  5
371
100
AcDbEntity
  8
0
100
AcDbSpline
 62
7
  6
BYLAYER
 70
0
 71
3
 72
9
 73
5
 74
0
 42
0.0000001
 43
0.0000001
 44
0.0000000001
 40
0.0
 40
0.0
 40
0.0
 40
0.0
 40
0.4005366719
 40
1.0
 40
1.0
 40
1.0
 40
1.0
 10
242.2319018791
 20
213.0845092963
 30
0.0
 10
242.2584717189
 20
213.086073848
 30
0.0
 10
242.3266643863
 20
213.0912950342
 30
0.0
 10
242.3794370775
 20
213.1368289975
 30
0.0
 10
242.4085692157
 20
213.1642395887
 30
0.0
  0
SPLINE
  5
372
100
AcDbEntity
  8
0
100
AcDbSpline
 62
7
  6
BYLAYER
 70
0
 71
3
 72
9
 73
5
 74
0
 42
0.0000001
 43
0.0000001
 44
0.0000000001
 40
0.0
 40
0.0
 40
0.0
 40
0.0
 40
0.3661678165
 40
1.0
 40
1.0
 40
1.0
 40
1.0
 10
233.1025962255
 20
217.1257982462
 30
0.0
 10
232.9749820107
 20
217.1754518727
 30
0.0
 10
232.6354763737
 20
217.335176495
 30
0.0
 10
232.3215602105
 20
217.5369428831
 30
0.0
 10
232.1223391408
 20
217.6645717264
 30
0.0
  0
SPLINE
  5
373
100
AcDbEntity
  8
0
100
AcDbSpline
 62
7
  6
BYLAYER
 70
0
 71
3
 72
11
 73
7
 74
0
 42
0.0000001
 43
0.0000001
 44
0.0000000001
 40
0.0
 40
0.0
 40
0.0
 40
0.0
 40
0.0887763124
 40
0.4191702493
 40
0.8060066525
 40
1.0
 40
1.0
 40
1.0
 40
1.0
 10
238.2551943626
 20
218.7957362291
 30
0.0
 10
238.2987162745
 20
218.8204361795
 30
0.0
 10
238.5123174233
 20
218.9231399172
 30
0.0
 10
238.967020507
 20
218.9883221578
 30
0.0
 10
239.4595401633
 20
218.8694395941
 30
0.0
 10
239.7593672029
 20
218.7416212386
 30
0.0
 10
239.859584912
 20
218.6995322703
 30
0.0
  0
SPLINE
  5
374
100
AcDbEntity
  8
0
100
AcDbSpline
 62
7
  6
BYLAYER
 70
0
 71
3
 72
11
 73
7
 74
0
 42
0.0000001
 43
0.0000001
 44
0.0000000001
 40
0.0
 40
0.0
 40
0.0
 40
0.0
 40
0.0789144281
 40
0.4522604858
 40
0.6488595189
 40
1.0
 40
1.0
 40
1.0
 40
1.0
 10
237.797478762
 20
216.0743868507
 30
0.0
 10
237.8513500313
 20
216.0568391694
 30
0.0
 10
238.1636697361
 20
215.9675183582
 30
0.0
 10
238.6303681602
 20
215.9277043013
 30
0.0
 10
239.2846982641
 20
215.9924039022
 30
0.0
 10
239.6773598688
 20
216.1191774554
 30
0.0
 10
239.9164864465
 20
216.1980794854
 30
0.0
  0
SPLINE
  5
375
100
AcDbEntity
  8
0
100
AcDbSpline
 62
7
  6
BYLAYER
 70
0
 71
3
 72
9
 73
5
 74
0
 42
0.0000001
 43
0.0000001
 44
0.0000000001
 40
0.0
 40
0.0
 40
0.0
 40
0.0
 40
0.4418234953
 40
1.0
 40
1.0
 40
1.0
 40
1.0
 10
265.0713127448
 20
213.9091659528
 30
0.0
 10
265.1863413518
 20
213.941586716
 30
0.0
 10
265.469558242
 20
213.9423828349
 30
0.0
 10
265.7088056419
 20
213.8012029583
 30
0.0
 10
265.8353057429
 20
213.7206480084
 30
0.0
  0
SPLINE
  5
376
100
AcDbEntity
  8
0
100
AcDbSpline
 62
7
  6
BYLAYER
 70
0
 71
3
 72
9
 73
5
 74
0
 42
0.0000001
 43
0.0000001
 44
0.0000000001
 40
0.0
 40
0.0
 40
0.0
 40
0.0
 40
0.442718032
 40
1.0
 40
1.0
 40
1.0
 40
1.0
 10
255.5250207307
 20
213.9097719161
 30
0.0
 10
255.6399154535
 20
213.9416347852
 30
0.0
 10
255.9215249666
 20
213.9420996636
 30
0.0
 10
256.1599088571
 20
213.8009438783
 30
0.0
 10
256.2855586996
 20
213.7206480083
 30
0.0
  0
SPLINE
  5
377
100
AcDbEntity
  8
0
100
AcDbSpline
 62
7
  6
BYLAYER
 70
0
 71
3
 72
10
 73
6
 74
0
 42
0.0000001
 43
0.0000001
 44
0.0000000001
 40
0.0
 40
0.0
 40
0.0
 40
0.0
 40
0.3962094761
 40
0.5933789186
 40
1.0
 40
1.0
 40
1.0
 40
1.0
 10
251.087502698
 20
215.9458661688
 30
0.0
 10
251.3089461166
 20
215.9451952339
 30
0.0
 10
251.6364133549
 20
215.9753372584
 30
0.0
 10
252.1926597
 20
216.1235062124
 30
0.0
 10
252.5084532261
 20
216.3176694376
 30
0.0
 10
252.7063840386
 20
216.4422109193
 30
0.0
  0
SPLINE
  5
378
100
AcDbEntity
  8
0
100
AcDbSpline
 62
7
  6
BYLAYER
 70
0
 71
3
 72
11
 73
7
 74
0
 42
0.0000001
 43
0.0000001
 44
0.0000000001
 40
0.0
 40
0.0
 40
0.0
 40
0.0
 40
0.2471966477
 40
0.6245639297
 40
0.8138942314
 40
1.0
 40
1.0
 40
1.0
 40
1.0
 10
256.4571521237
 20
218.8727197485
 30
0.0
 10
256.5411888122
 20
218.9329828772
 30
0.0
 10
256.7825360391
 20
219.0432663358
 30
0.0
 10
257.1381986319
 20
219.0360526612
 30
0.0
 10
257.4395804151
 20
218.9387880146
 30
0.0
 10
257.5814413827
 20
218.8549998352
 30
0.0
 10
257.6481289779
 20
218.8135057016
 30
0.0
  0
SPLINE
  5
379
100
AcDbEntity
  8
0
100
AcDbSpline
 62
7
  6
BYLAYER
 70
0
 71
3
 72
12
 73
8
 74
0
 42
0.0000001
 43
0.0000001
 44
0.0000000001
 40
0.0
 40
0.0
 40
0.0
 40
0.0
 40
0.1994462272
 40
0.3600718458
 40
0.662448642
 40
0.9616695007
 40
1.0
 40
1.0
 40
1.0
 40
1.0
 10
255.8138532972
 20
216.1426803533
 30
0.0
 10
255.9274516689
 20
216.0813895352
 30
0.0
 10
256.1458303608
 20
215.995147081
 30
0.0
 10
256.5712160629
 20
215.9302267644
 30
0.0
 10
257.0702478038
 20
215.9527857826
 30
0.0
 10
257.4473242657
 20
216.1771937268
 30
0.0
 10
257.6275657103
 20
216.3019697246
 30
0.0
 10
257.6481289768
 20
216.3161416513
 30
0.0
  0
SPLINE
  5
37A
100
AcDbEntity
  8
0
100
AcDbSpline
 62
7
  6
BYLAYER
 70
0
 71
3
 72
10
 73
6
 74
0
 42
0.0000001
 43
0.0000001
 44
0.0000000001
 40
0.0
 40
0.0
 40
0.0
 40
0.0
 40
0.396857376
 40
0.5941087446
 40
1.0
 40
1.0
 40
1.0
 40
1.0
 10
261.5145401977
 20
215.9458848072
 30
0.0
 10
261.7364700565
 20
215.9453024933
 30
0.0
 10
262.0645312217
 20
215.9756733653
 30
0.0
 10
262.6208490459
 20
216.1242605887
 30
0.0
 10
262.9364230227
 20
216.3180310026
 30
0.0
 10
263.1341864963
 20
216.4422109193
 30
0.0
  0
SPLINE
  5
37B
100
AcDbEntity
  8
0
100
AcDbSpline
 62
7
  6
BYLAYER
 70
0
 71
3
 72
13
 73
9
 74
0
 42
0.0000001
 43
0.0000001
 44
0.0000000001
 40
0.0
 40
0.0
 40
0.0
 40
0.0
 40
0.1677492203
 40
0.3958799965
 40
0.6380644416
 40
0.7687091401
 40
0.9061487626
 40
1.0
 40
1.0
 40
1.0
 40
1.0
 10
251.7656300366
 20
212.7338088536
 30
0.0
 10
251.8109036406
 20
212.6264826116
 30
0.0
 10
251.9536178839
 20
212.3905782746
 30
0.0
 10
252.3357521377
 20
212.1335849858
 30
0.0
 10
252.7585907547
 20
212.1046433027
 30
0.0
 10
253.1115825249
 20
212.1622603662
 30
0.0
 10
253.3359872743
 20
212.2518876307
 30
0.0
 10
253.4734547151
 20
212.336470469
 30
0.0
 10
253.52890083
 20
212.3701735673
 30
0.0
  0
ENDSEC
  0
SECTION
  2
OBJECTS
  0
DICTIONARY
  5
C
100
AcDbDictionary
280
0
281
1
  3
ACAD_GROUP
350
D
  3
ACAD_MLINESTYLE
350
17
  3
ACAD_LAYOUT
350
1A
  3
ACAD_PLOTSETTINGS
350
19
  3
ACAD_PLOTSTYLENAME
350
E
  0
DICTIONARY
  5
D
102
{ACAD_REACTORS
330
C
102
}
100
AcDbDictionary
280
0
281
1
  0
ACDBDICTIONARYWDFLT
  5
E
102
{ACAD_REACTORS
330
C
102
}
100
AcDbDictionary
281
1
  3
Normal
350
F
100
AcDbDictionaryWithDefault
340
F
  0
DICTIONARY
  5
17
102
{ACAD_REACTORS
330
C
102
}
100
AcDbDictionary
280
0
281
1
  3
Standard
350
18
  0
DICTIONARY
  5
19
102
{ACAD_REACTORS
330
C
102
}
100
AcDbDictionary
281
1
  0
DICTIONARY
  5
1A
102
{ACAD_REACTORS
330
C
102
}
100
AcDbDictionary
281
1
  3
Model
350
37C
  3
Layout1
350
37D
  0
ACDBPLACEHOLDER
  5
F
102
{ACAD_REACTORS
330
E
102
}
  0
MLINESTYLE
  5
18
102
{ACAD_REACTORS
330
17
102
}
100
AcDbMlineStyle
  2
STANDARD
 70
0
  3

 62
256
 51
90.0
 52
90.0
 71
2
 49
0.5
 62
256
  6
BYLAYER
 49
-0.5
 62
256
  6
BYLAYER
  0
LAYOUT
  5
37C
102
{ACAD_REACTORS
330
1A
102
}
100
AcDbPlotSettings
  1

  2
none_device
  4

  6

 40
0.0
 41
0.0
 42
0.0
 43
0.0
 44
210.0
 45
297.0
 46
0.0
 47
0.0
 48
0.0
 49
0.0
140
0.0
141
0.0
142
1.0
143
1.0
 70
1024
 72
1
 73
0
 74
0
  7

 75
0
147
1.0
148
0.0
149
0.0
100
AcDbLayout
  1
Model
 70
0
 71
0
 10
0.0
 20
0.0
 11
210.0
 21
297.0
 12
0.0
 22
0.0
 32
0.0
 14
0.0
 24
0.0
 34
0.0
 15
0.0
 25
0.0
 35
0.0
146
0.0
 13
0.0
 23
0.0
 33
0.0
 16
1.0
 26
0.0
 36
0.0
 17
0.0
 27
1.0
 37
0.0
 76
0
330
210
345
0
346
0
  0
LAYOUT
  5
37D
102
{ACAD_REACTORS
330
1A
102
}
100
AcDbPlotSettings
  1

  2
none_device
  4

  6

 40
0.0
 41
0.0
 42
0.0
 43
0.0
 44
210.0
 45
297.0
 46
0.0
 47
0.0
 48
0.0
 49
0.0
140
0.0
141
0.0
142
1.0
143
1.0
 70
0
 72
1
 73
0
 74
0
  7

 75
0
147
1.0
148
0.0
149
0.0
100
AcDbLayout
  1
Layout1
 70
0
 71
1
 10
0.0
 20
0.0
 11
210.0
 21
297.0
 12
0.0
 22
0.0
 32
0.0
 14
0.0
 24
0.0
 34
0.0
 15
0.0
 25
0.0
 35
0.0
146
0.0
 13
0.0
 23
0.0
 33
0.0
 16
1.0
 26
0.0
 36
0.0
 17
0.0
 27
1.0
 37
0.0
 76
0
330
211
345
0
346
0
  0
ENDSEC
  0
EOF
