  0
SECTION
  2
HEADER
  9
$ACADVER
  1
AC1009
  9
$DWGCODEPAGE
  3
ansi_1250
  9
$INSBASE
 10
0.0
 20
0.0
 30
0.0
  9
$EXTMIN
 10
0.0
 20
-0.810001
 30
0.0
  9
$EXTMAX
 10
2.129
 20
0.809999
 30
0.0
  9
$LIMMIN
 10
0.0
 20
0.0
  9
$LIMMAX
 10
0.0
 20
0.0
  9
$ORTHOMODE
 70
     0
  9
$REGENMODE
 70
     1
  9
$FILLMODE
 70
     1
  9
$QTEXTMODE
 70
     0
  9
$MIRRTEXT
 70
     1
  9
$DRAGMODE
 70
     2
  9
$LTSCALE
 40
1.0
  9
$OSMODE
 70
     0
  9
$ATTMODE
 70
     1
  9
$TEXTSIZE
 40
0.2
  9
$TRACEWID
 40
0.05
  9
$TEXTSTYLE
  7
STANDARD
  9
$CLAYER
  8
0
  9
$CELTYPE
  6
CONTINUOUS
  9
$CECOLOR
 62
   256
  9
$DIMSCALE
 40
1.0
  9
$DIMASZ
 40
0.18
  9
$DIMEXO
 40
0.0625
  9
$DIMDLI
 40
0.38
  9
$DIMRND
 40
0.0
  9
$DIMDLE
 40
0.0
  9
$DIMEXE
 40
0.18
  9
$DIMTP
 40
0.0
  9
$DIMTM
 40
0.0
  9
$DIMTXT
 40
0.18
  9
$DIMCEN
 40
0.09
  9
$DIMTSZ
 40
0.0
  9
$DIMTOL
 70
     0
  9
$DIMLIM
 70
     0
  9
$DIMTIH
 70
     1
  9
$DIMTOH
 70
     1
  9
$DIMSE1
 70
     0
  9
$DIMSE2
 70
     0
  9
$DIMTAD
 70
     0
  9
$DIMZIN
 70
     0
  9
$DIMBLK
  1

  9
$DIMASO
 70
     1
  9
$DIMSHO
 70
     1
  9
$DIMPOST
  1

  9
$DIMAPOST
  1

  9
$DIMALT
 70
     0
  9
$DIMALTD
 70
     2
  9
$DIMALTF
 40
25.4
  9
$DIMLFAC
 40
1.0
  9
$DIMTOFL
 70
     0
  9
$DIMTVP
 40
0.0
  9
$DIMTIX
 70
     0
  9
$DIMSOXD
 70
     0
  9
$DIMSAH
 70
     0
  9
$DIMBLK1
  1

  9
$DIMBLK2
  1

  9
$DIMSTYLE
  2
STANDARD
  9
$DIMCLRD
 70
     0
  9
$DIMCLRE
 70
     0
  9
$DIMCLRT
 70
     0
  9
$DIMTFAC
 40
1.0
  9
$DIMGAP
 40
0.09
  9
$LUNITS
 70
     2
  9
$LUPREC
 70
     4
  9
$AXISMODE
 70
     0
  9
$AXISUNIT
 10
0.0
 20
0.0
  9
$SKETCHINC
 40
0.1
  9
$FILLETRAD
 40
0.0
  9
$AUNITS
 70
     0
  9
$AUPREC
 70
     0
  9
$MENU
  1
acad
  9
$ELEVATION
 40
0.0
  9
$PELEVATION
 40
0.0
  9
$THICKNESS
 40
0.0
  9
$LIMCHECK
 70
     0
  9
$BLIPMODE
 70
     1
  9
$CHAMFERA
 40
0.0
  9
$CHAMFERB
 40
0.0
  9
$SKPOLY
 70
     0
  9
$TDCREATE
 40
0.000000000
  9
$TDUPDATE
 40
0.000000000
  9
$TDINDWG
 40
0.0000000000
  9
$TDUSRTIMER
 40
0.0000000000
  9
$USRTIMER
 70
     1
  9
$ANGBASE
 50
0.0
  9
$ANGDIR
 70
     0
  9
$PDMODE
 70
     0
  9
$PDSIZE
 40
0.0
  9
$PLINEWID
 40
0.0
  9
$COORDS
 70
     0
  9
$SPLFRAME
 70
     0
  9
$SPLINETYPE
 70
     6
  9
$SPLINESEGS
 70
     8
  9
$ATTDIA
 70
     0
  9
$ATTREQ
 70
     1
  9
$HANDLING
 70
     1
  9
$HANDSEED
  5
5F4
  9
$SURFTAB1
 70
     6
  9
$SURFTAB2
 70
     6
  9
$SURFTYPE
 70
     6
  9
$SURFU
 70
     6
  9
$SURFV
 70
     6
  9
$UCSNAME
  2

  9
$UCSORG
 10
0.0
 20
0.0
 30
0.0
  9
$UCSXDIR
 10
1.0
 20
0.0
 30
0.0
  9
$UCSYDIR
 10
0.0
 20
1.0
 30
0.0
  9
$PUCSNAME
  2

  9
$PUCSORG
 10
0.0
 20
0.0
 30
0.0
  9
$PUCSXDIR
 10
1.0
 20
0.0
 30
0.0
  9
$PUCSYDIR
 10
0.0
 20
1.0
 30
0.0
  9
$USERI1
 70
     0
  9
$USERI2
 70
     0
  9
$USERI3
 70
     0
  9
$USERI4
 70
     0
  9
$USERI5
 70
     0
  9
$USERR1
 40
0.0
  9
$USERR2
 40
0.0
  9
$USERR3
 40
0.0
  9
$USERR4
 40
0.0
  9
$USERR5
 40
0.0
  9
$WORLDVIEW
 70
     1
  9
$SHADEDGE
 70
     3
  9
$SHADEDIF
 70
    70
  9
$TILEMODE
 70
     1
  9
$MAXACTVP
 70
    16
  9
$PINSBASE
 10
0.0
 20
0.0
 30
0.0
  9
$PLIMCHECK
 70
     0
  9
$PEXTMIN
 10
1.000000E+20
 20
1.000000E+20
 30
1.000000E+20
  9
$PEXTMAX
 10
-1.000000E+20
 20
-1.000000E+20
 30
-1.000000E+20
  9
$PLIMMIN
 10
0.0
 20
0.0
  9
$PLIMMAX
 10
12.0
 20
9.0
  9
$UNITMODE
 70
     0
  9
$VISRETAIN
 70
     0
  9
$PLINEGEN
 70
     1
  9
$PSLTSCALE
 70
     0
  9
$TREEDEPTH
 70
  3020
  0
ENDSEC
  0
SECTION
  2
TABLES
  0
TABLE
  2
VPORT
 70
     1
  0
VPORT
  2
*ACTIVE
 70
     0
 10
0.0
 20
0.0
 11
1.0
 21
1.0
 12
6.591288
 22
4.579184
 13
0.0
 23
0.0
 14
1.0
 24
1.0
 15
0.0
 25
0.0
 16
0.0
 26
0.0
 36
1.0
 17
0.0
 27
0.0
 37
0.0
 40
9.158369
 41
0.688564
 42
50.0
 43
0.0
 44
0.0
 50
0.0
 51
0.0
 71
     0
 72
   100
 73
     1
 74
     1
 75
     0
 76
     0
 77
     0
 78
     0
  0
ENDTAB
  0
TABLE
  2
LTYPE
 70
     5
  0
LTYPE
  2
CONTINUOUS
 70
    64
  3
Solid line
 72
    65
 73
     0
 40
0.0
  0
LTYPE
  2
CENTER
 70
    64
  3
Center ____ _ ____ _ ____ _ ____ _ ____ _ ____
 72
    65
 73
     4
 40
50.8
 49
31.75
 49
-6.35
 49
6.35
 49
-6.35
  0
LTYPE
  2
HIDDEN
 70
    64
  3
Hidden __ __ __ __ __ __ __ __ __ __ __ __ __ __
 72
    65
 73
     2
 40
9.525
 49
6.35
 49
-3.175
  0
LTYPE
  2
CENTER2
 70
    64
  3
Center (.5x) ___ _ ___ _ ___ _ ___ _ ___ _ ___
 72
    65
 73
     4
 40
28.575
 49
19.05
 49
-3.175
 49
3.175
 49
-3.175
  0
LTYPE
  2
HIDDEN2
 70
    64
  3
Hidden (.5x) _ _ _ _ _ _ _ _ _ _ _ _ _ _ _ _ _
 72
    65
 73
     2
 40
4.7625
 49
3.175
 49
-1.5875
  0
ENDTAB
  0
TABLE
  2
LAYER
 70
     1
  0
LAYER
  2
0
 70
     0
 62
     7
  6
CONTINUOUS
  0
ENDTAB
  0
TABLE
  2
STYLE
 70
     1
  0
STYLE
  2
STANDARD
 70
     0
 40
0.0
 41
1.0
 50
0.0
 71
     0
 42
0.0
  3
txt
  4

  0
ENDTAB
  0
TABLE
  2
VIEW
 70
     0
  0
ENDTAB
  0
TABLE
  2
UCS
 70
     0
  0
ENDTAB
  0
TABLE
  2
APPID
 70
     1
  0
APPID
  2
ACAD
 70
     0
  0
ENDTAB
  0
TABLE
  2
DIMSTYLE
 70
     1
  0
DIMSTYLE
  2
STANDARD
 70
     0
  3

  4

  5

  6

  7

 40
1.0
 41
0.18
 42
0.0625
 43
0.38
 44
0.18
 45
0.0
 46
0.0
 47
0.0
 48
0.0
 71
     0
 72
     0
 73
     1
 74
     1
 75
     0
 76
     0
 77
     0
 78
     0
140
0.18
141
0.09
142
0.0
143
25.4
144
1.0
145
0.0
146
1.0
147
0.09
170
     0
171
     2
172
     0
173
     0
174
     0
175
     0
176
     0
177
     0
178
     0
  0
ENDTAB
  0
ENDSEC
  0
SECTION
  2
BLOCKS
  0
ENDSEC
  0
SECTION
  2
ENTITIES
  0
LINE
  8
0
  6
CONTINUOUS
 62
     7
  5
319
 10
1.68
 20
-0.24209
 30
0.0
 11
1.68
 21
-0.208
 31
0.0
  0
LINE
  8
0
  6
CONTINUOUS
 62
     7
  5
31A
 10
1.68
 20
-0.24209
 30
0.0
 11
2.129
 21
-0.24209
 31
0.0
  0
LINE
  8
0
  6
CONTINUOUS
 62
     7
  5
31B
 10
2.129
 20
-0.24209
 30
0.0
 11
2.129
 21
0.242089
 31
0.0
  0
LINE
  8
0
  6
CONTINUOUS
 62
     7
  5
31C
 10
1.68
 20
0.242089
 30
0.0
 11
2.129
 21
0.242089
 31
0.0
  0
LINE
  8
0
  6
CONTINUOUS
 62
     7
  5
31D
 10
1.68
 20
0.208
 30
0.0
 11
1.68
 21
0.242089
 31
0.0
  0
LINE
  8
0
  6
CONTINUOUS
 62
     7
  5
31E
 10
1.68
 20
-0.810001
 30
0.0
 11
1.68
 21
-0.785001
 31
0.0
  0
LINE
  8
0
  6
CONTINUOUS
 62
     7
  5
31F
 10
1.68
 20
-0.785001
 30
0.0
 11
1.68
 21
-0.725239
 31
0.0
  0
LINE
  8
0
  6
CONTINUOUS
 62
     7
  5
320
 10
1.68
 20
-0.725239
 30
0.0
 11
1.68
 21
-0.617807
 31
0.0
  0
LINE
  8
0
  6
CONTINUOUS
 62
     7
  5
321
 10
1.68
 20
-0.617807
 30
0.0
 11
1.68
 21
-0.616986
 31
0.0
  0
LINE
  8
0
  6
CONTINUOUS
 62
     7
  5
322
 10
1.68
 20
-0.616986
 30
0.0
 11
1.68
 21
-0.551174
 31
0.0
  0
LINE
  8
0
  6
CONTINUOUS
 62
     7
  5
323
 10
1.68
 20
-0.551174
 30
0.0
 11
1.68
 21
-0.482872
 31
0.0
  0
LINE
  8
0
  6
CONTINUOUS
 62
     7
  5
324
 10
1.68
 20
-0.482872
 30
0.0
 11
1.68
 21
-0.450372
 31
0.0
  0
LINE
  8
0
  6
CONTINUOUS
 62
     7
  5
325
 10
1.68
 20
-0.450372
 30
0.0
 11
1.68
 21
-0.32109
 31
0.0
  0
LINE
  8
0
  6
CONTINUOUS
 62
     7
  5
326
 10
1.68
 20
-0.32109
 30
0.0
 11
1.68
 21
-0.24209
 31
0.0
  0
LINE
  8
0
  6
CONTINUOUS
 62
     7
  5
327
 10
1.764473
 20
-0.616986
 30
0.0
 11
1.768621
 21
-0.611994
 31
0.0
  0
LINE
  8
0
  6
CONTINUOUS
 62
     7
  5
328
 10
1.768621
 20
-0.611994
 30
0.0
 11
1.773084
 21
-0.607209
 31
0.0
  0
LINE
  8
0
  6
CONTINUOUS
 62
     7
  5
329
 10
1.773084
 20
-0.607209
 30
0.0
 11
1.777847
 21
-0.602647
 31
0.0
  0
LINE
  8
0
  6
CONTINUOUS
 62
     7
  5
32A
 10
1.777847
 20
-0.602647
 30
0.0
 11
1.782897
 21
-0.598321
 31
0.0
  0
LINE
  8
0
  6
CONTINUOUS
 62
     7
  5
32B
 10
1.782897
 20
-0.598321
 30
0.0
 11
1.788216
 21
-0.594246
 31
0.0
  0
LINE
  8
0
  6
CONTINUOUS
 62
     7
  5
32C
 10
1.788216
 20
-0.594246
 30
0.0
 11
1.793789
 21
-0.590434
 31
0.0
  0
LINE
  8
0
  6
CONTINUOUS
 62
     7
  5
32D
 10
1.793789
 20
-0.590434
 30
0.0
 11
1.799599
 21
-0.586896
 31
0.0
  0
LINE
  8
0
  6
CONTINUOUS
 62
     7
  5
32E
 10
1.799599
 20
-0.586896
 30
0.0
 11
1.805627
 21
-0.583644
 31
0.0
  0
LINE
  8
0
  6
CONTINUOUS
 62
     7
  5
32F
 10
1.805627
 20
-0.583644
 30
0.0
 11
1.811855
 21
-0.580688
 31
0.0
  0
LINE
  8
0
  6
CONTINUOUS
 62
     7
  5
330
 10
1.811855
 20
-0.580688
 30
0.0
 11
1.818264
 21
-0.578037
 31
0.0
  0
LINE
  8
0
  6
CONTINUOUS
 62
     7
  5
331
 10
1.818264
 20
-0.578037
 30
0.0
 11
1.824833
 21
-0.575698
 31
0.0
  0
LINE
  8
0
  6
CONTINUOUS
 62
     7
  5
332
 10
1.824833
 20
-0.575698
 30
0.0
 11
1.831542
 21
-0.573681
 31
0.0
  0
LINE
  8
0
  6
CONTINUOUS
 62
     7
  5
333
 10
1.831542
 20
-0.573681
 30
0.0
 11
1.83837
 21
-0.571989
 31
0.0
  0
LINE
  8
0
  6
CONTINUOUS
 62
     7
  5
334
 10
1.83837
 20
-0.571989
 30
0.0
 11
1.845297
 21
-0.57063
 31
0.0
  0
LINE
  8
0
  6
CONTINUOUS
 62
     7
  5
335
 10
1.845297
 20
-0.57063
 30
0.0
 11
1.8523
 21
-0.569607
 31
0.0
  0
LINE
  8
0
  6
CONTINUOUS
 62
     7
  5
336
 10
1.8523
 20
-0.569607
 30
0.0
 11
1.859358
 21
-0.568923
 31
0.0
  0
LINE
  8
0
  6
CONTINUOUS
 62
     7
  5
337
 10
1.859358
 20
-0.568923
 30
0.0
 11
1.866449
 21
-0.568581
 31
0.0
  0
LINE
  8
0
  6
CONTINUOUS
 62
     7
  5
338
 10
1.866449
 20
-0.568581
 30
0.0
 11
1.873551
 21
-0.568581
 31
0.0
  0
LINE
  8
0
  6
CONTINUOUS
 62
     7
  5
339
 10
1.873551
 20
-0.568581
 30
0.0
 11
1.880642
 21
-0.568923
 31
0.0
  0
LINE
  8
0
  6
CONTINUOUS
 62
     7
  5
33A
 10
1.880642
 20
-0.568923
 30
0.0
 11
1.8877
 21
-0.569607
 31
0.0
  0
LINE
  8
0
  6
CONTINUOUS
 62
     7
  5
33B
 10
1.8877
 20
-0.569607
 30
0.0
 11
1.894703
 21
-0.57063
 31
0.0
  0
LINE
  8
0
  6
CONTINUOUS
 62
     7
  5
33C
 10
1.894703
 20
-0.57063
 30
0.0
 11
1.90163
 21
-0.571989
 31
0.0
  0
LINE
  8
0
  6
CONTINUOUS
 62
     7
  5
33D
 10
1.90163
 20
-0.571989
 30
0.0
 11
1.908458
 21
-0.573681
 31
0.0
  0
LINE
  8
0
  6
CONTINUOUS
 62
     7
  5
33E
 10
1.908458
 20
-0.573681
 30
0.0
 11
1.915167
 21
-0.575698
 31
0.0
  0
LINE
  8
0
  6
CONTINUOUS
 62
     7
  5
33F
 10
1.915167
 20
-0.575698
 30
0.0
 11
1.921736
 21
-0.578037
 31
0.0
  0
LINE
  8
0
  6
CONTINUOUS
 62
     7
  5
340
 10
1.921736
 20
-0.578037
 30
0.0
 11
1.928145
 21
-0.580688
 31
0.0
  0
LINE
  8
0
  6
CONTINUOUS
 62
     7
  5
341
 10
1.928145
 20
-0.580688
 30
0.0
 11
1.934373
 21
-0.583644
 31
0.0
  0
LINE
  8
0
  6
CONTINUOUS
 62
     7
  5
342
 10
1.934373
 20
-0.583644
 30
0.0
 11
1.940401
 21
-0.586896
 31
0.0
  0
LINE
  8
0
  6
CONTINUOUS
 62
     7
  5
343
 10
1.940401
 20
-0.586896
 30
0.0
 11
1.946211
 21
-0.590434
 31
0.0
  0
LINE
  8
0
  6
CONTINUOUS
 62
     7
  5
344
 10
1.946211
 20
-0.590434
 30
0.0
 11
1.951784
 21
-0.594246
 31
0.0
  0
LINE
  8
0
  6
CONTINUOUS
 62
     7
  5
345
 10
1.951784
 20
-0.594246
 30
0.0
 11
1.957103
 21
-0.598321
 31
0.0
  0
LINE
  8
0
  6
CONTINUOUS
 62
     7
  5
346
 10
1.957103
 20
-0.598321
 30
0.0
 11
1.962153
 21
-0.602647
 31
0.0
  0
LINE
  8
0
  6
CONTINUOUS
 62
     7
  5
347
 10
1.962153
 20
-0.602647
 30
0.0
 11
1.966916
 21
-0.607209
 31
0.0
  0
LINE
  8
0
  6
CONTINUOUS
 62
     7
  5
348
 10
1.966916
 20
-0.607209
 30
0.0
 11
1.971379
 21
-0.611994
 31
0.0
  0
LINE
  8
0
  6
CONTINUOUS
 62
     7
  5
349
 10
1.971379
 20
-0.611994
 30
0.0
 11
1.975527
 21
-0.616986
 31
0.0
  0
LINE
  8
0
  6
CONTINUOUS
 62
     7
  5
34A
 10
1.767585
 20
-0.626042
 30
0.0
 11
1.771961
 21
-0.63077
 31
0.0
  0
LINE
  8
0
  6
CONTINUOUS
 62
     7
  5
34B
 10
1.771961
 20
-0.63077
 30
0.0
 11
1.776512
 21
-0.634992
 31
0.0
  0
LINE
  8
0
  6
CONTINUOUS
 62
     7
  5
34C
 10
1.776512
 20
-0.634992
 30
0.0
 11
1.781174
 21
-0.638725
 31
0.0
  0
LINE
  8
0
  6
CONTINUOUS
 62
     7
  5
34D
 10
1.781174
 20
-0.638725
 30
0.0
 11
1.78609
 21
-0.642131
 31
0.0
  0
LINE
  8
0
  6
CONTINUOUS
 62
     7
  5
34E
 10
1.78609
 20
-0.642131
 30
0.0
 11
1.791267
 21
-0.645227
 31
0.0
  0
LINE
  8
0
  6
CONTINUOUS
 62
     7
  5
34F
 10
1.791267
 20
-0.645227
 30
0.0
 11
1.79669
 21
-0.648013
 31
0.0
  0
LINE
  8
0
  6
CONTINUOUS
 62
     7
  5
350
 10
1.79669
 20
-0.648013
 30
0.0
 11
1.802337
 21
-0.650493
 31
0.0
  0
LINE
  8
0
  6
CONTINUOUS
 62
     7
  5
351
 10
1.802337
 20
-0.650493
 30
0.0
 11
1.808191
 21
-0.652676
 31
0.0
  0
LINE
  8
0
  6
CONTINUOUS
 62
     7
  5
352
 10
1.808191
 20
-0.652676
 30
0.0
 11
1.814229
 21
-0.654572
 31
0.0
  0
LINE
  8
0
  6
CONTINUOUS
 62
     7
  5
353
 10
1.814229
 20
-0.654572
 30
0.0
 11
1.820434
 21
-0.656194
 31
0.0
  0
LINE
  8
0
  6
CONTINUOUS
 62
     7
  5
354
 10
1.820434
 20
-0.656194
 30
0.0
 11
1.826784
 21
-0.657558
 31
0.0
  0
LINE
  8
0
  6
CONTINUOUS
 62
     7
  5
355
 10
1.826784
 20
-0.657558
 30
0.0
 11
1.83326
 21
-0.65868
 31
0.0
  0
LINE
  8
0
  6
CONTINUOUS
 62
     7
  5
356
 10
1.83326
 20
-0.65868
 30
0.0
 11
1.839841
 21
-0.65958
 31
0.0
  0
LINE
  8
0
  6
CONTINUOUS
 62
     7
  5
357
 10
1.839841
 20
-0.65958
 30
0.0
 11
1.8465
 21
-0.660272
 31
0.0
  0
LINE
  8
0
  6
CONTINUOUS
 62
     7
  5
358
 10
1.8465
 20
-0.660272
 30
0.0
 11
1.85321
 21
-0.660773
 31
0.0
  0
LINE
  8
0
  6
CONTINUOUS
 62
     7
  5
359
 10
1.85321
 20
-0.660773
 30
0.0
 11
1.859938
 21
-0.661098
 31
0.0
  0
LINE
  8
0
  6
CONTINUOUS
 62
     7
  5
35A
 10
1.859938
 20
-0.661098
 30
0.0
 11
1.866655
 21
-0.661256
 31
0.0
  0
LINE
  8
0
  6
CONTINUOUS
 62
     7
  5
35B
 10
1.866655
 20
-0.661256
 30
0.0
 11
1.873345
 21
-0.661256
 31
0.0
  0
LINE
  8
0
  6
CONTINUOUS
 62
     7
  5
35C
 10
1.873345
 20
-0.661256
 30
0.0
 11
1.880062
 21
-0.661098
 31
0.0
  0
LINE
  8
0
  6
CONTINUOUS
 62
     7
  5
35D
 10
1.880062
 20
-0.661098
 30
0.0
 11
1.88679
 21
-0.660773
 31
0.0
  0
LINE
  8
0
  6
CONTINUOUS
 62
     7
  5
35E
 10
1.88679
 20
-0.660773
 30
0.0
 11
1.8935
 21
-0.660272
 31
0.0
  0
LINE
  8
0
  6
CONTINUOUS
 62
     7
  5
35F
 10
1.8935
 20
-0.660272
 30
0.0
 11
1.900159
 21
-0.65958
 31
0.0
  0
LINE
  8
0
  6
CONTINUOUS
 62
     7
  5
360
 10
1.900159
 20
-0.65958
 30
0.0
 11
1.90674
 21
-0.65868
 31
0.0
  0
LINE
  8
0
  6
CONTINUOUS
 62
     7
  5
361
 10
1.90674
 20
-0.65868
 30
0.0
 11
1.913216
 21
-0.657558
 31
0.0
  0
LINE
  8
0
  6
CONTINUOUS
 62
     7
  5
362
 10
1.913216
 20
-0.657558
 30
0.0
 11
1.919566
 21
-0.656194
 31
0.0
  0
LINE
  8
0
  6
CONTINUOUS
 62
     7
  5
363
 10
1.919566
 20
-0.656194
 30
0.0
 11
1.925771
 21
-0.654572
 31
0.0
  0
LINE
  8
0
  6
CONTINUOUS
 62
     7
  5
364
 10
1.925771
 20
-0.654572
 30
0.0
 11
1.931809
 21
-0.652676
 31
0.0
  0
LINE
  8
0
  6
CONTINUOUS
 62
     7
  5
365
 10
1.931809
 20
-0.652676
 30
0.0
 11
1.937663
 21
-0.650493
 31
0.0
  0
LINE
  8
0
  6
CONTINUOUS
 62
     7
  5
366
 10
1.937663
 20
-0.650493
 30
0.0
 11
1.94331
 21
-0.648013
 31
0.0
  0
LINE
  8
0
  6
CONTINUOUS
 62
     7
  5
367
 10
1.94331
 20
-0.648013
 30
0.0
 11
1.948733
 21
-0.645227
 31
0.0
  0
LINE
  8
0
  6
CONTINUOUS
 62
     7
  5
368
 10
1.948733
 20
-0.645227
 30
0.0
 11
1.95391
 21
-0.642131
 31
0.0
  0
LINE
  8
0
  6
CONTINUOUS
 62
     7
  5
369
 10
1.95391
 20
-0.642131
 30
0.0
 11
1.958826
 21
-0.638725
 31
0.0
  0
LINE
  8
0
  6
CONTINUOUS
 62
     7
  5
36A
 10
1.958826
 20
-0.638725
 30
0.0
 11
1.963488
 21
-0.634992
 31
0.0
  0
LINE
  8
0
  6
CONTINUOUS
 62
     7
  5
36B
 10
1.963488
 20
-0.634992
 30
0.0
 11
1.968039
 21
-0.63077
 31
0.0
  0
LINE
  8
0
  6
CONTINUOUS
 62
     7
  5
36C
 10
1.968039
 20
-0.63077
 30
0.0
 11
1.972415
 21
-0.626042
 31
0.0
  0
LINE
  8
0
  6
CONTINUOUS
 62
     7
  5
36D
 10
1.759237
 20
-0.616958
 30
0.0
 11
1.759432
 21
-0.617138
 31
0.0
  0
LINE
  8
0
  6
CONTINUOUS
 62
     7
  5
36E
 10
1.759432
 20
-0.617138
 30
0.0
 11
1.75963
 21
-0.617324
 31
0.0
  0
LINE
  8
0
  6
CONTINUOUS
 62
     7
  5
36F
 10
1.75963
 20
-0.617324
 30
0.0
 11
1.759832
 21
-0.617516
 31
0.0
  0
LINE
  8
0
  6
CONTINUOUS
 62
     7
  5
370
 10
1.759832
 20
-0.617516
 30
0.0
 11
1.760038
 21
-0.617715
 31
0.0
  0
LINE
  8
0
  6
CONTINUOUS
 62
     7
  5
371
 10
1.760038
 20
-0.617715
 30
0.0
 11
1.760246
 21
-0.617919
 31
0.0
  0
LINE
  8
0
  6
CONTINUOUS
 62
     7
  5
372
 10
1.760246
 20
-0.617919
 30
0.0
 11
1.760458
 21
-0.61813
 31
0.0
  0
LINE
  8
0
  6
CONTINUOUS
 62
     7
  5
373
 10
1.760458
 20
-0.61813
 30
0.0
 11
1.760673
 21
-0.618346
 31
0.0
  0
LINE
  8
0
  6
CONTINUOUS
 62
     7
  5
374
 10
1.760673
 20
-0.618346
 30
0.0
 11
1.760891
 21
-0.618569
 31
0.0
  0
LINE
  8
0
  6
CONTINUOUS
 62
     7
  5
375
 10
1.760891
 20
-0.618569
 30
0.0
 11
1.761113
 21
-0.618796
 31
0.0
  0
LINE
  8
0
  6
CONTINUOUS
 62
     7
  5
376
 10
1.761113
 20
-0.618796
 30
0.0
 11
1.761337
 21
-0.619029
 31
0.0
  0
LINE
  8
0
  6
CONTINUOUS
 62
     7
  5
377
 10
1.761337
 20
-0.619029
 30
0.0
 11
1.761564
 21
-0.619267
 31
0.0
  0
LINE
  8
0
  6
CONTINUOUS
 62
     7
  5
378
 10
1.761564
 20
-0.619267
 30
0.0
 11
1.761794
 21
-0.619511
 31
0.0
  0
LINE
  8
0
  6
CONTINUOUS
 62
     7
  5
379
 10
1.761794
 20
-0.619511
 30
0.0
 11
1.762027
 21
-0.619759
 31
0.0
  0
LINE
  8
0
  6
CONTINUOUS
 62
     7
  5
37A
 10
1.762027
 20
-0.619759
 30
0.0
 11
1.762262
 21
-0.620011
 31
0.0
  0
LINE
  8
0
  6
CONTINUOUS
 62
     7
  5
37B
 10
1.762262
 20
-0.620011
 30
0.0
 11
1.7625
 21
-0.620269
 31
0.0
  0
LINE
  8
0
  6
CONTINUOUS
 62
     7
  5
37C
 10
1.7625
 20
-0.620269
 30
0.0
 11
1.76274
 21
-0.62053
 31
0.0
  0
LINE
  8
0
  6
CONTINUOUS
 62
     7
  5
37D
 10
1.76274
 20
-0.62053
 30
0.0
 11
1.762983
 21
-0.620796
 31
0.0
  0
LINE
  8
0
  6
CONTINUOUS
 62
     7
  5
37E
 10
1.762983
 20
-0.620796
 30
0.0
 11
1.763227
 21
-0.621066
 31
0.0
  0
LINE
  8
0
  6
CONTINUOUS
 62
     7
  5
37F
 10
1.763227
 20
-0.621066
 30
0.0
 11
1.763474
 21
-0.621339
 31
0.0
  0
LINE
  8
0
  6
CONTINUOUS
 62
     7
  5
380
 10
1.763474
 20
-0.621339
 30
0.0
 11
1.763723
 21
-0.621616
 31
0.0
  0
LINE
  8
0
  6
CONTINUOUS
 62
     7
  5
381
 10
1.763723
 20
-0.621616
 30
0.0
 11
1.763973
 21
-0.621896
 31
0.0
  0
LINE
  8
0
  6
CONTINUOUS
 62
     7
  5
382
 10
1.763973
 20
-0.621896
 30
0.0
 11
1.764226
 21
-0.62218
 31
0.0
  0
LINE
  8
0
  6
CONTINUOUS
 62
     7
  5
383
 10
1.764226
 20
-0.62218
 30
0.0
 11
1.764479
 21
-0.622466
 31
0.0
  0
LINE
  8
0
  6
CONTINUOUS
 62
     7
  5
384
 10
1.764479
 20
-0.622466
 30
0.0
 11
1.764734
 21
-0.622755
 31
0.0
  0
LINE
  8
0
  6
CONTINUOUS
 62
     7
  5
385
 10
1.764734
 20
-0.622755
 30
0.0
 11
1.76499
 21
-0.623046
 31
0.0
  0
LINE
  8
0
  6
CONTINUOUS
 62
     7
  5
386
 10
1.76499
 20
-0.623046
 30
0.0
 11
1.765248
 21
-0.62334
 31
0.0
  0
LINE
  8
0
  6
CONTINUOUS
 62
     7
  5
387
 10
1.765248
 20
-0.62334
 30
0.0
 11
1.765506
 21
-0.623635
 31
0.0
  0
LINE
  8
0
  6
CONTINUOUS
 62
     7
  5
388
 10
1.765506
 20
-0.623635
 30
0.0
 11
1.765765
 21
-0.623932
 31
0.0
  0
LINE
  8
0
  6
CONTINUOUS
 62
     7
  5
389
 10
1.765765
 20
-0.623932
 30
0.0
 11
1.766025
 21
-0.624231
 31
0.0
  0
LINE
  8
0
  6
CONTINUOUS
 62
     7
  5
38A
 10
1.766025
 20
-0.624231
 30
0.0
 11
1.766285
 21
-0.624531
 31
0.0
  0
LINE
  8
0
  6
CONTINUOUS
 62
     7
  5
38B
 10
1.766285
 20
-0.624531
 30
0.0
 11
1.766545
 21
-0.624832
 31
0.0
  0
LINE
  8
0
  6
CONTINUOUS
 62
     7
  5
38C
 10
1.766545
 20
-0.624832
 30
0.0
 11
1.766805
 21
-0.625134
 31
0.0
  0
LINE
  8
0
  6
CONTINUOUS
 62
     7
  5
38D
 10
1.766805
 20
-0.625134
 30
0.0
 11
1.767065
 21
-0.625437
 31
0.0
  0
LINE
  8
0
  6
CONTINUOUS
 62
     7
  5
38E
 10
1.767065
 20
-0.625437
 30
0.0
 11
1.767325
 21
-0.625739
 31
0.0
  0
LINE
  8
0
  6
CONTINUOUS
 62
     7
  5
38F
 10
1.767325
 20
-0.625739
 30
0.0
 11
1.767585
 21
-0.626042
 31
0.0
  0
LINE
  8
0
  6
CONTINUOUS
 62
     7
  5
390
 10
1.754241
 20
-0.617807
 30
0.0
 11
1.754241
 21
-0.617781
 31
0.0
  0
LINE
  8
0
  6
CONTINUOUS
 62
     7
  5
391
 10
1.754241
 20
-0.617781
 30
0.0
 11
1.754241
 21
-0.617755
 31
0.0
  0
LINE
  8
0
  6
CONTINUOUS
 62
     7
  5
392
 10
1.754241
 20
-0.617755
 30
0.0
 11
1.754242
 21
-0.617729
 31
0.0
  0
LINE
  8
0
  6
CONTINUOUS
 62
     7
  5
393
 10
1.754242
 20
-0.617729
 30
0.0
 11
1.754242
 21
-0.617703
 31
0.0
  0
LINE
  8
0
  6
CONTINUOUS
 62
     7
  5
394
 10
1.754242
 20
-0.617703
 30
0.0
 11
1.754242
 21
-0.617677
 31
0.0
  0
LINE
  8
0
  6
CONTINUOUS
 62
     7
  5
395
 10
1.754242
 20
-0.617677
 30
0.0
 11
1.754242
 21
-0.617652
 31
0.0
  0
LINE
  8
0
  6
CONTINUOUS
 62
     7
  5
396
 10
1.754242
 20
-0.617652
 30
0.0
 11
1.754243
 21
-0.617626
 31
0.0
  0
LINE
  8
0
  6
CONTINUOUS
 62
     7
  5
397
 10
1.754243
 20
-0.617626
 30
0.0
 11
1.754243
 21
-0.617601
 31
0.0
  0
LINE
  8
0
  6
CONTINUOUS
 62
     7
  5
398
 10
1.754243
 20
-0.617601
 30
0.0
 11
1.754244
 21
-0.617576
 31
0.0
  0
LINE
  8
0
  6
CONTINUOUS
 62
     7
  5
399
 10
1.754244
 20
-0.617576
 30
0.0
 11
1.754244
 21
-0.61755
 31
0.0
  0
LINE
  8
0
  6
CONTINUOUS
 62
     7
  5
39A
 10
1.754244
 20
-0.61755
 30
0.0
 11
1.754245
 21
-0.617525
 31
0.0
  0
LINE
  8
0
  6
CONTINUOUS
 62
     7
  5
39B
 10
1.754245
 20
-0.617525
 30
0.0
 11
1.754245
 21
-0.6175
 31
0.0
  0
LINE
  8
0
  6
CONTINUOUS
 62
     7
  5
39C
 10
1.754245
 20
-0.6175
 30
0.0
 11
1.754246
 21
-0.617475
 31
0.0
  0
LINE
  8
0
  6
CONTINUOUS
 62
     7
  5
39D
 10
1.754246
 20
-0.617475
 30
0.0
 11
1.754247
 21
-0.61745
 31
0.0
  0
LINE
  8
0
  6
CONTINUOUS
 62
     7
  5
39E
 10
1.754247
 20
-0.61745
 30
0.0
 11
1.754248
 21
-0.617426
 31
0.0
  0
LINE
  8
0
  6
CONTINUOUS
 62
     7
  5
39F
 10
1.754248
 20
-0.617426
 30
0.0
 11
1.754249
 21
-0.617401
 31
0.0
  0
LINE
  8
0
  6
CONTINUOUS
 62
     7
  5
3A0
 10
1.754249
 20
-0.617401
 30
0.0
 11
1.75425
 21
-0.617376
 31
0.0
  0
LINE
  8
0
  6
CONTINUOUS
 62
     7
  5
3A1
 10
1.75425
 20
-0.617376
 30
0.0
 11
1.754251
 21
-0.617352
 31
0.0
  0
LINE
  8
0
  6
CONTINUOUS
 62
     7
  5
3A2
 10
1.754251
 20
-0.617352
 30
0.0
 11
1.754252
 21
-0.617328
 31
0.0
  0
LINE
  8
0
  6
CONTINUOUS
 62
     7
  5
3A3
 10
1.754252
 20
-0.617328
 30
0.0
 11
1.754253
 21
-0.617303
 31
0.0
  0
LINE
  8
0
  6
CONTINUOUS
 62
     7
  5
3A4
 10
1.754253
 20
-0.617303
 30
0.0
 11
1.754254
 21
-0.617279
 31
0.0
  0
LINE
  8
0
  6
CONTINUOUS
 62
     7
  5
3A5
 10
1.754254
 20
-0.617279
 30
0.0
 11
1.754255
 21
-0.617255
 31
0.0
  0
LINE
  8
0
  6
CONTINUOUS
 62
     7
  5
3A6
 10
1.754255
 20
-0.617255
 30
0.0
 11
1.754256
 21
-0.617231
 31
0.0
  0
LINE
  8
0
  6
CONTINUOUS
 62
     7
  5
3A7
 10
1.754256
 20
-0.617231
 30
0.0
 11
1.754258
 21
-0.617207
 31
0.0
  0
LINE
  8
0
  6
CONTINUOUS
 62
     7
  5
3A8
 10
1.754258
 20
-0.617207
 30
0.0
 11
1.754259
 21
-0.617183
 31
0.0
  0
LINE
  8
0
  6
CONTINUOUS
 62
     7
  5
3A9
 10
1.754259
 20
-0.617183
 30
0.0
 11
1.754261
 21
-0.617159
 31
0.0
  0
LINE
  8
0
  6
CONTINUOUS
 62
     7
  5
3AA
 10
1.754261
 20
-0.617159
 30
0.0
 11
1.754262
 21
-0.617136
 31
0.0
  0
LINE
  8
0
  6
CONTINUOUS
 62
     7
  5
3AB
 10
1.754262
 20
-0.617136
 30
0.0
 11
1.754264
 21
-0.617112
 31
0.0
  0
LINE
  8
0
  6
CONTINUOUS
 62
     7
  5
3AC
 10
1.754264
 20
-0.617112
 30
0.0
 11
1.754265
 21
-0.617089
 31
0.0
  0
LINE
  8
0
  6
CONTINUOUS
 62
     7
  5
3AD
 10
1.754265
 20
-0.617089
 30
0.0
 11
1.754267
 21
-0.617066
 31
0.0
  0
LINE
  8
0
  6
CONTINUOUS
 62
     7
  5
3AE
 10
1.754267
 20
-0.617066
 30
0.0
 11
1.754269
 21
-0.617042
 31
0.0
  0
LINE
  8
0
  6
CONTINUOUS
 62
     7
  5
3AF
 10
1.754269
 20
-0.617042
 30
0.0
 11
1.754271
 21
-0.617019
 31
0.0
  0
LINE
  8
0
  6
CONTINUOUS
 62
     7
  5
3B0
 10
1.754271
 20
-0.617019
 30
0.0
 11
1.754272
 21
-0.616996
 31
0.0
  0
LINE
  8
0
  6
CONTINUOUS
 62
     7
  5
3B1
 10
1.754272
 20
-0.616996
 30
0.0
 11
1.754274
 21
-0.616973
 31
0.0
  0
LINE
  8
0
  6
CONTINUOUS
 62
     7
  5
3B2
 10
1.754274
 20
-0.616973
 30
0.0
 11
1.754276
 21
-0.61695
 31
0.0
  0
LINE
  8
0
  6
CONTINUOUS
 62
     7
  5
3B3
 10
1.754241
 20
-0.725239
 30
0.0
 11
1.754241
 21
-0.617807
 31
0.0
  0
LINE
  8
0
  6
CONTINUOUS
 62
     7
  5
3B4
 10
1.834471
 20
-0.785001
 30
0.0
 11
1.831488
 21
-0.784217
 31
0.0
  0
LINE
  8
0
  6
CONTINUOUS
 62
     7
  5
3B5
 10
1.831488
 20
-0.784217
 30
0.0
 11
1.828528
 21
-0.78337
 31
0.0
  0
LINE
  8
0
  6
CONTINUOUS
 62
     7
  5
3B6
 10
1.828528
 20
-0.78337
 30
0.0
 11
1.825592
 21
-0.78246
 31
0.0
  0
LINE
  8
0
  6
CONTINUOUS
 62
     7
  5
3B7
 10
1.825592
 20
-0.78246
 30
0.0
 11
1.822683
 21
-0.781489
 31
0.0
  0
LINE
  8
0
  6
CONTINUOUS
 62
     7
  5
3B8
 10
1.822683
 20
-0.781489
 30
0.0
 11
1.819802
 21
-0.780456
 31
0.0
  0
LINE
  8
0
  6
CONTINUOUS
 62
     7
  5
3B9
 10
1.819802
 20
-0.780456
 30
0.0
 11
1.816951
 21
-0.779363
 31
0.0
  0
LINE
  8
0
  6
CONTINUOUS
 62
     7
  5
3BA
 10
1.816951
 20
-0.779363
 30
0.0
 11
1.814132
 21
-0.77821
 31
0.0
  0
LINE
  8
0
  6
CONTINUOUS
 62
     7
  5
3BB
 10
1.814132
 20
-0.77821
 30
0.0
 11
1.811347
 21
-0.776997
 31
0.0
  0
LINE
  8
0
  6
CONTINUOUS
 62
     7
  5
3BC
 10
1.811347
 20
-0.776997
 30
0.0
 11
1.808596
 21
-0.775726
 31
0.0
  0
LINE
  8
0
  6
CONTINUOUS
 62
     7
  5
3BD
 10
1.808596
 20
-0.775726
 30
0.0
 11
1.805882
 21
-0.774396
 31
0.0
  0
LINE
  8
0
  6
CONTINUOUS
 62
     7
  5
3BE
 10
1.805882
 20
-0.774396
 30
0.0
 11
1.803207
 21
-0.77301
 31
0.0
  0
LINE
  8
0
  6
CONTINUOUS
 62
     7
  5
3BF
 10
1.803207
 20
-0.77301
 30
0.0
 11
1.800571
 21
-0.771568
 31
0.0
  0
LINE
  8
0
  6
CONTINUOUS
 62
     7
  5
3C0
 10
1.800571
 20
-0.771568
 30
0.0
 11
1.797977
 21
-0.77007
 31
0.0
  0
LINE
  8
0
  6
CONTINUOUS
 62
     7
  5
3C1
 10
1.797977
 20
-0.77007
 30
0.0
 11
1.795426
 21
-0.768517
 31
0.0
  0
LINE
  8
0
  6
CONTINUOUS
 62
     7
  5
3C2
 10
1.795426
 20
-0.768517
 30
0.0
 11
1.79292
 21
-0.766912
 31
0.0
  0
LINE
  8
0
  6
CONTINUOUS
 62
     7
  5
3C3
 10
1.79292
 20
-0.766912
 30
0.0
 11
1.79046
 21
-0.765253
 31
0.0
  0
LINE
  8
0
  6
CONTINUOUS
 62
     7
  5
3C4
 10
1.79046
 20
-0.765253
 30
0.0
 11
1.788047
 21
-0.763543
 31
0.0
  0
LINE
  8
0
  6
CONTINUOUS
 62
     7
  5
3C5
 10
1.788047
 20
-0.763543
 30
0.0
 11
1.785683
 21
-0.761782
 31
0.0
  0
LINE
  8
0
  6
CONTINUOUS
 62
     7
  5
3C6
 10
1.785683
 20
-0.761782
 30
0.0
 11
1.78337
 21
-0.759972
 31
0.0
  0
LINE
  8
0
  6
CONTINUOUS
 62
     7
  5
3C7
 10
1.78337
 20
-0.759972
 30
0.0
 11
1.781109
 21
-0.758113
 31
0.0
  0
LINE
  8
0
  6
CONTINUOUS
 62
     7
  5
3C8
 10
1.781109
 20
-0.758113
 30
0.0
 11
1.7789
 21
-0.756207
 31
0.0
  0
LINE
  8
0
  6
CONTINUOUS
 62
     7
  5
3C9
 10
1.7789
 20
-0.756207
 30
0.0
 11
1.776746
 21
-0.754255
 31
0.0
  0
LINE
  8
0
  6
CONTINUOUS
 62
     7
  5
3CA
 10
1.776746
 20
-0.754255
 30
0.0
 11
1.774648
 21
-0.752258
 31
0.0
  0
LINE
  8
0
  6
CONTINUOUS
 62
     7
  5
3CB
 10
1.774648
 20
-0.752258
 30
0.0
 11
1.772607
 21
-0.750217
 31
0.0
  0
LINE
  8
0
  6
CONTINUOUS
 62
     7
  5
3CC
 10
1.772607
 20
-0.750217
 30
0.0
 11
1.770624
 21
-0.748133
 31
0.0
  0
LINE
  8
0
  6
CONTINUOUS
 62
     7
  5
3CD
 10
1.770624
 20
-0.748133
 30
0.0
 11
1.768701
 21
-0.746008
 31
0.0
  0
LINE
  8
0
  6
CONTINUOUS
 62
     7
  5
3CE
 10
1.768701
 20
-0.746008
 30
0.0
 11
1.766838
 21
-0.743843
 31
0.0
  0
LINE
  8
0
  6
CONTINUOUS
 62
     7
  5
3CF
 10
1.766838
 20
-0.743843
 30
0.0
 11
1.765037
 21
-0.741639
 31
0.0
  0
LINE
  8
0
  6
CONTINUOUS
 62
     7
  5
3D0
 10
1.765037
 20
-0.741639
 30
0.0
 11
1.763298
 21
-0.739398
 31
0.0
  0
LINE
  8
0
  6
CONTINUOUS
 62
     7
  5
3D1
 10
1.763298
 20
-0.739398
 30
0.0
 11
1.761624
 21
-0.737121
 31
0.0
  0
LINE
  8
0
  6
CONTINUOUS
 62
     7
  5
3D2
 10
1.761624
 20
-0.737121
 30
0.0
 11
1.760014
 21
-0.734808
 31
0.0
  0
LINE
  8
0
  6
CONTINUOUS
 62
     7
  5
3D3
 10
1.760014
 20
-0.734808
 30
0.0
 11
1.75847
 21
-0.732463
 31
0.0
  0
LINE
  8
0
  6
CONTINUOUS
 62
     7
  5
3D4
 10
1.75847
 20
-0.732463
 30
0.0
 11
1.756993
 21
-0.730085
 31
0.0
  0
LINE
  8
0
  6
CONTINUOUS
 62
     7
  5
3D5
 10
1.756993
 20
-0.730085
 30
0.0
 11
1.755583
 21
-0.727677
 31
0.0
  0
LINE
  8
0
  6
CONTINUOUS
 62
     7
  5
3D6
 10
1.755583
 20
-0.727677
 30
0.0
 11
1.754241
 21
-0.725239
 31
0.0
  0
LINE
  8
0
  6
CONTINUOUS
 62
     7
  5
3D7
 10
1.905529
 20
-0.785001
 30
0.0
 11
1.903503
 21
-0.785492
 31
0.0
  0
LINE
  8
0
  6
CONTINUOUS
 62
     7
  5
3D8
 10
1.903503
 20
-0.785492
 30
0.0
 11
1.901469
 21
-0.785952
 31
0.0
  0
LINE
  8
0
  6
CONTINUOUS
 62
     7
  5
3D9
 10
1.901469
 20
-0.785952
 30
0.0
 11
1.899428
 21
-0.78638
 31
0.0
  0
LINE
  8
0
  6
CONTINUOUS
 62
     7
  5
3DA
 10
1.899428
 20
-0.78638
 30
0.0
 11
1.89738
 21
-0.786777
 31
0.0
  0
LINE
  8
0
  6
CONTINUOUS
 62
     7
  5
3DB
 10
1.89738
 20
-0.786777
 30
0.0
 11
1.895328
 21
-0.787142
 31
0.0
  0
LINE
  8
0
  6
CONTINUOUS
 62
     7
  5
3DC
 10
1.895328
 20
-0.787142
 30
0.0
 11
1.893274
 21
-0.787477
 31
0.0
  0
LINE
  8
0
  6
CONTINUOUS
 62
     7
  5
3DD
 10
1.893274
 20
-0.787477
 30
0.0
 11
1.891218
 21
-0.787781
 31
0.0
  0
LINE
  8
0
  6
CONTINUOUS
 62
     7
  5
3DE
 10
1.891218
 20
-0.787781
 30
0.0
 11
1.889163
 21
-0.788055
 31
0.0
  0
LINE
  8
0
  6
CONTINUOUS
 62
     7
  5
3DF
 10
1.889163
 20
-0.788055
 30
0.0
 11
1.88711
 21
-0.788299
 31
0.0
  0
LINE
  8
0
  6
CONTINUOUS
 62
     7
  5
3E0
 10
1.88711
 20
-0.788299
 30
0.0
 11
1.885061
 21
-0.788514
 31
0.0
  0
LINE
  8
0
  6
CONTINUOUS
 62
     7
  5
3E1
 10
1.885061
 20
-0.788514
 30
0.0
 11
1.883018
 21
-0.788701
 31
0.0
  0
LINE
  8
0
  6
CONTINUOUS
 62
     7
  5
3E2
 10
1.883018
 20
-0.788701
 30
0.0
 11
1.880983
 21
-0.788859
 31
0.0
  0
LINE
  8
0
  6
CONTINUOUS
 62
     7
  5
3E3
 10
1.880983
 20
-0.788859
 30
0.0
 11
1.878957
 21
-0.788989
 31
0.0
  0
LINE
  8
0
  6
CONTINUOUS
 62
     7
  5
3E4
 10
1.878957
 20
-0.788989
 30
0.0
 11
1.876942
 21
-0.789092
 31
0.0
  0
LINE
  8
0
  6
CONTINUOUS
 62
     7
  5
3E5
 10
1.876942
 20
-0.789092
 30
0.0
 11
1.874939
 21
-0.789168
 31
0.0
  0
LINE
  8
0
  6
CONTINUOUS
 62
     7
  5
3E6
 10
1.874939
 20
-0.789168
 30
0.0
 11
1.872951
 21
-0.789218
 31
0.0
  0
LINE
  8
0
  6
CONTINUOUS
 62
     7
  5
3E7
 10
1.872951
 20
-0.789218
 30
0.0
 11
1.870979
 21
-0.789243
 31
0.0
  0
LINE
  8
0
  6
CONTINUOUS
 62
     7
  5
3E8
 10
1.870979
 20
-0.789243
 30
0.0
 11
1.869021
 21
-0.789243
 31
0.0
  0
LINE
  8
0
  6
CONTINUOUS
 62
     7
  5
3E9
 10
1.869021
 20
-0.789243
 30
0.0
 11
1.867049
 21
-0.789218
 31
0.0
  0
LINE
  8
0
  6
CONTINUOUS
 62
     7
  5
3EA
 10
1.867049
 20
-0.789218
 30
0.0
 11
1.865061
 21
-0.789168
 31
0.0
  0
LINE
  8
0
  6
CONTINUOUS
 62
     7
  5
3EB
 10
1.865061
 20
-0.789168
 30
0.0
 11
1.863058
 21
-0.789092
 31
0.0
  0
LINE
  8
0
  6
CONTINUOUS
 62
     7
  5
3EC
 10
1.863058
 20
-0.789092
 30
0.0
 11
1.861043
 21
-0.788989
 31
0.0
  0
LINE
  8
0
  6
CONTINUOUS
 62
     7
  5
3ED
 10
1.861043
 20
-0.788989
 30
0.0
 11
1.859017
 21
-0.788859
 31
0.0
  0
LINE
  8
0
  6
CONTINUOUS
 62
     7
  5
3EE
 10
1.859017
 20
-0.788859
 30
0.0
 11
1.856982
 21
-0.788701
 31
0.0
  0
LINE
  8
0
  6
CONTINUOUS
 62
     7
  5
3EF
 10
1.856982
 20
-0.788701
 30
0.0
 11
1.854939
 21
-0.788514
 31
0.0
  0
LINE
  8
0
  6
CONTINUOUS
 62
     7
  5
3F0
 10
1.854939
 20
-0.788514
 30
0.0
 11
1.85289
 21
-0.788299
 31
0.0
  0
LINE
  8
0
  6
CONTINUOUS
 62
     7
  5
3F1
 10
1.85289
 20
-0.788299
 30
0.0
 11
1.850837
 21
-0.788055
 31
0.0
  0
LINE
  8
0
  6
CONTINUOUS
 62
     7
  5
3F2
 10
1.850837
 20
-0.788055
 30
0.0
 11
1.848782
 21
-0.787781
 31
0.0
  0
LINE
  8
0
  6
CONTINUOUS
 62
     7
  5
3F3
 10
1.848782
 20
-0.787781
 30
0.0
 11
1.846726
 21
-0.787477
 31
0.0
  0
LINE
  8
0
  6
CONTINUOUS
 62
     7
  5
3F4
 10
1.846726
 20
-0.787477
 30
0.0
 11
1.844672
 21
-0.787142
 31
0.0
  0
LINE
  8
0
  6
CONTINUOUS
 62
     7
  5
3F5
 10
1.844672
 20
-0.787142
 30
0.0
 11
1.84262
 21
-0.786777
 31
0.0
  0
LINE
  8
0
  6
CONTINUOUS
 62
     7
  5
3F6
 10
1.84262
 20
-0.786777
 30
0.0
 11
1.840572
 21
-0.78638
 31
0.0
  0
LINE
  8
0
  6
CONTINUOUS
 62
     7
  5
3F7
 10
1.840572
 20
-0.78638
 30
0.0
 11
1.838531
 21
-0.785952
 31
0.0
  0
LINE
  8
0
  6
CONTINUOUS
 62
     7
  5
3F8
 10
1.838531
 20
-0.785952
 30
0.0
 11
1.836497
 21
-0.785492
 31
0.0
  0
LINE
  8
0
  6
CONTINUOUS
 62
     7
  5
3F9
 10
1.836497
 20
-0.785492
 30
0.0
 11
1.834471
 21
-0.785001
 31
0.0
  0
LINE
  8
0
  6
CONTINUOUS
 62
     7
  5
3FA
 10
1.985759
 20
-0.725239
 30
0.0
 11
1.984417
 21
-0.727677
 31
0.0
  0
LINE
  8
0
  6
CONTINUOUS
 62
     7
  5
3FB
 10
1.984417
 20
-0.727677
 30
0.0
 11
1.983007
 21
-0.730085
 31
0.0
  0
LINE
  8
0
  6
CONTINUOUS
 62
     7
  5
3FC
 10
1.983007
 20
-0.730085
 30
0.0
 11
1.98153
 21
-0.732463
 31
0.0
  0
LINE
  8
0
  6
CONTINUOUS
 62
     7
  5
3FD
 10
1.98153
 20
-0.732463
 30
0.0
 11
1.979986
 21
-0.734808
 31
0.0
  0
LINE
  8
0
  6
CONTINUOUS
 62
     7
  5
3FE
 10
1.979986
 20
-0.734808
 30
0.0
 11
1.978376
 21
-0.737121
 31
0.0
  0
LINE
  8
0
  6
CONTINUOUS
 62
     7
  5
3FF
 10
1.978376
 20
-0.737121
 30
0.0
 11
1.976702
 21
-0.739398
 31
0.0
  0
LINE
  8
0
  6
CONTINUOUS
 62
     7
  5
400
 10
1.976702
 20
-0.739398
 30
0.0
 11
1.974963
 21
-0.741639
 31
0.0
  0
LINE
  8
0
  6
CONTINUOUS
 62
     7
  5
401
 10
1.974963
 20
-0.741639
 30
0.0
 11
1.973162
 21
-0.743843
 31
0.0
  0
LINE
  8
0
  6
CONTINUOUS
 62
     7
  5
402
 10
1.973162
 20
-0.743843
 30
0.0
 11
1.971299
 21
-0.746008
 31
0.0
  0
LINE
  8
0
  6
CONTINUOUS
 62
     7
  5
403
 10
1.971299
 20
-0.746008
 30
0.0
 11
1.969376
 21
-0.748133
 31
0.0
  0
LINE
  8
0
  6
CONTINUOUS
 62
     7
  5
404
 10
1.969376
 20
-0.748133
 30
0.0
 11
1.967393
 21
-0.750217
 31
0.0
  0
LINE
  8
0
  6
CONTINUOUS
 62
     7
  5
405
 10
1.967393
 20
-0.750217
 30
0.0
 11
1.965352
 21
-0.752258
 31
0.0
  0
LINE
  8
0
  6
CONTINUOUS
 62
     7
  5
406
 10
1.965352
 20
-0.752258
 30
0.0
 11
1.963254
 21
-0.754255
 31
0.0
  0
LINE
  8
0
  6
CONTINUOUS
 62
     7
  5
407
 10
1.963254
 20
-0.754255
 30
0.0
 11
1.9611
 21
-0.756207
 31
0.0
  0
LINE
  8
0
  6
CONTINUOUS
 62
     7
  5
408
 10
1.9611
 20
-0.756207
 30
0.0
 11
1.958891
 21
-0.758113
 31
0.0
  0
LINE
  8
0
  6
CONTINUOUS
 62
     7
  5
409
 10
1.958891
 20
-0.758113
 30
0.0
 11
1.95663
 21
-0.759972
 31
0.0
  0
LINE
  8
0
  6
CONTINUOUS
 62
     7
  5
40A
 10
1.95663
 20
-0.759972
 30
0.0
 11
1.954317
 21
-0.761782
 31
0.0
  0
LINE
  8
0
  6
CONTINUOUS
 62
     7
  5
40B
 10
1.954317
 20
-0.761782
 30
0.0
 11
1.951953
 21
-0.763543
 31
0.0
  0
LINE
  8
0
  6
CONTINUOUS
 62
     7
  5
40C
 10
1.951953
 20
-0.763543
 30
0.0
 11
1.94954
 21
-0.765253
 31
0.0
  0
LINE
  8
0
  6
CONTINUOUS
 62
     7
  5
40D
 10
1.94954
 20
-0.765253
 30
0.0
 11
1.94708
 21
-0.766912
 31
0.0
  0
LINE
  8
0
  6
CONTINUOUS
 62
     7
  5
40E
 10
1.94708
 20
-0.766912
 30
0.0
 11
1.944574
 21
-0.768517
 31
0.0
  0
LINE
  8
0
  6
CONTINUOUS
 62
     7
  5
40F
 10
1.944574
 20
-0.768517
 30
0.0
 11
1.942023
 21
-0.77007
 31
0.0
  0
LINE
  8
0
  6
CONTINUOUS
 62
     7
  5
410
 10
1.942023
 20
-0.77007
 30
0.0
 11
1.939429
 21
-0.771568
 31
0.0
  0
LINE
  8
0
  6
CONTINUOUS
 62
     7
  5
411
 10
1.939429
 20
-0.771568
 30
0.0
 11
1.936793
 21
-0.77301
 31
0.0
  0
LINE
  8
0
  6
CONTINUOUS
 62
     7
  5
412
 10
1.936793
 20
-0.77301
 30
0.0
 11
1.934118
 21
-0.774396
 31
0.0
  0
LINE
  8
0
  6
CONTINUOUS
 62
     7
  5
413
 10
1.934118
 20
-0.774396
 30
0.0
 11
1.931404
 21
-0.775726
 31
0.0
  0
LINE
  8
0
  6
CONTINUOUS
 62
     7
  5
414
 10
1.931404
 20
-0.775726
 30
0.0
 11
1.928653
 21
-0.776997
 31
0.0
  0
LINE
  8
0
  6
CONTINUOUS
 62
     7
  5
415
 10
1.928653
 20
-0.776997
 30
0.0
 11
1.925868
 21
-0.77821
 31
0.0
  0
LINE
  8
0
  6
CONTINUOUS
 62
     7
  5
416
 10
1.925868
 20
-0.77821
 30
0.0
 11
1.923049
 21
-0.779363
 31
0.0
  0
LINE
  8
0
  6
CONTINUOUS
 62
     7
  5
417
 10
1.923049
 20
-0.779363
 30
0.0
 11
1.920198
 21
-0.780456
 31
0.0
  0
LINE
  8
0
  6
CONTINUOUS
 62
     7
  5
418
 10
1.920198
 20
-0.780456
 30
0.0
 11
1.917317
 21
-0.781489
 31
0.0
  0
LINE
  8
0
  6
CONTINUOUS
 62
     7
  5
419
 10
1.917317
 20
-0.781489
 30
0.0
 11
1.914408
 21
-0.78246
 31
0.0
  0
LINE
  8
0
  6
CONTINUOUS
 62
     7
  5
41A
 10
1.914408
 20
-0.78246
 30
0.0
 11
1.911472
 21
-0.78337
 31
0.0
  0
LINE
  8
0
  6
CONTINUOUS
 62
     7
  5
41B
 10
1.911472
 20
-0.78337
 30
0.0
 11
1.908512
 21
-0.784217
 31
0.0
  0
LINE
  8
0
  6
CONTINUOUS
 62
     7
  5
41C
 10
1.908512
 20
-0.784217
 30
0.0
 11
1.905529
 21
-0.785001
 31
0.0
  0
LINE
  8
0
  6
CONTINUOUS
 62
     7
  5
41D
 10
1.985759
 20
-0.617807
 30
0.0
 11
1.985759
 21
-0.725239
 31
0.0
  0
LINE
  8
0
  6
CONTINUOUS
 62
     7
  5
41E
 10
1.985724
 20
-0.61695
 30
0.0
 11
1.985726
 21
-0.616973
 31
0.0
  0
LINE
  8
0
  6
CONTINUOUS
 62
     7
  5
41F
 10
1.985726
 20
-0.616973
 30
0.0
 11
1.985728
 21
-0.616996
 31
0.0
  0
LINE
  8
0
  6
CONTINUOUS
 62
     7
  5
420
 10
1.985728
 20
-0.616996
 30
0.0
 11
1.985729
 21
-0.617019
 31
0.0
  0
LINE
  8
0
  6
CONTINUOUS
 62
     7
  5
421
 10
1.985729
 20
-0.617019
 30
0.0
 11
1.985731
 21
-0.617042
 31
0.0
  0
LINE
  8
0
  6
CONTINUOUS
 62
     7
  5
422
 10
1.985731
 20
-0.617042
 30
0.0
 11
1.985733
 21
-0.617066
 31
0.0
  0
LINE
  8
0
  6
CONTINUOUS
 62
     7
  5
423
 10
1.985733
 20
-0.617066
 30
0.0
 11
1.985735
 21
-0.617089
 31
0.0
  0
LINE
  8
0
  6
CONTINUOUS
 62
     7
  5
424
 10
1.985735
 20
-0.617089
 30
0.0
 11
1.985736
 21
-0.617112
 31
0.0
  0
LINE
  8
0
  6
CONTINUOUS
 62
     7
  5
425
 10
1.985736
 20
-0.617112
 30
0.0
 11
1.985738
 21
-0.617136
 31
0.0
  0
LINE
  8
0
  6
CONTINUOUS
 62
     7
  5
426
 10
1.985738
 20
-0.617136
 30
0.0
 11
1.985739
 21
-0.617159
 31
0.0
  0
LINE
  8
0
  6
CONTINUOUS
 62
     7
  5
427
 10
1.985739
 20
-0.617159
 30
0.0
 11
1.985741
 21
-0.617183
 31
0.0
  0
LINE
  8
0
  6
CONTINUOUS
 62
     7
  5
428
 10
1.985741
 20
-0.617183
 30
0.0
 11
1.985742
 21
-0.617207
 31
0.0
  0
LINE
  8
0
  6
CONTINUOUS
 62
     7
  5
429
 10
1.985742
 20
-0.617207
 30
0.0
 11
1.985744
 21
-0.617231
 31
0.0
  0
LINE
  8
0
  6
CONTINUOUS
 62
     7
  5
42A
 10
1.985744
 20
-0.617231
 30
0.0
 11
1.985745
 21
-0.617255
 31
0.0
  0
LINE
  8
0
  6
CONTINUOUS
 62
     7
  5
42B
 10
1.985745
 20
-0.617255
 30
0.0
 11
1.985746
 21
-0.617279
 31
0.0
  0
LINE
  8
0
  6
CONTINUOUS
 62
     7
  5
42C
 10
1.985746
 20
-0.617279
 30
0.0
 11
1.985747
 21
-0.617303
 31
0.0
  0
LINE
  8
0
  6
CONTINUOUS
 62
     7
  5
42D
 10
1.985747
 20
-0.617303
 30
0.0
 11
1.985748
 21
-0.617328
 31
0.0
  0
LINE
  8
0
  6
CONTINUOUS
 62
     7
  5
42E
 10
1.985748
 20
-0.617328
 30
0.0
 11
1.985749
 21
-0.617352
 31
0.0
  0
LINE
  8
0
  6
CONTINUOUS
 62
     7
  5
42F
 10
1.985749
 20
-0.617352
 30
0.0
 11
1.98575
 21
-0.617376
 31
0.0
  0
LINE
  8
0
  6
CONTINUOUS
 62
     7
  5
430
 10
1.98575
 20
-0.617376
 30
0.0
 11
1.985751
 21
-0.617401
 31
0.0
  0
LINE
  8
0
  6
CONTINUOUS
 62
     7
  5
431
 10
1.985751
 20
-0.617401
 30
0.0
 11
1.985752
 21
-0.617426
 31
0.0
  0
LINE
  8
0
  6
CONTINUOUS
 62
     7
  5
432
 10
1.985752
 20
-0.617426
 30
0.0
 11
1.985753
 21
-0.61745
 31
0.0
  0
LINE
  8
0
  6
CONTINUOUS
 62
     7
  5
433
 10
1.985753
 20
-0.61745
 30
0.0
 11
1.985754
 21
-0.617475
 31
0.0
  0
LINE
  8
0
  6
CONTINUOUS
 62
     7
  5
434
 10
1.985754
 20
-0.617475
 30
0.0
 11
1.985755
 21
-0.6175
 31
0.0
  0
LINE
  8
0
  6
CONTINUOUS
 62
     7
  5
435
 10
1.985755
 20
-0.6175
 30
0.0
 11
1.985755
 21
-0.617525
 31
0.0
  0
LINE
  8
0
  6
CONTINUOUS
 62
     7
  5
436
 10
1.985755
 20
-0.617525
 30
0.0
 11
1.985756
 21
-0.61755
 31
0.0
  0
LINE
  8
0
  6
CONTINUOUS
 62
     7
  5
437
 10
1.985756
 20
-0.61755
 30
0.0
 11
1.985756
 21
-0.617576
 31
0.0
  0
LINE
  8
0
  6
CONTINUOUS
 62
     7
  5
438
 10
1.985756
 20
-0.617576
 30
0.0
 11
1.985757
 21
-0.617601
 31
0.0
  0
LINE
  8
0
  6
CONTINUOUS
 62
     7
  5
439
 10
1.985757
 20
-0.617601
 30
0.0
 11
1.985757
 21
-0.617626
 31
0.0
  0
LINE
  8
0
  6
CONTINUOUS
 62
     7
  5
43A
 10
1.985757
 20
-0.617626
 30
0.0
 11
1.985758
 21
-0.617652
 31
0.0
  0
LINE
  8
0
  6
CONTINUOUS
 62
     7
  5
43B
 10
1.985758
 20
-0.617652
 30
0.0
 11
1.985758
 21
-0.617677
 31
0.0
  0
LINE
  8
0
  6
CONTINUOUS
 62
     7
  5
43C
 10
1.985758
 20
-0.617677
 30
0.0
 11
1.985758
 21
-0.617703
 31
0.0
  0
LINE
  8
0
  6
CONTINUOUS
 62
     7
  5
43D
 10
1.985758
 20
-0.617703
 30
0.0
 11
1.985758
 21
-0.617729
 31
0.0
  0
LINE
  8
0
  6
CONTINUOUS
 62
     7
  5
43E
 10
1.985758
 20
-0.617729
 30
0.0
 11
1.985759
 21
-0.617755
 31
0.0
  0
LINE
  8
0
  6
CONTINUOUS
 62
     7
  5
43F
 10
1.985759
 20
-0.617755
 30
0.0
 11
1.985759
 21
-0.617781
 31
0.0
  0
LINE
  8
0
  6
CONTINUOUS
 62
     7
  5
440
 10
1.985759
 20
-0.617781
 30
0.0
 11
1.985759
 21
-0.617807
 31
0.0
  0
LINE
  8
0
  6
CONTINUOUS
 62
     7
  5
441
 10
1.972415
 20
-0.626042
 30
0.0
 11
1.972675
 21
-0.625739
 31
0.0
  0
LINE
  8
0
  6
CONTINUOUS
 62
     7
  5
442
 10
1.972675
 20
-0.625739
 30
0.0
 11
1.972935
 21
-0.625437
 31
0.0
  0
LINE
  8
0
  6
CONTINUOUS
 62
     7
  5
443
 10
1.972935
 20
-0.625437
 30
0.0
 11
1.973195
 21
-0.625134
 31
0.0
  0
LINE
  8
0
  6
CONTINUOUS
 62
     7
  5
444
 10
1.973195
 20
-0.625134
 30
0.0
 11
1.973455
 21
-0.624832
 31
0.0
  0
LINE
  8
0
  6
CONTINUOUS
 62
     7
  5
445
 10
1.973455
 20
-0.624832
 30
0.0
 11
1.973715
 21
-0.624531
 31
0.0
  0
LINE
  8
0
  6
CONTINUOUS
 62
     7
  5
446
 10
1.973715
 20
-0.624531
 30
0.0
 11
1.973975
 21
-0.624231
 31
0.0
  0
LINE
  8
0
  6
CONTINUOUS
 62
     7
  5
447
 10
1.973975
 20
-0.624231
 30
0.0
 11
1.974235
 21
-0.623932
 31
0.0
  0
LINE
  8
0
  6
CONTINUOUS
 62
     7
  5
448
 10
1.974235
 20
-0.623932
 30
0.0
 11
1.974494
 21
-0.623635
 31
0.0
  0
LINE
  8
0
  6
CONTINUOUS
 62
     7
  5
449
 10
1.974494
 20
-0.623635
 30
0.0
 11
1.974752
 21
-0.62334
 31
0.0
  0
LINE
  8
0
  6
CONTINUOUS
 62
     7
  5
44A
 10
1.974752
 20
-0.62334
 30
0.0
 11
1.97501
 21
-0.623046
 31
0.0
  0
LINE
  8
0
  6
CONTINUOUS
 62
     7
  5
44B
 10
1.97501
 20
-0.623046
 30
0.0
 11
1.975266
 21
-0.622755
 31
0.0
  0
LINE
  8
0
  6
CONTINUOUS
 62
     7
  5
44C
 10
1.975266
 20
-0.622755
 30
0.0
 11
1.975521
 21
-0.622466
 31
0.0
  0
LINE
  8
0
  6
CONTINUOUS
 62
     7
  5
44D
 10
1.975521
 20
-0.622466
 30
0.0
 11
1.975774
 21
-0.62218
 31
0.0
  0
LINE
  8
0
  6
CONTINUOUS
 62
     7
  5
44E
 10
1.975774
 20
-0.62218
 30
0.0
 11
1.976027
 21
-0.621896
 31
0.0
  0
LINE
  8
0
  6
CONTINUOUS
 62
     7
  5
44F
 10
1.976027
 20
-0.621896
 30
0.0
 11
1.976277
 21
-0.621616
 31
0.0
  0
LINE
  8
0
  6
CONTINUOUS
 62
     7
  5
450
 10
1.976277
 20
-0.621616
 30
0.0
 11
1.976526
 21
-0.621339
 31
0.0
  0
LINE
  8
0
  6
CONTINUOUS
 62
     7
  5
451
 10
1.976526
 20
-0.621339
 30
0.0
 11
1.976773
 21
-0.621066
 31
0.0
  0
LINE
  8
0
  6
CONTINUOUS
 62
     7
  5
452
 10
1.976773
 20
-0.621066
 30
0.0
 11
1.977017
 21
-0.620796
 31
0.0
  0
LINE
  8
0
  6
CONTINUOUS
 62
     7
  5
453
 10
1.977017
 20
-0.620796
 30
0.0
 11
1.97726
 21
-0.62053
 31
0.0
  0
LINE
  8
0
  6
CONTINUOUS
 62
     7
  5
454
 10
1.97726
 20
-0.62053
 30
0.0
 11
1.9775
 21
-0.620269
 31
0.0
  0
LINE
  8
0
  6
CONTINUOUS
 62
     7
  5
455
 10
1.9775
 20
-0.620269
 30
0.0
 11
1.977738
 21
-0.620011
 31
0.0
  0
LINE
  8
0
  6
CONTINUOUS
 62
     7
  5
456
 10
1.977738
 20
-0.620011
 30
0.0
 11
1.977973
 21
-0.619759
 31
0.0
  0
LINE
  8
0
  6
CONTINUOUS
 62
     7
  5
457
 10
1.977973
 20
-0.619759
 30
0.0
 11
1.978206
 21
-0.619511
 31
0.0
  0
LINE
  8
0
  6
CONTINUOUS
 62
     7
  5
458
 10
1.978206
 20
-0.619511
 30
0.0
 11
1.978436
 21
-0.619267
 31
0.0
  0
LINE
  8
0
  6
CONTINUOUS
 62
     7
  5
459
 10
1.978436
 20
-0.619267
 30
0.0
 11
1.978663
 21
-0.619029
 31
0.0
  0
LINE
  8
0
  6
CONTINUOUS
 62
     7
  5
45A
 10
1.978663
 20
-0.619029
 30
0.0
 11
1.978887
 21
-0.618796
 31
0.0
  0
LINE
  8
0
  6
CONTINUOUS
 62
     7
  5
45B
 10
1.978887
 20
-0.618796
 30
0.0
 11
1.979109
 21
-0.618569
 31
0.0
  0
LINE
  8
0
  6
CONTINUOUS
 62
     7
  5
45C
 10
1.979109
 20
-0.618569
 30
0.0
 11
1.979327
 21
-0.618346
 31
0.0
  0
LINE
  8
0
  6
CONTINUOUS
 62
     7
  5
45D
 10
1.979327
 20
-0.618346
 30
0.0
 11
1.979542
 21
-0.61813
 31
0.0
  0
LINE
  8
0
  6
CONTINUOUS
 62
     7
  5
45E
 10
1.979542
 20
-0.61813
 30
0.0
 11
1.979754
 21
-0.617919
 31
0.0
  0
LINE
  8
0
  6
CONTINUOUS
 62
     7
  5
45F
 10
1.979754
 20
-0.617919
 30
0.0
 11
1.979962
 21
-0.617715
 31
0.0
  0
LINE
  8
0
  6
CONTINUOUS
 62
     7
  5
460
 10
1.979962
 20
-0.617715
 30
0.0
 11
1.980168
 21
-0.617516
 31
0.0
  0
LINE
  8
0
  6
CONTINUOUS
 62
     7
  5
461
 10
1.980168
 20
-0.617516
 30
0.0
 11
1.98037
 21
-0.617324
 31
0.0
  0
LINE
  8
0
  6
CONTINUOUS
 62
     7
  5
462
 10
1.98037
 20
-0.617324
 30
0.0
 11
1.980568
 21
-0.617138
 31
0.0
  0
LINE
  8
0
  6
CONTINUOUS
 62
     7
  5
463
 10
1.980568
 20
-0.617138
 30
0.0
 11
1.980763
 21
-0.616958
 31
0.0
  0
LINE
  8
0
  6
CONTINUOUS
 62
     7
  5
464
 10
2.129
 20
-0.810001
 30
0.0
 11
2.129
 21
-0.785001
 31
0.0
  0
LINE
  8
0
  6
CONTINUOUS
 62
     7
  5
465
 10
1.754241
 20
-0.725239
 30
0.0
 11
1.68
 21
-0.725239
 31
0.0
  0
LINE
  8
0
  6
CONTINUOUS
 62
     7
  5
466
 10
1.975527
 20
-0.616986
 30
0.0
 11
2.129
 21
-0.616986
 31
0.0
  0
LINE
  8
0
  6
CONTINUOUS
 62
     7
  5
467
 10
2.129
 20
-0.616986
 30
0.0
 11
2.129
 21
-0.551174
 31
0.0
  0
LINE
  8
0
  6
CONTINUOUS
 62
     7
  5
468
 10
1.68
 20
-0.616986
 30
0.0
 11
1.764473
 21
-0.616986
 31
0.0
  0
LINE
  8
0
  6
CONTINUOUS
 62
     7
  5
469
 10
1.985759
 20
0.725239
 30
0.0
 11
1.985759
 21
0.617807
 31
0.0
  0
LINE
  8
0
  6
CONTINUOUS
 62
     7
  5
46A
 10
1.905532
 20
0.784999
 30
0.0
 11
1.908516
 21
0.784215
 31
0.0
  0
LINE
  8
0
  6
CONTINUOUS
 62
     7
  5
46B
 10
1.908516
 20
0.784215
 30
0.0
 11
1.911476
 21
0.783368
 31
0.0
  0
LINE
  8
0
  6
CONTINUOUS
 62
     7
  5
46C
 10
1.911476
 20
0.783368
 30
0.0
 11
1.914411
 21
0.782459
 31
0.0
  0
LINE
  8
0
  6
CONTINUOUS
 62
     7
  5
46D
 10
1.914411
 20
0.782459
 30
0.0
 11
1.91732
 21
0.781488
 31
0.0
  0
LINE
  8
0
  6
CONTINUOUS
 62
     7
  5
46E
 10
1.91732
 20
0.781488
 30
0.0
 11
1.920201
 21
0.780455
 31
0.0
  0
LINE
  8
0
  6
CONTINUOUS
 62
     7
  5
46F
 10
1.920201
 20
0.780455
 30
0.0
 11
1.923051
 21
0.779362
 31
0.0
  0
LINE
  8
0
  6
CONTINUOUS
 62
     7
  5
470
 10
1.923051
 20
0.779362
 30
0.0
 11
1.92587
 21
0.778208
 31
0.0
  0
LINE
  8
0
  6
CONTINUOUS
 62
     7
  5
471
 10
1.92587
 20
0.778208
 30
0.0
 11
1.928656
 21
0.776995
 31
0.0
  0
LINE
  8
0
  6
CONTINUOUS
 62
     7
  5
472
 10
1.928656
 20
0.776995
 30
0.0
 11
1.931406
 21
0.775724
 31
0.0
  0
LINE
  8
0
  6
CONTINUOUS
 62
     7
  5
473
 10
1.931406
 20
0.775724
 30
0.0
 11
1.93412
 21
0.774395
 31
0.0
  0
LINE
  8
0
  6
CONTINUOUS
 62
     7
  5
474
 10
1.93412
 20
0.774395
 30
0.0
 11
1.936795
 21
0.773009
 31
0.0
  0
LINE
  8
0
  6
CONTINUOUS
 62
     7
  5
475
 10
1.936795
 20
0.773009
 30
0.0
 11
1.939431
 21
0.771566
 31
0.0
  0
LINE
  8
0
  6
CONTINUOUS
 62
     7
  5
476
 10
1.939431
 20
0.771566
 30
0.0
 11
1.942025
 21
0.770068
 31
0.0
  0
LINE
  8
0
  6
CONTINUOUS
 62
     7
  5
477
 10
1.942025
 20
0.770068
 30
0.0
 11
1.944575
 21
0.768516
 31
0.0
  0
LINE
  8
0
  6
CONTINUOUS
 62
     7
  5
478
 10
1.944575
 20
0.768516
 30
0.0
 11
1.947082
 21
0.76691
 31
0.0
  0
LINE
  8
0
  6
CONTINUOUS
 62
     7
  5
479
 10
1.947082
 20
0.76691
 30
0.0
 11
1.949542
 21
0.765252
 31
0.0
  0
LINE
  8
0
  6
CONTINUOUS
 62
     7
  5
47A
 10
1.949542
 20
0.765252
 30
0.0
 11
1.951954
 21
0.763542
 31
0.0
  0
LINE
  8
0
  6
CONTINUOUS
 62
     7
  5
47B
 10
1.951954
 20
0.763542
 30
0.0
 11
1.954318
 21
0.761781
 31
0.0
  0
LINE
  8
0
  6
CONTINUOUS
 62
     7
  5
47C
 10
1.954318
 20
0.761781
 30
0.0
 11
1.956631
 21
0.759971
 31
0.0
  0
LINE
  8
0
  6
CONTINUOUS
 62
     7
  5
47D
 10
1.956631
 20
0.759971
 30
0.0
 11
1.958893
 21
0.758112
 31
0.0
  0
LINE
  8
0
  6
CONTINUOUS
 62
     7
  5
47E
 10
1.958893
 20
0.758112
 30
0.0
 11
1.961101
 21
0.756206
 31
0.0
  0
LINE
  8
0
  6
CONTINUOUS
 62
     7
  5
47F
 10
1.961101
 20
0.756206
 30
0.0
 11
1.963255
 21
0.754254
 31
0.0
  0
LINE
  8
0
  6
CONTINUOUS
 62
     7
  5
480
 10
1.963255
 20
0.754254
 30
0.0
 11
1.965353
 21
0.752257
 31
0.0
  0
LINE
  8
0
  6
CONTINUOUS
 62
     7
  5
481
 10
1.965353
 20
0.752257
 30
0.0
 11
1.967394
 21
0.750216
 31
0.0
  0
LINE
  8
0
  6
CONTINUOUS
 62
     7
  5
482
 10
1.967394
 20
0.750216
 30
0.0
 11
1.969376
 21
0.748132
 31
0.0
  0
LINE
  8
0
  6
CONTINUOUS
 62
     7
  5
483
 10
1.969376
 20
0.748132
 30
0.0
 11
1.9713
 21
0.746007
 31
0.0
  0
LINE
  8
0
  6
CONTINUOUS
 62
     7
  5
484
 10
1.9713
 20
0.746007
 30
0.0
 11
1.973163
 21
0.743842
 31
0.0
  0
LINE
  8
0
  6
CONTINUOUS
 62
     7
  5
485
 10
1.973163
 20
0.743842
 30
0.0
 11
1.974964
 21
0.741639
 31
0.0
  0
LINE
  8
0
  6
CONTINUOUS
 62
     7
  5
486
 10
1.974964
 20
0.741639
 30
0.0
 11
1.976702
 21
0.739397
 31
0.0
  0
LINE
  8
0
  6
CONTINUOUS
 62
     7
  5
487
 10
1.976702
 20
0.739397
 30
0.0
 11
1.978377
 21
0.73712
 31
0.0
  0
LINE
  8
0
  6
CONTINUOUS
 62
     7
  5
488
 10
1.978377
 20
0.73712
 30
0.0
 11
1.979986
 21
0.734808
 31
0.0
  0
LINE
  8
0
  6
CONTINUOUS
 62
     7
  5
489
 10
1.979986
 20
0.734808
 30
0.0
 11
1.98153
 21
0.732462
 31
0.0
  0
LINE
  8
0
  6
CONTINUOUS
 62
     7
  5
48A
 10
1.98153
 20
0.732462
 30
0.0
 11
1.983008
 21
0.730084
 31
0.0
  0
LINE
  8
0
  6
CONTINUOUS
 62
     7
  5
48B
 10
1.983008
 20
0.730084
 30
0.0
 11
1.984417
 21
0.727676
 31
0.0
  0
LINE
  8
0
  6
CONTINUOUS
 62
     7
  5
48C
 10
1.984417
 20
0.727676
 30
0.0
 11
1.985759
 21
0.725239
 31
0.0
  0
LINE
  8
0
  6
CONTINUOUS
 62
     7
  5
48D
 10
1.834468
 20
0.784999
 30
0.0
 11
1.836493
 21
0.785491
 31
0.0
  0
LINE
  8
0
  6
CONTINUOUS
 62
     7
  5
48E
 10
1.836493
 20
0.785491
 30
0.0
 11
1.838527
 21
0.785951
 31
0.0
  0
LINE
  8
0
  6
CONTINUOUS
 62
     7
  5
48F
 10
1.838527
 20
0.785951
 30
0.0
 11
1.840569
 21
0.786379
 31
0.0
  0
LINE
  8
0
  6
CONTINUOUS
 62
     7
  5
490
 10
1.840569
 20
0.786379
 30
0.0
 11
1.842617
 21
0.786776
 31
0.0
  0
LINE
  8
0
  6
CONTINUOUS
 62
     7
  5
491
 10
1.842617
 20
0.786776
 30
0.0
 11
1.844669
 21
0.787141
 31
0.0
  0
LINE
  8
0
  6
CONTINUOUS
 62
     7
  5
492
 10
1.844669
 20
0.787141
 30
0.0
 11
1.846724
 21
0.787476
 31
0.0
  0
LINE
  8
0
  6
CONTINUOUS
 62
     7
  5
493
 10
1.846724
 20
0.787476
 30
0.0
 11
1.84878
 21
0.78778
 31
0.0
  0
LINE
  8
0
  6
CONTINUOUS
 62
     7
  5
494
 10
1.84878
 20
0.78778
 30
0.0
 11
1.850835
 21
0.788054
 31
0.0
  0
LINE
  8
0
  6
CONTINUOUS
 62
     7
  5
495
 10
1.850835
 20
0.788054
 30
0.0
 11
1.852888
 21
0.788299
 31
0.0
  0
LINE
  8
0
  6
CONTINUOUS
 62
     7
  5
496
 10
1.852888
 20
0.788299
 30
0.0
 11
1.854937
 21
0.788514
 31
0.0
  0
LINE
  8
0
  6
CONTINUOUS
 62
     7
  5
497
 10
1.854937
 20
0.788514
 30
0.0
 11
1.85698
 21
0.7887
 31
0.0
  0
LINE
  8
0
  6
CONTINUOUS
 62
     7
  5
498
 10
1.85698
 20
0.7887
 30
0.0
 11
1.859016
 21
0.788858
 31
0.0
  0
LINE
  8
0
  6
CONTINUOUS
 62
     7
  5
499
 10
1.859016
 20
0.788858
 30
0.0
 11
1.861042
 21
0.788989
 31
0.0
  0
LINE
  8
0
  6
CONTINUOUS
 62
     7
  5
49A
 10
1.861042
 20
0.788989
 30
0.0
 11
1.863058
 21
0.789092
 31
0.0
  0
LINE
  8
0
  6
CONTINUOUS
 62
     7
  5
49B
 10
1.863058
 20
0.789092
 30
0.0
 11
1.86506
 21
0.789168
 31
0.0
  0
LINE
  8
0
  6
CONTINUOUS
 62
     7
  5
49C
 10
1.86506
 20
0.789168
 30
0.0
 11
1.867048
 21
0.789218
 31
0.0
  0
LINE
  8
0
  6
CONTINUOUS
 62
     7
  5
49D
 10
1.867048
 20
0.789218
 30
0.0
 11
1.869021
 21
0.789243
 31
0.0
  0
LINE
  8
0
  6
CONTINUOUS
 62
     7
  5
49E
 10
1.869021
 20
0.789243
 30
0.0
 11
1.870979
 21
0.789243
 31
0.0
  0
LINE
  8
0
  6
CONTINUOUS
 62
     7
  5
49F
 10
1.870979
 20
0.789243
 30
0.0
 11
1.872952
 21
0.789218
 31
0.0
  0
LINE
  8
0
  6
CONTINUOUS
 62
     7
  5
4A0
 10
1.872952
 20
0.789218
 30
0.0
 11
1.87494
 21
0.789168
 31
0.0
  0
LINE
  8
0
  6
CONTINUOUS
 62
     7
  5
4A1
 10
1.87494
 20
0.789168
 30
0.0
 11
1.876942
 21
0.789092
 31
0.0
  0
LINE
  8
0
  6
CONTINUOUS
 62
     7
  5
4A2
 10
1.876942
 20
0.789092
 30
0.0
 11
1.878958
 21
0.788989
 31
0.0
  0
LINE
  8
0
  6
CONTINUOUS
 62
     7
  5
4A3
 10
1.878958
 20
0.788989
 30
0.0
 11
1.880984
 21
0.788858
 31
0.0
  0
LINE
  8
0
  6
CONTINUOUS
 62
     7
  5
4A4
 10
1.880984
 20
0.788858
 30
0.0
 11
1.88302
 21
0.7887
 31
0.0
  0
LINE
  8
0
  6
CONTINUOUS
 62
     7
  5
4A5
 10
1.88302
 20
0.7887
 30
0.0
 11
1.885063
 21
0.788514
 31
0.0
  0
LINE
  8
0
  6
CONTINUOUS
 62
     7
  5
4A6
 10
1.885063
 20
0.788514
 30
0.0
 11
1.887112
 21
0.788299
 31
0.0
  0
LINE
  8
0
  6
CONTINUOUS
 62
     7
  5
4A7
 10
1.887112
 20
0.788299
 30
0.0
 11
1.889165
 21
0.788054
 31
0.0
  0
LINE
  8
0
  6
CONTINUOUS
 62
     7
  5
4A8
 10
1.889165
 20
0.788054
 30
0.0
 11
1.89122
 21
0.78778
 31
0.0
  0
LINE
  8
0
  6
CONTINUOUS
 62
     7
  5
4A9
 10
1.89122
 20
0.78778
 30
0.0
 11
1.893276
 21
0.787476
 31
0.0
  0
LINE
  8
0
  6
CONTINUOUS
 62
     7
  5
4AA
 10
1.893276
 20
0.787476
 30
0.0
 11
1.895331
 21
0.787141
 31
0.0
  0
LINE
  8
0
  6
CONTINUOUS
 62
     7
  5
4AB
 10
1.895331
 20
0.787141
 30
0.0
 11
1.897383
 21
0.786776
 31
0.0
  0
LINE
  8
0
  6
CONTINUOUS
 62
     7
  5
4AC
 10
1.897383
 20
0.786776
 30
0.0
 11
1.899431
 21
0.786379
 31
0.0
  0
LINE
  8
0
  6
CONTINUOUS
 62
     7
  5
4AD
 10
1.899431
 20
0.786379
 30
0.0
 11
1.901473
 21
0.785951
 31
0.0
  0
LINE
  8
0
  6
CONTINUOUS
 62
     7
  5
4AE
 10
1.901473
 20
0.785951
 30
0.0
 11
1.903507
 21
0.785491
 31
0.0
  0
LINE
  8
0
  6
CONTINUOUS
 62
     7
  5
4AF
 10
1.903507
 20
0.785491
 30
0.0
 11
1.905532
 21
0.784999
 31
0.0
  0
LINE
  8
0
  6
CONTINUOUS
 62
     7
  5
4B0
 10
1.754241
 20
0.725239
 30
0.0
 11
1.755583
 21
0.727676
 31
0.0
  0
LINE
  8
0
  6
CONTINUOUS
 62
     7
  5
4B1
 10
1.755583
 20
0.727676
 30
0.0
 11
1.756992
 21
0.730084
 31
0.0
  0
LINE
  8
0
  6
CONTINUOUS
 62
     7
  5
4B2
 10
1.756992
 20
0.730084
 30
0.0
 11
1.75847
 21
0.732462
 31
0.0
  0
LINE
  8
0
  6
CONTINUOUS
 62
     7
  5
4B3
 10
1.75847
 20
0.732462
 30
0.0
 11
1.760014
 21
0.734808
 31
0.0
  0
LINE
  8
0
  6
CONTINUOUS
 62
     7
  5
4B4
 10
1.760014
 20
0.734808
 30
0.0
 11
1.761623
 21
0.73712
 31
0.0
  0
LINE
  8
0
  6
CONTINUOUS
 62
     7
  5
4B5
 10
1.761623
 20
0.73712
 30
0.0
 11
1.763298
 21
0.739397
 31
0.0
  0
LINE
  8
0
  6
CONTINUOUS
 62
     7
  5
4B6
 10
1.763298
 20
0.739397
 30
0.0
 11
1.765036
 21
0.741639
 31
0.0
  0
LINE
  8
0
  6
CONTINUOUS
 62
     7
  5
4B7
 10
1.765036
 20
0.741639
 30
0.0
 11
1.766837
 21
0.743842
 31
0.0
  0
LINE
  8
0
  6
CONTINUOUS
 62
     7
  5
4B8
 10
1.766837
 20
0.743842
 30
0.0
 11
1.7687
 21
0.746007
 31
0.0
  0
LINE
  8
0
  6
CONTINUOUS
 62
     7
  5
4B9
 10
1.7687
 20
0.746007
 30
0.0
 11
1.770624
 21
0.748132
 31
0.0
  0
LINE
  8
0
  6
CONTINUOUS
 62
     7
  5
4BA
 10
1.770624
 20
0.748132
 30
0.0
 11
1.772606
 21
0.750216
 31
0.0
  0
LINE
  8
0
  6
CONTINUOUS
 62
     7
  5
4BB
 10
1.772606
 20
0.750216
 30
0.0
 11
1.774647
 21
0.752257
 31
0.0
  0
LINE
  8
0
  6
CONTINUOUS
 62
     7
  5
4BC
 10
1.774647
 20
0.752257
 30
0.0
 11
1.776745
 21
0.754254
 31
0.0
  0
LINE
  8
0
  6
CONTINUOUS
 62
     7
  5
4BD
 10
1.776745
 20
0.754254
 30
0.0
 11
1.778899
 21
0.756206
 31
0.0
  0
LINE
  8
0
  6
CONTINUOUS
 62
     7
  5
4BE
 10
1.778899
 20
0.756206
 30
0.0
 11
1.781107
 21
0.758112
 31
0.0
  0
LINE
  8
0
  6
CONTINUOUS
 62
     7
  5
4BF
 10
1.781107
 20
0.758112
 30
0.0
 11
1.783369
 21
0.759971
 31
0.0
  0
LINE
  8
0
  6
CONTINUOUS
 62
     7
  5
4C0
 10
1.783369
 20
0.759971
 30
0.0
 11
1.785682
 21
0.761781
 31
0.0
  0
LINE
  8
0
  6
CONTINUOUS
 62
     7
  5
4C1
 10
1.785682
 20
0.761781
 30
0.0
 11
1.788046
 21
0.763542
 31
0.0
  0
LINE
  8
0
  6
CONTINUOUS
 62
     7
  5
4C2
 10
1.788046
 20
0.763542
 30
0.0
 11
1.790458
 21
0.765252
 31
0.0
  0
LINE
  8
0
  6
CONTINUOUS
 62
     7
  5
4C3
 10
1.790458
 20
0.765252
 30
0.0
 11
1.792918
 21
0.76691
 31
0.0
  0
LINE
  8
0
  6
CONTINUOUS
 62
     7
  5
4C4
 10
1.792918
 20
0.76691
 30
0.0
 11
1.795425
 21
0.768516
 31
0.0
  0
LINE
  8
0
  6
CONTINUOUS
 62
     7
  5
4C5
 10
1.795425
 20
0.768516
 30
0.0
 11
1.797975
 21
0.770068
 31
0.0
  0
LINE
  8
0
  6
CONTINUOUS
 62
     7
  5
4C6
 10
1.797975
 20
0.770068
 30
0.0
 11
1.800569
 21
0.771566
 31
0.0
  0
LINE
  8
0
  6
CONTINUOUS
 62
     7
  5
4C7
 10
1.800569
 20
0.771566
 30
0.0
 11
1.803205
 21
0.773009
 31
0.0
  0
LINE
  8
0
  6
CONTINUOUS
 62
     7
  5
4C8
 10
1.803205
 20
0.773009
 30
0.0
 11
1.80588
 21
0.774395
 31
0.0
  0
LINE
  8
0
  6
CONTINUOUS
 62
     7
  5
4C9
 10
1.80588
 20
0.774395
 30
0.0
 11
1.808594
 21
0.775724
 31
0.0
  0
LINE
  8
0
  6
CONTINUOUS
 62
     7
  5
4CA
 10
1.808594
 20
0.775724
 30
0.0
 11
1.811344
 21
0.776995
 31
0.0
  0
LINE
  8
0
  6
CONTINUOUS
 62
     7
  5
4CB
 10
1.811344
 20
0.776995
 30
0.0
 11
1.81413
 21
0.778208
 31
0.0
  0
LINE
  8
0
  6
CONTINUOUS
 62
     7
  5
4CC
 10
1.81413
 20
0.778208
 30
0.0
 11
1.816949
 21
0.779362
 31
0.0
  0
LINE
  8
0
  6
CONTINUOUS
 62
     7
  5
4CD
 10
1.816949
 20
0.779362
 30
0.0
 11
1.819799
 21
0.780455
 31
0.0
  0
LINE
  8
0
  6
CONTINUOUS
 62
     7
  5
4CE
 10
1.819799
 20
0.780455
 30
0.0
 11
1.82268
 21
0.781488
 31
0.0
  0
LINE
  8
0
  6
CONTINUOUS
 62
     7
  5
4CF
 10
1.82268
 20
0.781488
 30
0.0
 11
1.825589
 21
0.782459
 31
0.0
  0
LINE
  8
0
  6
CONTINUOUS
 62
     7
  5
4D0
 10
1.825589
 20
0.782459
 30
0.0
 11
1.828524
 21
0.783368
 31
0.0
  0
LINE
  8
0
  6
CONTINUOUS
 62
     7
  5
4D1
 10
1.828524
 20
0.783368
 30
0.0
 11
1.831484
 21
0.784215
 31
0.0
  0
LINE
  8
0
  6
CONTINUOUS
 62
     7
  5
4D2
 10
1.831484
 20
0.784215
 30
0.0
 11
1.834468
 21
0.784999
 31
0.0
  0
LINE
  8
0
  6
CONTINUOUS
 62
     7
  5
4D3
 10
1.754241
 20
0.617807
 30
0.0
 11
1.754241
 21
0.725239
 31
0.0
  0
LINE
  8
0
  6
CONTINUOUS
 62
     7
  5
4D4
 10
1.754276
 20
0.61695
 30
0.0
 11
1.754274
 21
0.616973
 31
0.0
  0
LINE
  8
0
  6
CONTINUOUS
 62
     7
  5
4D5
 10
1.754274
 20
0.616973
 30
0.0
 11
1.754272
 21
0.616996
 31
0.0
  0
LINE
  8
0
  6
CONTINUOUS
 62
     7
  5
4D6
 10
1.754272
 20
0.616996
 30
0.0
 11
1.754271
 21
0.617019
 31
0.0
  0
LINE
  8
0
  6
CONTINUOUS
 62
     7
  5
4D7
 10
1.754271
 20
0.617019
 30
0.0
 11
1.754269
 21
0.617042
 31
0.0
  0
LINE
  8
0
  6
CONTINUOUS
 62
     7
  5
4D8
 10
1.754269
 20
0.617042
 30
0.0
 11
1.754267
 21
0.617065
 31
0.0
  0
LINE
  8
0
  6
CONTINUOUS
 62
     7
  5
4D9
 10
1.754267
 20
0.617065
 30
0.0
 11
1.754265
 21
0.617089
 31
0.0
  0
LINE
  8
0
  6
CONTINUOUS
 62
     7
  5
4DA
 10
1.754265
 20
0.617089
 30
0.0
 11
1.754264
 21
0.617112
 31
0.0
  0
LINE
  8
0
  6
CONTINUOUS
 62
     7
  5
4DB
 10
1.754264
 20
0.617112
 30
0.0
 11
1.754262
 21
0.617136
 31
0.0
  0
LINE
  8
0
  6
CONTINUOUS
 62
     7
  5
4DC
 10
1.754262
 20
0.617136
 30
0.0
 11
1.754261
 21
0.617159
 31
0.0
  0
LINE
  8
0
  6
CONTINUOUS
 62
     7
  5
4DD
 10
1.754261
 20
0.617159
 30
0.0
 11
1.754259
 21
0.617183
 31
0.0
  0
LINE
  8
0
  6
CONTINUOUS
 62
     7
  5
4DE
 10
1.754259
 20
0.617183
 30
0.0
 11
1.754258
 21
0.617207
 31
0.0
  0
LINE
  8
0
  6
CONTINUOUS
 62
     7
  5
4DF
 10
1.754258
 20
0.617207
 30
0.0
 11
1.754256
 21
0.617231
 31
0.0
  0
LINE
  8
0
  6
CONTINUOUS
 62
     7
  5
4E0
 10
1.754256
 20
0.617231
 30
0.0
 11
1.754255
 21
0.617255
 31
0.0
  0
LINE
  8
0
  6
CONTINUOUS
 62
     7
  5
4E1
 10
1.754255
 20
0.617255
 30
0.0
 11
1.754254
 21
0.617279
 31
0.0
  0
LINE
  8
0
  6
CONTINUOUS
 62
     7
  5
4E2
 10
1.754254
 20
0.617279
 30
0.0
 11
1.754253
 21
0.617303
 31
0.0
  0
LINE
  8
0
  6
CONTINUOUS
 62
     7
  5
4E3
 10
1.754253
 20
0.617303
 30
0.0
 11
1.754252
 21
0.617327
 31
0.0
  0
LINE
  8
0
  6
CONTINUOUS
 62
     7
  5
4E4
 10
1.754252
 20
0.617327
 30
0.0
 11
1.754251
 21
0.617352
 31
0.0
  0
LINE
  8
0
  6
CONTINUOUS
 62
     7
  5
4E5
 10
1.754251
 20
0.617352
 30
0.0
 11
1.75425
 21
0.617376
 31
0.0
  0
LINE
  8
0
  6
CONTINUOUS
 62
     7
  5
4E6
 10
1.75425
 20
0.617376
 30
0.0
 11
1.754249
 21
0.617401
 31
0.0
  0
LINE
  8
0
  6
CONTINUOUS
 62
     7
  5
4E7
 10
1.754249
 20
0.617401
 30
0.0
 11
1.754248
 21
0.617426
 31
0.0
  0
LINE
  8
0
  6
CONTINUOUS
 62
     7
  5
4E8
 10
1.754248
 20
0.617426
 30
0.0
 11
1.754247
 21
0.61745
 31
0.0
  0
LINE
  8
0
  6
CONTINUOUS
 62
     7
  5
4E9
 10
1.754247
 20
0.61745
 30
0.0
 11
1.754246
 21
0.617475
 31
0.0
  0
LINE
  8
0
  6
CONTINUOUS
 62
     7
  5
4EA
 10
1.754246
 20
0.617475
 30
0.0
 11
1.754245
 21
0.6175
 31
0.0
  0
LINE
  8
0
  6
CONTINUOUS
 62
     7
  5
4EB
 10
1.754245
 20
0.6175
 30
0.0
 11
1.754245
 21
0.617525
 31
0.0
  0
LINE
  8
0
  6
CONTINUOUS
 62
     7
  5
4EC
 10
1.754245
 20
0.617525
 30
0.0
 11
1.754244
 21
0.61755
 31
0.0
  0
LINE
  8
0
  6
CONTINUOUS
 62
     7
  5
4ED
 10
1.754244
 20
0.61755
 30
0.0
 11
1.754244
 21
0.617576
 31
0.0
  0
LINE
  8
0
  6
CONTINUOUS
 62
     7
  5
4EE
 10
1.754244
 20
0.617576
 30
0.0
 11
1.754243
 21
0.617601
 31
0.0
  0
LINE
  8
0
  6
CONTINUOUS
 62
     7
  5
4EF
 10
1.754243
 20
0.617601
 30
0.0
 11
1.754243
 21
0.617626
 31
0.0
  0
LINE
  8
0
  6
CONTINUOUS
 62
     7
  5
4F0
 10
1.754243
 20
0.617626
 30
0.0
 11
1.754242
 21
0.617652
 31
0.0
  0
LINE
  8
0
  6
CONTINUOUS
 62
     7
  5
4F1
 10
1.754242
 20
0.617652
 30
0.0
 11
1.754242
 21
0.617677
 31
0.0
  0
LINE
  8
0
  6
CONTINUOUS
 62
     7
  5
4F2
 10
1.754242
 20
0.617677
 30
0.0
 11
1.754242
 21
0.617703
 31
0.0
  0
LINE
  8
0
  6
CONTINUOUS
 62
     7
  5
4F3
 10
1.754242
 20
0.617703
 30
0.0
 11
1.754242
 21
0.617729
 31
0.0
  0
LINE
  8
0
  6
CONTINUOUS
 62
     7
  5
4F4
 10
1.754242
 20
0.617729
 30
0.0
 11
1.754241
 21
0.617755
 31
0.0
  0
LINE
  8
0
  6
CONTINUOUS
 62
     7
  5
4F5
 10
1.754241
 20
0.617755
 30
0.0
 11
1.754241
 21
0.617781
 31
0.0
  0
LINE
  8
0
  6
CONTINUOUS
 62
     7
  5
4F6
 10
1.754241
 20
0.617781
 30
0.0
 11
1.754241
 21
0.617807
 31
0.0
  0
LINE
  8
0
  6
CONTINUOUS
 62
     7
  5
4F7
 10
1.767585
 20
0.626042
 30
0.0
 11
1.767325
 21
0.625739
 31
0.0
  0
LINE
  8
0
  6
CONTINUOUS
 62
     7
  5
4F8
 10
1.767325
 20
0.625739
 30
0.0
 11
1.767065
 21
0.625437
 31
0.0
  0
LINE
  8
0
  6
CONTINUOUS
 62
     7
  5
4F9
 10
1.767065
 20
0.625437
 30
0.0
 11
1.766805
 21
0.625134
 31
0.0
  0
LINE
  8
0
  6
CONTINUOUS
 62
     7
  5
4FA
 10
1.766805
 20
0.625134
 30
0.0
 11
1.766545
 21
0.624832
 31
0.0
  0
LINE
  8
0
  6
CONTINUOUS
 62
     7
  5
4FB
 10
1.766545
 20
0.624832
 30
0.0
 11
1.766284
 21
0.624531
 31
0.0
  0
LINE
  8
0
  6
CONTINUOUS
 62
     7
  5
4FC
 10
1.766284
 20
0.624531
 30
0.0
 11
1.766024
 21
0.624231
 31
0.0
  0
LINE
  8
0
  6
CONTINUOUS
 62
     7
  5
4FD
 10
1.766024
 20
0.624231
 30
0.0
 11
1.765765
 21
0.623932
 31
0.0
  0
LINE
  8
0
  6
CONTINUOUS
 62
     7
  5
4FE
 10
1.765765
 20
0.623932
 30
0.0
 11
1.765506
 21
0.623635
 31
0.0
  0
LINE
  8
0
  6
CONTINUOUS
 62
     7
  5
4FF
 10
1.765506
 20
0.623635
 30
0.0
 11
1.765248
 21
0.62334
 31
0.0
  0
LINE
  8
0
  6
CONTINUOUS
 62
     7
  5
500
 10
1.765248
 20
0.62334
 30
0.0
 11
1.76499
 21
0.623046
 31
0.0
  0
LINE
  8
0
  6
CONTINUOUS
 62
     7
  5
501
 10
1.76499
 20
0.623046
 30
0.0
 11
1.764734
 21
0.622755
 31
0.0
  0
LINE
  8
0
  6
CONTINUOUS
 62
     7
  5
502
 10
1.764734
 20
0.622755
 30
0.0
 11
1.764479
 21
0.622466
 31
0.0
  0
LINE
  8
0
  6
CONTINUOUS
 62
     7
  5
503
 10
1.764479
 20
0.622466
 30
0.0
 11
1.764225
 21
0.622179
 31
0.0
  0
LINE
  8
0
  6
CONTINUOUS
 62
     7
  5
504
 10
1.764225
 20
0.622179
 30
0.0
 11
1.763973
 21
0.621896
 31
0.0
  0
LINE
  8
0
  6
CONTINUOUS
 62
     7
  5
505
 10
1.763973
 20
0.621896
 30
0.0
 11
1.763723
 21
0.621616
 31
0.0
  0
LINE
  8
0
  6
CONTINUOUS
 62
     7
  5
506
 10
1.763723
 20
0.621616
 30
0.0
 11
1.763474
 21
0.621339
 31
0.0
  0
LINE
  8
0
  6
CONTINUOUS
 62
     7
  5
507
 10
1.763474
 20
0.621339
 30
0.0
 11
1.763227
 21
0.621065
 31
0.0
  0
LINE
  8
0
  6
CONTINUOUS
 62
     7
  5
508
 10
1.763227
 20
0.621065
 30
0.0
 11
1.762983
 21
0.620796
 31
0.0
  0
LINE
  8
0
  6
CONTINUOUS
 62
     7
  5
509
 10
1.762983
 20
0.620796
 30
0.0
 11
1.76274
 21
0.62053
 31
0.0
  0
LINE
  8
0
  6
CONTINUOUS
 62
     7
  5
50A
 10
1.76274
 20
0.62053
 30
0.0
 11
1.7625
 21
0.620268
 31
0.0
  0
LINE
  8
0
  6
CONTINUOUS
 62
     7
  5
50B
 10
1.7625
 20
0.620268
 30
0.0
 11
1.762262
 21
0.620011
 31
0.0
  0
LINE
  8
0
  6
CONTINUOUS
 62
     7
  5
50C
 10
1.762262
 20
0.620011
 30
0.0
 11
1.762027
 21
0.619758
 31
0.0
  0
LINE
  8
0
  6
CONTINUOUS
 62
     7
  5
50D
 10
1.762027
 20
0.619758
 30
0.0
 11
1.761794
 21
0.61951
 31
0.0
  0
LINE
  8
0
  6
CONTINUOUS
 62
     7
  5
50E
 10
1.761794
 20
0.61951
 30
0.0
 11
1.761564
 21
0.619267
 31
0.0
  0
LINE
  8
0
  6
CONTINUOUS
 62
     7
  5
50F
 10
1.761564
 20
0.619267
 30
0.0
 11
1.761337
 21
0.619029
 31
0.0
  0
LINE
  8
0
  6
CONTINUOUS
 62
     7
  5
510
 10
1.761337
 20
0.619029
 30
0.0
 11
1.761113
 21
0.618796
 31
0.0
  0
LINE
  8
0
  6
CONTINUOUS
 62
     7
  5
511
 10
1.761113
 20
0.618796
 30
0.0
 11
1.760891
 21
0.618568
 31
0.0
  0
LINE
  8
0
  6
CONTINUOUS
 62
     7
  5
512
 10
1.760891
 20
0.618568
 30
0.0
 11
1.760673
 21
0.618346
 31
0.0
  0
LINE
  8
0
  6
CONTINUOUS
 62
     7
  5
513
 10
1.760673
 20
0.618346
 30
0.0
 11
1.760458
 21
0.61813
 31
0.0
  0
LINE
  8
0
  6
CONTINUOUS
 62
     7
  5
514
 10
1.760458
 20
0.61813
 30
0.0
 11
1.760246
 21
0.617919
 31
0.0
  0
LINE
  8
0
  6
CONTINUOUS
 62
     7
  5
515
 10
1.760246
 20
0.617919
 30
0.0
 11
1.760037
 21
0.617714
 31
0.0
  0
LINE
  8
0
  6
CONTINUOUS
 62
     7
  5
516
 10
1.760037
 20
0.617714
 30
0.0
 11
1.759832
 21
0.617516
 31
0.0
  0
LINE
  8
0
  6
CONTINUOUS
 62
     7
  5
517
 10
1.759832
 20
0.617516
 30
0.0
 11
1.75963
 21
0.617323
 31
0.0
  0
LINE
  8
0
  6
CONTINUOUS
 62
     7
  5
518
 10
1.75963
 20
0.617323
 30
0.0
 11
1.759432
 21
0.617137
 31
0.0
  0
LINE
  8
0
  6
CONTINUOUS
 62
     7
  5
519
 10
1.759432
 20
0.617137
 30
0.0
 11
1.759237
 21
0.616958
 31
0.0
  0
LINE
  8
0
  6
CONTINUOUS
 62
     7
  5
51A
 10
1.972415
 20
0.626042
 30
0.0
 11
1.968039
 21
0.63077
 31
0.0
  0
LINE
  8
0
  6
CONTINUOUS
 62
     7
  5
51B
 10
1.968039
 20
0.63077
 30
0.0
 11
1.963488
 21
0.634992
 31
0.0
  0
LINE
  8
0
  6
CONTINUOUS
 62
     7
  5
51C
 10
1.963488
 20
0.634992
 30
0.0
 11
1.958826
 21
0.638725
 31
0.0
  0
LINE
  8
0
  6
CONTINUOUS
 62
     7
  5
51D
 10
1.958826
 20
0.638725
 30
0.0
 11
1.95391
 21
0.642131
 31
0.0
  0
LINE
  8
0
  6
CONTINUOUS
 62
     7
  5
51E
 10
1.95391
 20
0.642131
 30
0.0
 11
1.948733
 21
0.645227
 31
0.0
  0
LINE
  8
0
  6
CONTINUOUS
 62
     7
  5
51F
 10
1.948733
 20
0.645227
 30
0.0
 11
1.94331
 21
0.648013
 31
0.0
  0
LINE
  8
0
  6
CONTINUOUS
 62
     7
  5
520
 10
1.94331
 20
0.648013
 30
0.0
 11
1.937663
 21
0.650493
 31
0.0
  0
LINE
  8
0
  6
CONTINUOUS
 62
     7
  5
521
 10
1.937663
 20
0.650493
 30
0.0
 11
1.931809
 21
0.652676
 31
0.0
  0
LINE
  8
0
  6
CONTINUOUS
 62
     7
  5
522
 10
1.931809
 20
0.652676
 30
0.0
 11
1.925771
 21
0.654572
 31
0.0
  0
LINE
  8
0
  6
CONTINUOUS
 62
     7
  5
523
 10
1.925771
 20
0.654572
 30
0.0
 11
1.919566
 21
0.656194
 31
0.0
  0
LINE
  8
0
  6
CONTINUOUS
 62
     7
  5
524
 10
1.919566
 20
0.656194
 30
0.0
 11
1.913216
 21
0.657558
 31
0.0
  0
LINE
  8
0
  6
CONTINUOUS
 62
     7
  5
525
 10
1.913216
 20
0.657558
 30
0.0
 11
1.90674
 21
0.65868
 31
0.0
  0
LINE
  8
0
  6
CONTINUOUS
 62
     7
  5
526
 10
1.90674
 20
0.65868
 30
0.0
 11
1.900159
 21
0.65958
 31
0.0
  0
LINE
  8
0
  6
CONTINUOUS
 62
     7
  5
527
 10
1.900159
 20
0.65958
 30
0.0
 11
1.8935
 21
0.660272
 31
0.0
  0
LINE
  8
0
  6
CONTINUOUS
 62
     7
  5
528
 10
1.8935
 20
0.660272
 30
0.0
 11
1.88679
 21
0.660773
 31
0.0
  0
LINE
  8
0
  6
CONTINUOUS
 62
     7
  5
529
 10
1.88679
 20
0.660773
 30
0.0
 11
1.880062
 21
0.661098
 31
0.0
  0
LINE
  8
0
  6
CONTINUOUS
 62
     7
  5
52A
 10
1.880062
 20
0.661098
 30
0.0
 11
1.873345
 21
0.661256
 31
0.0
  0
LINE
  8
0
  6
CONTINUOUS
 62
     7
  5
52B
 10
1.873345
 20
0.661256
 30
0.0
 11
1.866655
 21
0.661256
 31
0.0
  0
LINE
  8
0
  6
CONTINUOUS
 62
     7
  5
52C
 10
1.866655
 20
0.661256
 30
0.0
 11
1.859938
 21
0.661098
 31
0.0
  0
LINE
  8
0
  6
CONTINUOUS
 62
     7
  5
52D
 10
1.859938
 20
0.661098
 30
0.0
 11
1.85321
 21
0.660773
 31
0.0
  0
LINE
  8
0
  6
CONTINUOUS
 62
     7
  5
52E
 10
1.85321
 20
0.660773
 30
0.0
 11
1.8465
 21
0.660272
 31
0.0
  0
LINE
  8
0
  6
CONTINUOUS
 62
     7
  5
52F
 10
1.8465
 20
0.660272
 30
0.0
 11
1.839841
 21
0.65958
 31
0.0
  0
LINE
  8
0
  6
CONTINUOUS
 62
     7
  5
530
 10
1.839841
 20
0.65958
 30
0.0
 11
1.83326
 21
0.65868
 31
0.0
  0
LINE
  8
0
  6
CONTINUOUS
 62
     7
  5
531
 10
1.83326
 20
0.65868
 30
0.0
 11
1.826784
 21
0.657558
 31
0.0
  0
LINE
  8
0
  6
CONTINUOUS
 62
     7
  5
532
 10
1.826784
 20
0.657558
 30
0.0
 11
1.820434
 21
0.656194
 31
0.0
  0
LINE
  8
0
  6
CONTINUOUS
 62
     7
  5
533
 10
1.820434
 20
0.656194
 30
0.0
 11
1.814229
 21
0.654572
 31
0.0
  0
LINE
  8
0
  6
CONTINUOUS
 62
     7
  5
534
 10
1.814229
 20
0.654572
 30
0.0
 11
1.808191
 21
0.652676
 31
0.0
  0
LINE
  8
0
  6
CONTINUOUS
 62
     7
  5
535
 10
1.808191
 20
0.652676
 30
0.0
 11
1.802337
 21
0.650493
 31
0.0
  0
LINE
  8
0
  6
CONTINUOUS
 62
     7
  5
536
 10
1.802337
 20
0.650493
 30
0.0
 11
1.79669
 21
0.648013
 31
0.0
  0
LINE
  8
0
  6
CONTINUOUS
 62
     7
  5
537
 10
1.79669
 20
0.648013
 30
0.0
 11
1.791267
 21
0.645227
 31
0.0
  0
LINE
  8
0
  6
CONTINUOUS
 62
     7
  5
538
 10
1.791267
 20
0.645227
 30
0.0
 11
1.78609
 21
0.642131
 31
0.0
  0
LINE
  8
0
  6
CONTINUOUS
 62
     7
  5
539
 10
1.78609
 20
0.642131
 30
0.0
 11
1.781174
 21
0.638725
 31
0.0
  0
LINE
  8
0
  6
CONTINUOUS
 62
     7
  5
53A
 10
1.781174
 20
0.638725
 30
0.0
 11
1.776512
 21
0.634992
 31
0.0
  0
LINE
  8
0
  6
CONTINUOUS
 62
     7
  5
53B
 10
1.776512
 20
0.634992
 30
0.0
 11
1.771961
 21
0.63077
 31
0.0
  0
LINE
  8
0
  6
CONTINUOUS
 62
     7
  5
53C
 10
1.771961
 20
0.63077
 30
0.0
 11
1.767585
 21
0.626042
 31
0.0
  0
LINE
  8
0
  6
CONTINUOUS
 62
     7
  5
53D
 10
1.980763
 20
0.616958
 30
0.0
 11
1.980568
 21
0.617137
 31
0.0
  0
LINE
  8
0
  6
CONTINUOUS
 62
     7
  5
53E
 10
1.980568
 20
0.617137
 30
0.0
 11
1.98037
 21
0.617323
 31
0.0
  0
LINE
  8
0
  6
CONTINUOUS
 62
     7
  5
53F
 10
1.98037
 20
0.617323
 30
0.0
 11
1.980168
 21
0.617516
 31
0.0
  0
LINE
  8
0
  6
CONTINUOUS
 62
     7
  5
540
 10
1.980168
 20
0.617516
 30
0.0
 11
1.979963
 21
0.617714
 31
0.0
  0
LINE
  8
0
  6
CONTINUOUS
 62
     7
  5
541
 10
1.979963
 20
0.617714
 30
0.0
 11
1.979754
 21
0.617919
 31
0.0
  0
LINE
  8
0
  6
CONTINUOUS
 62
     7
  5
542
 10
1.979754
 20
0.617919
 30
0.0
 11
1.979542
 21
0.61813
 31
0.0
  0
LINE
  8
0
  6
CONTINUOUS
 62
     7
  5
543
 10
1.979542
 20
0.61813
 30
0.0
 11
1.979327
 21
0.618346
 31
0.0
  0
LINE
  8
0
  6
CONTINUOUS
 62
     7
  5
544
 10
1.979327
 20
0.618346
 30
0.0
 11
1.979109
 21
0.618568
 31
0.0
  0
LINE
  8
0
  6
CONTINUOUS
 62
     7
  5
545
 10
1.979109
 20
0.618568
 30
0.0
 11
1.978887
 21
0.618796
 31
0.0
  0
LINE
  8
0
  6
CONTINUOUS
 62
     7
  5
546
 10
1.978887
 20
0.618796
 30
0.0
 11
1.978663
 21
0.619029
 31
0.0
  0
LINE
  8
0
  6
CONTINUOUS
 62
     7
  5
547
 10
1.978663
 20
0.619029
 30
0.0
 11
1.978436
 21
0.619267
 31
0.0
  0
LINE
  8
0
  6
CONTINUOUS
 62
     7
  5
548
 10
1.978436
 20
0.619267
 30
0.0
 11
1.978206
 21
0.61951
 31
0.0
  0
LINE
  8
0
  6
CONTINUOUS
 62
     7
  5
549
 10
1.978206
 20
0.61951
 30
0.0
 11
1.977973
 21
0.619758
 31
0.0
  0
LINE
  8
0
  6
CONTINUOUS
 62
     7
  5
54A
 10
1.977973
 20
0.619758
 30
0.0
 11
1.977738
 21
0.620011
 31
0.0
  0
LINE
  8
0
  6
CONTINUOUS
 62
     7
  5
54B
 10
1.977738
 20
0.620011
 30
0.0
 11
1.9775
 21
0.620268
 31
0.0
  0
LINE
  8
0
  6
CONTINUOUS
 62
     7
  5
54C
 10
1.9775
 20
0.620268
 30
0.0
 11
1.97726
 21
0.62053
 31
0.0
  0
LINE
  8
0
  6
CONTINUOUS
 62
     7
  5
54D
 10
1.97726
 20
0.62053
 30
0.0
 11
1.977017
 21
0.620796
 31
0.0
  0
LINE
  8
0
  6
CONTINUOUS
 62
     7
  5
54E
 10
1.977017
 20
0.620796
 30
0.0
 11
1.976773
 21
0.621065
 31
0.0
  0
LINE
  8
0
  6
CONTINUOUS
 62
     7
  5
54F
 10
1.976773
 20
0.621065
 30
0.0
 11
1.976526
 21
0.621339
 31
0.0
  0
LINE
  8
0
  6
CONTINUOUS
 62
     7
  5
550
 10
1.976526
 20
0.621339
 30
0.0
 11
1.976277
 21
0.621616
 31
0.0
  0
LINE
  8
0
  6
CONTINUOUS
 62
     7
  5
551
 10
1.976277
 20
0.621616
 30
0.0
 11
1.976027
 21
0.621896
 31
0.0
  0
LINE
  8
0
  6
CONTINUOUS
 62
     7
  5
552
 10
1.976027
 20
0.621896
 30
0.0
 11
1.975775
 21
0.622179
 31
0.0
  0
LINE
  8
0
  6
CONTINUOUS
 62
     7
  5
553
 10
1.975775
 20
0.622179
 30
0.0
 11
1.975521
 21
0.622466
 31
0.0
  0
LINE
  8
0
  6
CONTINUOUS
 62
     7
  5
554
 10
1.975521
 20
0.622466
 30
0.0
 11
1.975266
 21
0.622755
 31
0.0
  0
LINE
  8
0
  6
CONTINUOUS
 62
     7
  5
555
 10
1.975266
 20
0.622755
 30
0.0
 11
1.97501
 21
0.623046
 31
0.0
  0
LINE
  8
0
  6
CONTINUOUS
 62
     7
  5
556
 10
1.97501
 20
0.623046
 30
0.0
 11
1.974752
 21
0.62334
 31
0.0
  0
LINE
  8
0
  6
CONTINUOUS
 62
     7
  5
557
 10
1.974752
 20
0.62334
 30
0.0
 11
1.974494
 21
0.623635
 31
0.0
  0
LINE
  8
0
  6
CONTINUOUS
 62
     7
  5
558
 10
1.974494
 20
0.623635
 30
0.0
 11
1.974235
 21
0.623932
 31
0.0
  0
LINE
  8
0
  6
CONTINUOUS
 62
     7
  5
559
 10
1.974235
 20
0.623932
 30
0.0
 11
1.973976
 21
0.624231
 31
0.0
  0
LINE
  8
0
  6
CONTINUOUS
 62
     7
  5
55A
 10
1.973976
 20
0.624231
 30
0.0
 11
1.973716
 21
0.624531
 31
0.0
  0
LINE
  8
0
  6
CONTINUOUS
 62
     7
  5
55B
 10
1.973716
 20
0.624531
 30
0.0
 11
1.973455
 21
0.624832
 31
0.0
  0
LINE
  8
0
  6
CONTINUOUS
 62
     7
  5
55C
 10
1.973455
 20
0.624832
 30
0.0
 11
1.973195
 21
0.625134
 31
0.0
  0
LINE
  8
0
  6
CONTINUOUS
 62
     7
  5
55D
 10
1.973195
 20
0.625134
 30
0.0
 11
1.972935
 21
0.625437
 31
0.0
  0
LINE
  8
0
  6
CONTINUOUS
 62
     7
  5
55E
 10
1.972935
 20
0.625437
 30
0.0
 11
1.972675
 21
0.625739
 31
0.0
  0
LINE
  8
0
  6
CONTINUOUS
 62
     7
  5
55F
 10
1.972675
 20
0.625739
 30
0.0
 11
1.972415
 21
0.626042
 31
0.0
  0
LINE
  8
0
  6
CONTINUOUS
 62
     7
  5
560
 10
1.985759
 20
0.617807
 30
0.0
 11
1.985759
 21
0.617781
 31
0.0
  0
LINE
  8
0
  6
CONTINUOUS
 62
     7
  5
561
 10
1.985759
 20
0.617781
 30
0.0
 11
1.985759
 21
0.617755
 31
0.0
  0
LINE
  8
0
  6
CONTINUOUS
 62
     7
  5
562
 10
1.985759
 20
0.617755
 30
0.0
 11
1.985758
 21
0.617729
 31
0.0
  0
LINE
  8
0
  6
CONTINUOUS
 62
     7
  5
563
 10
1.985758
 20
0.617729
 30
0.0
 11
1.985758
 21
0.617703
 31
0.0
  0
LINE
  8
0
  6
CONTINUOUS
 62
     7
  5
564
 10
1.985758
 20
0.617703
 30
0.0
 11
1.985758
 21
0.617677
 31
0.0
  0
LINE
  8
0
  6
CONTINUOUS
 62
     7
  5
565
 10
1.985758
 20
0.617677
 30
0.0
 11
1.985758
 21
0.617652
 31
0.0
  0
LINE
  8
0
  6
CONTINUOUS
 62
     7
  5
566
 10
1.985758
 20
0.617652
 30
0.0
 11
1.985757
 21
0.617626
 31
0.0
  0
LINE
  8
0
  6
CONTINUOUS
 62
     7
  5
567
 10
1.985757
 20
0.617626
 30
0.0
 11
1.985757
 21
0.617601
 31
0.0
  0
LINE
  8
0
  6
CONTINUOUS
 62
     7
  5
568
 10
1.985757
 20
0.617601
 30
0.0
 11
1.985756
 21
0.617576
 31
0.0
  0
LINE
  8
0
  6
CONTINUOUS
 62
     7
  5
569
 10
1.985756
 20
0.617576
 30
0.0
 11
1.985756
 21
0.61755
 31
0.0
  0
LINE
  8
0
  6
CONTINUOUS
 62
     7
  5
56A
 10
1.985756
 20
0.61755
 30
0.0
 11
1.985755
 21
0.617525
 31
0.0
  0
LINE
  8
0
  6
CONTINUOUS
 62
     7
  5
56B
 10
1.985755
 20
0.617525
 30
0.0
 11
1.985755
 21
0.6175
 31
0.0
  0
LINE
  8
0
  6
CONTINUOUS
 62
     7
  5
56C
 10
1.985755
 20
0.6175
 30
0.0
 11
1.985754
 21
0.617475
 31
0.0
  0
LINE
  8
0
  6
CONTINUOUS
 62
     7
  5
56D
 10
1.985754
 20
0.617475
 30
0.0
 11
1.985753
 21
0.61745
 31
0.0
  0
LINE
  8
0
  6
CONTINUOUS
 62
     7
  5
56E
 10
1.985753
 20
0.61745
 30
0.0
 11
1.985752
 21
0.617426
 31
0.0
  0
LINE
  8
0
  6
CONTINUOUS
 62
     7
  5
56F
 10
1.985752
 20
0.617426
 30
0.0
 11
1.985751
 21
0.617401
 31
0.0
  0
LINE
  8
0
  6
CONTINUOUS
 62
     7
  5
570
 10
1.985751
 20
0.617401
 30
0.0
 11
1.98575
 21
0.617376
 31
0.0
  0
LINE
  8
0
  6
CONTINUOUS
 62
     7
  5
571
 10
1.98575
 20
0.617376
 30
0.0
 11
1.985749
 21
0.617352
 31
0.0
  0
LINE
  8
0
  6
CONTINUOUS
 62
     7
  5
572
 10
1.985749
 20
0.617352
 30
0.0
 11
1.985748
 21
0.617327
 31
0.0
  0
LINE
  8
0
  6
CONTINUOUS
 62
     7
  5
573
 10
1.985748
 20
0.617327
 30
0.0
 11
1.985747
 21
0.617303
 31
0.0
  0
LINE
  8
0
  6
CONTINUOUS
 62
     7
  5
574
 10
1.985747
 20
0.617303
 30
0.0
 11
1.985746
 21
0.617279
 31
0.0
  0
LINE
  8
0
  6
CONTINUOUS
 62
     7
  5
575
 10
1.985746
 20
0.617279
 30
0.0
 11
1.985745
 21
0.617255
 31
0.0
  0
LINE
  8
0
  6
CONTINUOUS
 62
     7
  5
576
 10
1.985745
 20
0.617255
 30
0.0
 11
1.985744
 21
0.617231
 31
0.0
  0
LINE
  8
0
  6
CONTINUOUS
 62
     7
  5
577
 10
1.985744
 20
0.617231
 30
0.0
 11
1.985742
 21
0.617207
 31
0.0
  0
LINE
  8
0
  6
CONTINUOUS
 62
     7
  5
578
 10
1.985742
 20
0.617207
 30
0.0
 11
1.985741
 21
0.617183
 31
0.0
  0
LINE
  8
0
  6
CONTINUOUS
 62
     7
  5
579
 10
1.985741
 20
0.617183
 30
0.0
 11
1.985739
 21
0.617159
 31
0.0
  0
LINE
  8
0
  6
CONTINUOUS
 62
     7
  5
57A
 10
1.985739
 20
0.617159
 30
0.0
 11
1.985738
 21
0.617136
 31
0.0
  0
LINE
  8
0
  6
CONTINUOUS
 62
     7
  5
57B
 10
1.985738
 20
0.617136
 30
0.0
 11
1.985736
 21
0.617112
 31
0.0
  0
LINE
  8
0
  6
CONTINUOUS
 62
     7
  5
57C
 10
1.985736
 20
0.617112
 30
0.0
 11
1.985735
 21
0.617089
 31
0.0
  0
LINE
  8
0
  6
CONTINUOUS
 62
     7
  5
57D
 10
1.985735
 20
0.617089
 30
0.0
 11
1.985733
 21
0.617065
 31
0.0
  0
LINE
  8
0
  6
CONTINUOUS
 62
     7
  5
57E
 10
1.985733
 20
0.617065
 30
0.0
 11
1.985731
 21
0.617042
 31
0.0
  0
LINE
  8
0
  6
CONTINUOUS
 62
     7
  5
57F
 10
1.985731
 20
0.617042
 30
0.0
 11
1.985729
 21
0.617019
 31
0.0
  0
LINE
  8
0
  6
CONTINUOUS
 62
     7
  5
580
 10
1.985729
 20
0.617019
 30
0.0
 11
1.985728
 21
0.616996
 31
0.0
  0
LINE
  8
0
  6
CONTINUOUS
 62
     7
  5
581
 10
1.985728
 20
0.616996
 30
0.0
 11
1.985726
 21
0.616973
 31
0.0
  0
LINE
  8
0
  6
CONTINUOUS
 62
     7
  5
582
 10
1.985726
 20
0.616973
 30
0.0
 11
1.985724
 21
0.61695
 31
0.0
  0
LINE
  8
0
  6
CONTINUOUS
 62
     7
  5
583
 10
1.975527
 20
0.616986
 30
0.0
 11
1.971379
 21
0.611993
 31
0.0
  0
LINE
  8
0
  6
CONTINUOUS
 62
     7
  5
584
 10
1.971379
 20
0.611993
 30
0.0
 11
1.966916
 21
0.607208
 31
0.0
  0
LINE
  8
0
  6
CONTINUOUS
 62
     7
  5
585
 10
1.966916
 20
0.607208
 30
0.0
 11
1.962153
 21
0.602646
 31
0.0
  0
LINE
  8
0
  6
CONTINUOUS
 62
     7
  5
586
 10
1.962153
 20
0.602646
 30
0.0
 11
1.957103
 21
0.598321
 31
0.0
  0
LINE
  8
0
  6
CONTINUOUS
 62
     7
  5
587
 10
1.957103
 20
0.598321
 30
0.0
 11
1.951784
 21
0.594246
 31
0.0
  0
LINE
  8
0
  6
CONTINUOUS
 62
     7
  5
588
 10
1.951784
 20
0.594246
 30
0.0
 11
1.946211
 21
0.590434
 31
0.0
  0
LINE
  8
0
  6
CONTINUOUS
 62
     7
  5
589
 10
1.946211
 20
0.590434
 30
0.0
 11
1.940401
 21
0.586896
 31
0.0
  0
LINE
  8
0
  6
CONTINUOUS
 62
     7
  5
58A
 10
1.940401
 20
0.586896
 30
0.0
 11
1.934373
 21
0.583644
 31
0.0
  0
LINE
  8
0
  6
CONTINUOUS
 62
     7
  5
58B
 10
1.934373
 20
0.583644
 30
0.0
 11
1.928145
 21
0.580688
 31
0.0
  0
LINE
  8
0
  6
CONTINUOUS
 62
     7
  5
58C
 10
1.928145
 20
0.580688
 30
0.0
 11
1.921736
 21
0.578036
 31
0.0
  0
LINE
  8
0
  6
CONTINUOUS
 62
     7
  5
58D
 10
1.921736
 20
0.578036
 30
0.0
 11
1.915167
 21
0.575698
 31
0.0
  0
LINE
  8
0
  6
CONTINUOUS
 62
     7
  5
58E
 10
1.915167
 20
0.575698
 30
0.0
 11
1.908458
 21
0.57368
 31
0.0
  0
LINE
  8
0
  6
CONTINUOUS
 62
     7
  5
58F
 10
1.908458
 20
0.57368
 30
0.0
 11
1.90163
 21
0.571989
 31
0.0
  0
LINE
  8
0
  6
CONTINUOUS
 62
     7
  5
590
 10
1.90163
 20
0.571989
 30
0.0
 11
1.894703
 21
0.57063
 31
0.0
  0
LINE
  8
0
  6
CONTINUOUS
 62
     7
  5
591
 10
1.894703
 20
0.57063
 30
0.0
 11
1.8877
 21
0.569607
 31
0.0
  0
LINE
  8
0
  6
CONTINUOUS
 62
     7
  5
592
 10
1.8877
 20
0.569607
 30
0.0
 11
1.880642
 21
0.568923
 31
0.0
  0
LINE
  8
0
  6
CONTINUOUS
 62
     7
  5
593
 10
1.880642
 20
0.568923
 30
0.0
 11
1.873551
 21
0.56858
 31
0.0
  0
LINE
  8
0
  6
CONTINUOUS
 62
     7
  5
594
 10
1.873551
 20
0.56858
 30
0.0
 11
1.866449
 21
0.56858
 31
0.0
  0
LINE
  8
0
  6
CONTINUOUS
 62
     7
  5
595
 10
1.866449
 20
0.56858
 30
0.0
 11
1.859358
 21
0.568923
 31
0.0
  0
LINE
  8
0
  6
CONTINUOUS
 62
     7
  5
596
 10
1.859358
 20
0.568923
 30
0.0
 11
1.8523
 21
0.569607
 31
0.0
  0
LINE
  8
0
  6
CONTINUOUS
 62
     7
  5
597
 10
1.8523
 20
0.569607
 30
0.0
 11
1.845297
 21
0.57063
 31
0.0
  0
LINE
  8
0
  6
CONTINUOUS
 62
     7
  5
598
 10
1.845297
 20
0.57063
 30
0.0
 11
1.83837
 21
0.571989
 31
0.0
  0
LINE
  8
0
  6
CONTINUOUS
 62
     7
  5
599
 10
1.83837
 20
0.571989
 30
0.0
 11
1.831542
 21
0.57368
 31
0.0
  0
LINE
  8
0
  6
CONTINUOUS
 62
     7
  5
59A
 10
1.831542
 20
0.57368
 30
0.0
 11
1.824833
 21
0.575698
 31
0.0
  0
LINE
  8
0
  6
CONTINUOUS
 62
     7
  5
59B
 10
1.824833
 20
0.575698
 30
0.0
 11
1.818264
 21
0.578036
 31
0.0
  0
LINE
  8
0
  6
CONTINUOUS
 62
     7
  5
59C
 10
1.818264
 20
0.578036
 30
0.0
 11
1.811855
 21
0.580688
 31
0.0
  0
LINE
  8
0
  6
CONTINUOUS
 62
     7
  5
59D
 10
1.811855
 20
0.580688
 30
0.0
 11
1.805627
 21
0.583644
 31
0.0
  0
LINE
  8
0
  6
CONTINUOUS
 62
     7
  5
59E
 10
1.805627
 20
0.583644
 30
0.0
 11
1.799599
 21
0.586896
 31
0.0
  0
LINE
  8
0
  6
CONTINUOUS
 62
     7
  5
59F
 10
1.799599
 20
0.586896
 30
0.0
 11
1.793789
 21
0.590434
 31
0.0
  0
LINE
  8
0
  6
CONTINUOUS
 62
     7
  5
5A0
 10
1.793789
 20
0.590434
 30
0.0
 11
1.788216
 21
0.594246
 31
0.0
  0
LINE
  8
0
  6
CONTINUOUS
 62
     7
  5
5A1
 10
1.788216
 20
0.594246
 30
0.0
 11
1.782897
 21
0.598321
 31
0.0
  0
LINE
  8
0
  6
CONTINUOUS
 62
     7
  5
5A2
 10
1.782897
 20
0.598321
 30
0.0
 11
1.777847
 21
0.602646
 31
0.0
  0
LINE
  8
0
  6
CONTINUOUS
 62
     7
  5
5A3
 10
1.777847
 20
0.602646
 30
0.0
 11
1.773084
 21
0.607208
 31
0.0
  0
LINE
  8
0
  6
CONTINUOUS
 62
     7
  5
5A4
 10
1.773084
 20
0.607208
 30
0.0
 11
1.768621
 21
0.611993
 31
0.0
  0
LINE
  8
0
  6
CONTINUOUS
 62
     7
  5
5A5
 10
1.768621
 20
0.611993
 30
0.0
 11
1.764473
 21
0.616986
 31
0.0
  0
LINE
  8
0
  6
CONTINUOUS
 62
     7
  5
5A6
 10
1.764473
 20
0.616986
 30
0.0
 11
1.68
 21
0.616986
 31
0.0
  0
LINE
  8
0
  6
CONTINUOUS
 62
     7
  5
5A7
 10
1.68
 20
0.551173
 30
0.0
 11
1.68
 21
0.616986
 31
0.0
  0
LINE
  8
0
  6
CONTINUOUS
 62
     7
  5
5A8
 10
2.129
 20
0.551173
 30
0.0
 11
2.129
 21
0.616986
 31
0.0
  0
LINE
  8
0
  6
CONTINUOUS
 62
     7
  5
5A9
 10
2.129
 20
0.616986
 30
0.0
 11
1.975527
 21
0.616986
 31
0.0
  0
LINE
  8
0
  6
CONTINUOUS
 62
     7
  5
5AA
 10
2.129
 20
0.784999
 30
0.0
 11
2.129
 21
0.809999
 31
0.0
  0
LINE
  8
0
  6
CONTINUOUS
 62
     7
  5
5AB
 10
1.68
 20
0.784999
 30
0.0
 11
1.68
 21
0.809999
 31
0.0
  0
LINE
  8
0
  6
CONTINUOUS
 62
     7
  5
5AC
 10
2.129
 20
0.617807
 30
0.0
 11
2.129
 21
0.616986
 31
0.0
  0
LINE
  8
0
  6
CONTINUOUS
 62
     7
  5
5AD
 10
1.985759
 20
0.725239
 30
0.0
 11
2.129
 21
0.725239
 31
0.0
  0
LINE
  8
0
  6
CONTINUOUS
 62
     7
  5
5AE
 10
2.129
 20
0.725239
 30
0.0
 11
2.129
 21
0.784999
 31
0.0
  0
LINE
  8
0
  6
CONTINUOUS
 62
     7
  5
5AF
 10
1.68
 20
0.725239
 30
0.0
 11
1.68
 21
0.784999
 31
0.0
  0
LINE
  8
0
  6
CONTINUOUS
 62
     7
  5
5B0
 10
1.68
 20
0.725239
 30
0.0
 11
1.754241
 21
0.725239
 31
0.0
  0
LINE
  8
0
  6
CONTINUOUS
 62
     7
  5
5B1
 10
2.129
 20
0.725239
 30
0.0
 11
2.129
 21
0.617807
 31
0.0
  0
LINE
  8
0
  6
CONTINUOUS
 62
     7
  5
5B2
 10
1.68
 20
0.617807
 30
0.0
 11
1.68
 21
0.725239
 31
0.0
  0
LINE
  8
0
  6
CONTINUOUS
 62
     7
  5
5B3
 10
2.129
 20
-0.725239
 30
0.0
 11
1.985759
 21
-0.725239
 31
0.0
  0
LINE
  8
0
  6
CONTINUOUS
 62
     7
  5
5B4
 10
2.129
 20
-0.617807
 30
0.0
 11
2.129
 21
-0.725239
 31
0.0
  0
LINE
  8
0
  6
CONTINUOUS
 62
     7
  5
5B5
 10
2.129
 20
-0.616986
 30
0.0
 11
2.129
 21
-0.617807
 31
0.0
  0
LINE
  8
0
  6
CONTINUOUS
 62
     7
  5
5B6
 10
2.129
 20
-0.616986
 30
0.0
 11
2.129
 21
-0.617807
 31
0.0
  0
LINE
  8
0
  6
CONTINUOUS
 62
     7
  5
5B7
 10
2.129
 20
-0.785001
 30
0.0
 11
2.129
 21
-0.725239
 31
0.0
  0
LINE
  8
0
  6
CONTINUOUS
 62
     7
  5
5B8
 10
1.68
 20
0.242089
 30
0.0
 11
1.68
 21
0.321089
 31
0.0
  0
LINE
  8
0
  6
CONTINUOUS
 62
     7
  5
5B9
 10
1.68
 20
0.321089
 30
0.0
 11
1.68
 21
0.450371
 31
0.0
  0
LINE
  8
0
  6
CONTINUOUS
 62
     7
  5
5BA
 10
1.68
 20
0.450371
 30
0.0
 11
1.68
 21
0.482871
 31
0.0
  0
LINE
  8
0
  6
CONTINUOUS
 62
     7
  5
5BB
 10
1.68
 20
0.482871
 30
0.0
 11
1.68
 21
0.551173
 31
0.0
  0
LINE
  8
0
  6
CONTINUOUS
 62
     7
  5
5BC
 10
1.68
 20
0.616986
 30
0.0
 11
1.68
 21
0.617807
 31
0.0
  0
LINE
  8
0
  6
CONTINUOUS
 62
     7
  5
5BD
 10
1.68
 20
0.616986
 30
0.0
 11
1.68
 21
0.617807
 31
0.0
  0
LINE
  8
0
  6
CONTINUOUS
 62
     7
  5
5BE
 10
2.129
 20
0.321089
 30
0.0
 11
2.129
 21
0.450371
 31
0.0
  0
LINE
  8
0
  6
CONTINUOUS
 62
     7
  5
5BF
 10
1.68
 20
0.450371
 30
0.0
 11
2.129
 21
0.450371
 31
0.0
  0
LINE
  8
0
  6
CONTINUOUS
 62
     7
  5
5C0
 10
1.68
 20
0.321089
 30
0.0
 11
2.129
 21
0.321089
 31
0.0
  0
LINE
  8
0
  6
CONTINUOUS
 62
     7
  5
5C1
 10
2.129
 20
0.450371
 30
0.0
 11
2.129
 21
0.482871
 31
0.0
  0
LINE
  8
0
  6
CONTINUOUS
 62
     7
  5
5C2
 10
2.129
 20
0.482871
 30
0.0
 11
2.129
 21
0.551173
 31
0.0
  0
LINE
  8
0
  6
CONTINUOUS
 62
     7
  5
5C3
 10
2.129
 20
-0.551174
 30
0.0
 11
2.129
 21
-0.482872
 31
0.0
  0
LINE
  8
0
  6
CONTINUOUS
 62
     7
  5
5C4
 10
2.129
 20
-0.482872
 30
0.0
 11
2.129
 21
-0.450372
 31
0.0
  0
LINE
  8
0
  6
CONTINUOUS
 62
     7
  5
5C5
 10
1.68
 20
-0.450372
 30
0.0
 11
2.129
 21
-0.450372
 31
0.0
  0
LINE
  8
0
  6
CONTINUOUS
 62
     7
  5
5C6
 10
2.129
 20
-0.450372
 30
0.0
 11
2.129
 21
-0.32109
 31
0.0
  0
LINE
  8
0
  6
CONTINUOUS
 62
     7
  5
5C7
 10
1.68
 20
-0.32109
 30
0.0
 11
2.129
 21
-0.32109
 31
0.0
  0
LINE
  8
0
  6
CONTINUOUS
 62
     7
  5
5C8
 10
2.129
 20
-0.32109
 30
0.0
 11
2.129
 21
-0.24209
 31
0.0
  0
LINE
  8
0
  6
CONTINUOUS
 62
     7
  5
5C9
 10
2.129
 20
0.242089
 30
0.0
 11
2.129
 21
0.321089
 31
0.0
  0
LINE
  8
0
  6
CONTINUOUS
 62
     7
  5
5CA
 10
1.67
 20
0.208
 30
0.0
 11
1.733
 21
0.208
 31
0.0
  0
LINE
  8
0
  6
CONTINUOUS
 62
     7
  5
5CB
 10
1.733
 20
-0.208
 30
0.0
 11
1.67
 21
-0.208
 31
0.0
  0
LINE
  8
0
  6
CONTINUOUS
 62
     7
  5
5CC
 10
1.388
 20
-0.1
 30
0.0
 11
1.388
 21
0.1
 31
0.0
  0
LINE
  8
0
  6
CONTINUOUS
 62
     7
  5
5CD
 10
0.859
 20
0.1
 30
0.0
 11
0.859
 21
-0.1
 31
0.0
  0
CIRCLE
  8
0
  6
CONTINUOUS
 62
     7
  5
5CE
 10
1.733
 20
0.0
 30
0.0
 40
0.074
  0
CIRCLE
  8
0
  6
CONTINUOUS
 62
     7
  5
5CF
 10
0.515
 20
0.0
 30
0.0
 40
0.074
  0
LINE
  8
0
  6
CONTINUOUS
 62
     7
  5
5D0
 10
1.513
 20
0.1
 30
0.0
 11
1.513
 21
-0.1
 31
0.0
  0
LINE
  8
0
  6
CONTINUOUS
 62
     7
  5
5D1
 10
1.513
 20
-0.1
 30
0.0
 11
1.333
 21
-0.1
 31
0.0
  0
LINE
  8
0
  6
CONTINUOUS
 62
     7
  5
5D2
 10
1.333
 20
-0.1
 30
0.0
 11
1.333
 21
0.1
 31
0.0
  0
LINE
  8
0
  6
CONTINUOUS
 62
     7
  5
5D3
 10
1.333
 20
0.1
 30
0.0
 11
1.513
 21
0.1
 31
0.0
  0
LINE
  8
0
  6
CONTINUOUS
 62
     7
  5
5D4
 10
0.914
 20
0.1
 30
0.0
 11
0.914
 21
-0.1
 31
0.0
  0
LINE
  8
0
  6
CONTINUOUS
 62
     7
  5
5D5
 10
0.914
 20
-0.1
 30
0.0
 11
0.734
 21
-0.1
 31
0.0
  0
LINE
  8
0
  6
CONTINUOUS
 62
     7
  5
5D6
 10
0.734
 20
-0.1
 30
0.0
 11
0.734
 21
0.1
 31
0.0
  0
LINE
  8
0
  6
CONTINUOUS
 62
     7
  5
5D7
 10
0.734
 20
0.1
 30
0.0
 11
0.914
 21
0.1
 31
0.0
  0
CIRCLE
  8
0
  6
CONTINUOUS
 62
     7
  5
5D8
 10
1.124
 20
0.609
 30
0.0
 40
0.0625
  0
CIRCLE
  8
0
  6
CONTINUOUS
 62
     7
  5
5D9
 10
1.124
 20
-0.609
 30
0.0
 40
0.0625
  0
CIRCLE
  8
0
  6
CONTINUOUS
 62
     7
  5
5DA
 10
1.124
 20
0.609
 30
0.0
 40
0.11
  0
CIRCLE
  8
0
  6
CONTINUOUS
 62
     7
  5
5DB
 10
1.124
 20
-0.609
 30
0.0
 40
0.11
  0
CIRCLE
  8
0
  6
CONTINUOUS
 62
     7
  5
5DC
 10
1.733
 20
0.0
 30
0.0
 40
0.11
  0
CIRCLE
  8
0
  6
CONTINUOUS
 62
     7
  5
5DD
 10
0.515
 20
0.0
 30
0.0
 40
0.11
  0
ARC
  8
0
  6
CONTINUOUS
 62
     7
  5
5DE
 10
1.733
 20
0.0
 30
0.0
 40
0.208
 50
270.0
 51
90.0
  0
LINE
  8
0
  6
CONTINUOUS
 62
     7
  5
5DF
 10
1.67
 20
0.71
 30
0.0
 11
1.67
 21
0.208
 31
0.0
  0
LINE
  8
0
  6
CONTINUOUS
 62
     7
  5
5E0
 10
1.67
 20
-0.208
 30
0.0
 11
1.67
 21
-0.71
 31
0.0
  0
LINE
  8
0
  6
CONTINUOUS
 62
     7
  5
5E1
 10
1.68
 20
-0.8
 30
0.0
 11
1.58
 21
-0.8
 31
0.0
  0
LINE
  8
0
  6
CONTINUOUS
 62
     7
  5
5E2
 10
1.58
 20
0.8
 30
0.0
 11
1.68
 21
0.8
 31
0.0
  0
LINE
  8
0
  6
CONTINUOUS
 62
     7
  5
5E3
 10
0.185
 20
0.8
 30
0.0
 11
1.58
 21
0.8
 31
0.0
  0
ARC
  8
0
  6
CONTINUOUS
 62
     7
  5
5E4
 10
1.58
 20
0.71
 30
0.0
 40
0.09
 50
0.0
 51
90.0
  0
ARC
  8
0
  6
CONTINUOUS
 62
     7
  5
5E5
 10
1.58
 20
-0.71
 30
0.0
 40
0.09
 50
270.0
 51
360.0
  0
LINE
  8
0
  6
CONTINUOUS
 62
     7
  5
5E6
 10
1.58
 20
-0.8
 30
0.0
 11
0.185
 21
-0.8
 31
0.0
  0
ARC
  8
0
  6
CONTINUOUS
 62
     7
  5
5E7
 10
0.185
 20
-0.615
 30
0.0
 40
0.185
 50
180.0
 51
270.0
  0
LINE
  8
0
  6
CONTINUOUS
 62
     7
  5
5E8
 10
0.0
 20
-0.615
 30
0.0
 11
0.0
 21
0.615
 31
0.0
  0
ARC
  8
0
  6
CONTINUOUS
 62
     7
  5
5E9
 10
0.185
 20
0.615
 30
0.0
 40
0.185
 50
90.0
 51
180.0
  0
LINE
  8
0
  6
CONTINUOUS
 62
     7
  5
5EA
 10
1.68
 20
-0.810001
 30
0.0
 11
2.129
 21
-0.810001
 31
0.0
  0
LINE
  8
0
  6
CONTINUOUS
 62
     7
  5
5EB
 10
2.129
 20
0.809999
 30
0.0
 11
1.68
 21
0.809999
 31
0.0
  0
LINE
  8
0
  6
CONTINUOUS
 62
     3
  5
5EC
 10
0.515
 20
-0.074
 30
0.0
 11
0.515
 21
0.074
 31
0.0
  0
LINE
  8
0
  6
CONTINUOUS
 62
     3
  5
5ED
 10
0.441
 20
0.0
 30
0.0
 11
0.589
 21
0.0
 31
0.0
  0
LINE
  8
0
  6
CONTINUOUS
 62
     3
  5
5EE
 10
1.733
 20
-0.074
 30
0.0
 11
1.733
 21
0.074
 31
0.0
  0
LINE
  8
0
  6
CONTINUOUS
 62
     3
  5
5EF
 10
1.659
 20
0.0
 30
0.0
 11
1.807
 21
0.0
 31
0.0
  0
LINE
  8
0
  6
CONTINUOUS
 62
     3
  5
5F0
 10
1.124
 20
0.2
 30
0.0
 11
1.124
 21
-0.2
 31
0.0
  0
LINE
  8
0
  6
CONTINUOUS
 62
     3
  5
5F1
 10
0.924
 20
0.0
 30
0.0
 11
1.324
 21
0.0
 31
0.0
  0
ENDSEC
  0
EOF
