999
DXF file: C:\Users\sesa63760\Dev\_Creo\CAD\MCADID0005230_3D-CAD\drw0001_1.dxf
999
Pro/ENGINEER 2019471 by Parametric Technology Corporation
  0
SECTION
  2
HEADER
  9
$ACADVER
  1
AC1024
  9
$DWGCODEPAGE
  3
ANSI_1252
  9
$EXTMAX
 10
83.6024551246
 20
118.237757962
 30
0.0
  9
$EXTMIN
 10
0.0
 20
0.0
 30
0.0
  9
$LIMMIN
 10
0.0
 20
0.0
  9
$LIMMAX
 10
83.6024551246
 20
118.237757962
  9
$VIEWCTR
 10
41.8012275623
 20
59.118878981
  9
$VIEWSIZE
 40
118.237757962
  9
$CLAYER
  8
0
  9
$LTSCALE
 40
7.7073501486
  9
$CELTYPE
  6
BYLAYER
  9
$DIMSCALE
 40
1.0
  9
$DIMASZ
 40
0.9952673229
  9
$DIMEXO
 40
1.0
  9
$DIMDLI
 40
5.3250782845
  9
$DIMEXE
 40
1.0
  9
$DIMCEN
 40
1.2612027516
  9
$DIMLFAC
 40
1.0
  9
$DIMBLK
  1
_FILLED
  9
$DIMALT
 70
0
  9
$DIMALTF
 40
0.0393700787
  9
$DIMTXT
 40
1.3933742521
  9
$DIMTOL
 70
1
  9
$DIMLIM
 70
0
  9
$DIMTFAC
 40
1.0
  9
$DIMTP
 40
0.01
  9
$DIMTM
 40
0.01
  9
$DIMGAP
 40
0.625
  9
$DIMDSEP
 70
46
  9
$AUNITS
 70
0
  9
$PDMODE
 70
3
  9
$PDSIZE
 40
0.3125
  9
$HANDSEED
  5
2EC
  9
$TILEMODE
 70
1
  9
$MEASUREMENT
 70
1
  9
$INSUNITS
 70
4
  0
ENDSEC
  0
SECTION
  2
CLASSES
  0
CLASS
  1
ACDBDICTIONARYWDFLT
  2
AcDbDictionaryWithDefault
  3
AutoCAD 2000
 90
0
 91
1
280
0
281
0
  0
CLASS
  1
ACDBPLACEHOLDER
  2
AcDbPlaceHolder
  3
AutoCAD 2000
 90
0
 91
1
280
0
281
0
  0
CLASS
  1
LAYOUT
  2
AcDbLayout
  3
AutoCAD 2000
 90
0
 91
0
280
0
281
0
  0
ENDSEC
  0
SECTION
  2
TABLES
  0
TABLE
  2
VPORT
  5
8
100
AcDbSymbolTable
 70
2
  0
VPORT
  5
1F4
100
AcDbSymbolTableRecord
100
AcDbViewportTableRecord
  2
*ACTIVE
 70
0
 10
0.0
 20
0.0
 11
1.0
 21
1.0
 12
41.8012275623
 22
59.118878981
 13
0.0
 23
0.0
 14
1.0
 24
1.0
 15
0.0
 25
0.0
 16
0.0
 26
0.0
 36
1.0
 17
0.0
 27
0.0
 37
0.0
 40
118.237757962
 41
0.7070707071
 42
50.0
 43
0.0
 44
0.0
 50
0.0
 51
0.0
 71
0
 72
100
 73
1
 74
1
 75
0
 76
0
 77
0
 78
0
  0
ENDTAB
  0
TABLE
  2
LTYPE
  5
5
100
AcDbSymbolTable
 70
6
  0
LTYPE
  5
14
100
AcDbSymbolTableRecord
100
AcDbLinetypeTableRecord
  2
BYBLOCK
 70
0
  3

 72
65
 73
0
 40
0.0
  0
LTYPE
  5
15
100
AcDbSymbolTableRecord
100
AcDbLinetypeTableRecord
  2
BYLAYER
 70
0
  3

 72
65
 73
0
 40
0.0
  0
LTYPE
  5
16
100
AcDbSymbolTableRecord
100
AcDbLinetypeTableRecord
  2
CONTINUOUS
 70
64
  3
Solid line
 72
65
 73
0
 40
0.0
  0
LTYPE
  5
1F5
100
AcDbSymbolTableRecord
100
AcDbLinetypeTableRecord
  2
CENTER
 70
64
  3
____ _ ____ _ ____ _ ____ _ ____ _ ____ _ ____
 72
65
 73
4
 40
0.6
 49
0.375
 74
0
 49
-0.075
 74
0
 49
0.075
 74
0
 49
-0.075
 74
0
  0
LTYPE
  5
1F6
100
AcDbSymbolTableRecord
100
AcDbLinetypeTableRecord
  2
HIDDEN
 70
64
  3
- - - - - - - - - - - - - - - - - - - -
 72
65
 73
2
 40
0.2
 49
0.1
 74
0
 49
-0.1
 74
0
  0
LTYPE
  5
1F7
100
AcDbSymbolTableRecord
100
AcDbLinetypeTableRecord
  2
PHANTOM
 70
64
  3
_____ _ _ _____ _ _ _____ _ _ _____
 72
65
 73
6
 40
0.8
 49
0.45
 74
0
 49
-0.05
 74
0
 49
0.1
 74
0
 49
-0.05
 74
0
 49
0.1
 74
0
 49
-0.05
 74
0
  0
LTYPE
  5
1F8
100
AcDbSymbolTableRecord
100
AcDbLinetypeTableRecord
  2
DOT
 70
64
  3
. . . . . . . . . . . . . . . . . . . .
 72
65
 73
2
 40
0.2
 49
0.1
 74
0
 49
-0.1
 74
0
  0
LTYPE
  5
1F9
100
AcDbSymbolTableRecord
100
AcDbLinetypeTableRecord
  2
DASHED
 70
64
  3
- - - - - - - - - - - - - - - - - - - -
 72
65
 73
2
 40
0.2
 49
0.1
 74
0
 49
-0.1
 74
0
  0
ENDTAB
  0
TABLE
  2
LAYER
  5
2
100
AcDbSymbolTable
 70
36
  0
LAYER
  5
10
100
AcDbSymbolTableRecord
100
AcDbLayerTableRecord
  2
0
 70
0
 62
7
  6
CONTINUOUS
370
-3
390
F
  0
LAYER
  5
1FA
100
AcDbSymbolTableRecord
100
AcDbLayerTableRecord
  2
DEFAULT_1
 70
0
 62
7
  6
CENTER
370
-3
390
F
  0
LAYER
  5
1FB
100
AcDbSymbolTableRecord
100
AcDbLayerTableRecord
  2
DEFAULT_2
 70
0
 62
7
  6
HIDDEN
370
-3
390
F
  0
LAYER
  5
1FC
100
AcDbSymbolTableRecord
100
AcDbLayerTableRecord
  2
DEFAULT_3
 70
0
 62
7
  6
PHANTOM
370
-3
390
F
  0
LAYER
  5
1FD
100
AcDbSymbolTableRecord
100
AcDbLayerTableRecord
  2
00_COMPONENTS
 70
0
 62
7
  6
CONTINUOUS
370
-3
390
F
  0
LAYER
  5
1FE
100
AcDbSymbolTableRecord
100
AcDbLayerTableRecord
  2
00_COMPONENTS_1
 70
0
 62
7
  6
CONTINUOUS
370
-3
390
F
  0
LAYER
  5
1FF
100
AcDbSymbolTableRecord
100
AcDbLayerTableRecord
  2
00_COMPONENTS_2
 70
0
 62
7
  6
CONTINUOUS
370
-3
390
F
  0
LAYER
  5
200
100
AcDbSymbolTableRecord
100
AcDbLayerTableRecord
  2
00_COMPONENTS_3
 70
0
 62
7
  6
CONTINUOUS
370
-3
390
F
  0
LAYER
  5
201
100
AcDbSymbolTableRecord
100
AcDbLayerTableRecord
  2
01_1_DEFAULT_DATUMS
 70
0
 62
7
  6
CONTINUOUS
370
-3
390
F
  0
LAYER
  5
202
100
AcDbSymbolTableRecord
100
AcDbLayerTableRecord
  2
01_PLANES
 70
0
 62
7
  6
CONTINUOUS
370
-3
390
F
  0
LAYER
  5
203
100
AcDbSymbolTableRecord
100
AcDbLayerTableRecord
  2
02_COORD_SYS
 70
0
 62
7
  6
CONTINUOUS
370
-3
390
F
  0
LAYER
  5
204
100
AcDbSymbolTableRecord
100
AcDbLayerTableRecord
  2
03_AXES
 70
0
 62
7
  6
CONTINUOUS
370
-3
390
F
  0
LAYER
  5
205
100
AcDbSymbolTableRecord
100
AcDbLayerTableRecord
  2
03_AXES_1
 70
0
 62
7
  6
CONTINUOUS
370
-3
390
F
  0
LAYER
  5
206
100
AcDbSymbolTableRecord
100
AcDbLayerTableRecord
  2
03_AXES_2
 70
0
 62
7
  6
CONTINUOUS
370
-3
390
F
  0
LAYER
  5
207
100
AcDbSymbolTableRecord
100
AcDbLayerTableRecord
  2
04_POINTS
 70
0
 62
7
  6
CONTINUOUS
370
-3
390
F
  0
LAYER
  5
208
100
AcDbSymbolTableRecord
100
AcDbLayerTableRecord
  2
05_CURVES
 70
0
 62
7
  6
CONTINUOUS
370
-3
390
F
  0
LAYER
  5
209
100
AcDbSymbolTableRecord
100
AcDbLayerTableRecord
  2
06_SURFS
 70
0
 62
7
  6
CONTINUOUS
370
-3
390
F
  0
LAYER
  5
20A
100
AcDbSymbolTableRecord
100
AcDbLayerTableRecord
  2
07_COSMETICS
 70
0
 62
7
  6
CONTINUOUS
370
-3
390
F
  0
LAYER
  5
20B
100
AcDbSymbolTableRecord
100
AcDbLayerTableRecord
  2
10_NOTES
 70
0
 62
7
  6
CONTINUOUS
370
-3
390
F
  0
LAYER
  5
20C
100
AcDbSymbolTableRecord
100
AcDbLayerTableRecord
  2
11_NOTES_PUB
 70
0
 62
7
  6
CONTINUOUS
370
-3
390
F
  0
LAYER
  5
20D
100
AcDbSymbolTableRecord
100
AcDbLayerTableRecord
  2
13_REF_GTOL
 70
0
 62
7
  6
CONTINUOUS
370
-3
390
F
  0
LAYER
  5
20E
100
AcDbSymbolTableRecord
100
AcDbLayerTableRecord
  2
16_MISC
 70
0
 62
7
  6
CONTINUOUS
370
-3
390
F
  0
LAYER
  5
20F
100
AcDbSymbolTableRecord
100
AcDbLayerTableRecord
  2
17_NO_PRINT
 70
0
 62
7
  6
CONTINUOUS
370
-3
390
F
  0
LAYER
  5
210
100
AcDbSymbolTableRecord
100
AcDbLayerTableRecord
  2
18_DATUM_CAMS_JOINTS
 70
0
 62
7
  6
CONTINUOUS
370
-3
390
F
  0
LAYER
  5
211
100
AcDbSymbolTableRecord
100
AcDbLayerTableRecord
  2
19_DATUM_FUNCTIONAL
 70
0
 62
7
  6
CONTINUOUS
370
-3
390
F
  0
LAYER
  5
212
100
AcDbSymbolTableRecord
100
AcDbLayerTableRecord
  2
20_DATUM_KINEMATIC_SCHEME
 70
0
 62
7
  6
CONTINUOUS
370
-3
390
F
  0
LAYER
  5
213
100
AcDbSymbolTableRecord
100
AcDbLayerTableRecord
  2
INTFCLR_30296
 70
0
 62
7
  6
CONTINUOUS
370
-3
390
F
  0
LAYER
  5
214
100
AcDbSymbolTableRecord
100
AcDbLayerTableRecord
  2
INTFCLR_35
 70
0
 62
7
  6
CONTINUOUS
370
-3
390
F
  0
LAYER
  5
215
100
AcDbSymbolTableRecord
100
AcDbLayerTableRecord
  2
INTFCLR_59147
 70
0
 62
7
  6
CONTINUOUS
370
-3
390
F
  0
LAYER
  5
216
100
AcDbSymbolTableRecord
100
AcDbLayerTableRecord
  2
INTF_BLANK
 70
0
 62
7
  6
CONTINUOUS
370
-3
390
F
  0
LAYER
  5
217
100
AcDbSymbolTableRecord
100
AcDbLayerTableRecord
  2
_BLACK_HOLE
 70
0
 62
7
  6
CONTINUOUS
370
-3
390
F
  0
ENDTAB
  0
TABLE
  2
STYLE
  5
3
100
AcDbSymbolTable
 70
1
  0
STYLE
  5
11
100
AcDbSymbolTableRecord
100
AcDbTextStyleTableRecord
  2
STANDARD
 70
0
 40
0.0
 41
1.0
 50
0.0
 71
0
 42
0.2
  3
ARIAL.TTF
  4

  0
STYLE
  5
218
100
AcDbSymbolTableRecord
100
AcDbTextStyleTableRecord
  2
TEXTSTYLE_1
 70
0
 40
0.0
 41
0.8
 50
0.0
 71
0
 42
0.2
  3
gdt
  4

  0
ENDTAB
  0
TABLE
  2
VIEW
  5
6
100
AcDbSymbolTable
 70
0
  0
ENDTAB
  0
TABLE
  2
UCS
  5
7
100
AcDbSymbolTable
 70
0
  0
ENDTAB
  0
TABLE
  2
APPID
  5
9
100
AcDbSymbolTable
 70
1
  0
APPID
  5
219
100
AcDbSymbolTableRecord
100
AcDbRegAppTableRecord
  2
ACAD
 70
0
  0
ENDTAB
  0
TABLE
  2
BLOCK_RECORD
  5
1
100
AcDbSymbolTable
 70
0
  0
BLOCK_RECORD
  5
21A
100
AcDbSymbolTableRecord
100
AcDbBlockTableRecord
  2
*Model_Space
  0
BLOCK_RECORD
  5
21B
100
AcDbSymbolTableRecord
100
AcDbBlockTableRecord
  2
*Paper_Space
  0
BLOCK_RECORD
  5
21C
100
AcDbSymbolTableRecord
100
AcDbBlockTableRecord
  2
_FILLED
  0
ENDTAB
  0
TABLE
  2
DIMSTYLE
  5
A
100
AcDbSymbolTable
 70
1
100
AcDbDimStyleTable
 71
0
  0
DIMSTYLE
105
21D
100
AcDbSymbolTableRecord
100
AcDbDimStyleTableRecord
  2
STANDARD
 70
0
  3

  4

 40
1.0
 41
0.9952673229
 42
1.0
 43
0.38
 44
1.0
 45
0.0
 46
0.0
 47
0.01
 48
0.01
140
1.3933742521
141
0.09
142
0.0
143
25.4
144
1.0
145
0.0
146
1.0
147
0.625
 71
1
 72
0
 73
0
 74
0
 75
0
 76
0
 77
1
 78
8
 79
2
170
0
171
1
172
0
173
0
174
0
175
0
176
0
177
0
178
0
270
2
179
2
271
2
272
2
273
2
274
2
275
0
280
0
281
0
282
0
283
1
284
8
285
0
286
0
287
3
288
0
340
11
278
46
341
21C
342
21C
343
21C
344
21C
  0
ENDTAB
  0
ENDSEC
  0
SECTION
  2
BLOCKS
  0
BLOCK
  5
20
100
AcDbEntity
  8
0
100
AcDbBlockBegin
  2
*Model_Space
 70
0
 10
0.0
 20
0.0
 30
0.0
  3
*Model_Space
  1

  0
ENDBLK
  5
21
100
AcDbEntity
  8
0
100
AcDbBlockEnd
  0
BLOCK
  5
1C
100
AcDbEntity
  8
0
100
AcDbBlockBegin
  2
*Paper_Space
 70
0
 10
0.0
 20
0.0
 30
0.0
  3
*Paper_Space
  1

  0
ENDBLK
  5
1D
100
AcDbEntity
  8
0
100
AcDbBlockEnd
  0
BLOCK
  5
21E
100
AcDbEntity
  8
0
100
AcDbBlockBegin
  2
_FILLED
 70
64
 10
0.0
 20
0.0
  3
_FILLED
  1

  0
SOLID
  5
21F
100
AcDbEntity
  8
0
  6
BYBLOCK
 62
0
100
AcDbTrace
 10
0.0
 20
0.0
 11
-1.0
 21
0.25
 12
-1.0
 22
-0.25
 13
-1.0
 23
-0.25
  0
ENDBLK
  5
220
100
AcDbEntity
  8
0
  6
BYBLOCK
 62
0
100
AcDbBlockEnd
  0
ENDSEC
  0
SECTION
  2
ENTITIES
  0
LINE
  5
221
100
AcDbEntity
  8
00_COMPONENTS_1
100
AcDbLine
 62
7
  6
BYLAYER
 10
9.6959001765
 20
61.3088172205
 11
13.7633405416
 21
81.1855711488
  0
LINE
  5
222
100
AcDbEntity
  8
00_COMPONENTS_1
100
AcDbLine
 62
7
  6
BYLAYER
 10
14.6676462545
 20
80.0167064843
 11
10.6002058895
 21
60.139952556
  0
LINE
  5
223
100
AcDbEntity
  8
00_COMPONENTS_1
100
AcDbLine
 62
7
  6
BYLAYER
 10
15.7424431561
 20
81.185229462
 11
15.5915700565
 21
80.4479433049
  0
LINE
  5
224
100
AcDbEntity
  8
00_COMPONENTS_2
100
AcDbLine
 62
7
  6
BYLAYER
 10
36.2411304741
 20
91.3723417733
 11
24.1101475282
 21
84.3685573109
  0
LINE
  5
225
100
AcDbEntity
  8
00_COMPONENTS_2
100
AcDbLine
 62
7
  6
BYLAYER
 10
37.3187659944
 20
90.7087054301
 11
28.2658901538
 21
85.4820563255
  0
LINE
  5
226
100
AcDbEntity
  8
00_COMPONENTS_1
100
AcDbLine
 62
7
  6
BYLAYER
 10
16.3785463371
 20
56.8039016146
 11
15.8757514863
 21
54.3468454245
  0
LINE
  5
227
100
AcDbEntity
  8
00_COMPONENTS_2
100
AcDbLine
 62
7
  6
BYLAYER
 10
45.4992092994
 20
90.8085309741
 11
44.3856621766
 21
90.1656280806
  0
LINE
  5
228
100
AcDbEntity
  8
00_COMPONENTS_1
100
AcDbLine
 62
7
  6
BYLAYER
 10
17.4921027323
 20
56.1610040744
 11
16.9893078814
 21
53.7039478843
  0
LINE
  5
229
100
AcDbEntity
  8
00_COMPONENTS_2
100
AcDbLine
 62
7
  6
BYLAYER
 10
42.6916849839
 20
88.8510372013
 11
44.3856672153
 21
90.165619352
  0
LINE
  5
22A
100
AcDbEntity
  8
00_COMPONENTS_2
100
AcDbLine
 62
7
  6
BYLAYER
 10
37.2335218787
 20
81.4927806741
 11
37.3187659944
 21
81.5419960935
  0
LINE
  5
22B
100
AcDbEntity
  8
00_COMPONENTS_1
100
AcDbLine
 62
7
  6
BYLAYER
 10
18.4303943043
 20
48.325823948
 11
17.3168379092
 21
48.9687214882
  0
LINE
  5
22C
100
AcDbEntity
  8
00_COMPONENTS_1
100
AcDbLine
 62
7
  6
BYLAYER
 10
50.9390568082
 20
29.5573634997
 11
52.0526132034
 21
28.9144659595
  0
LINE
  5
22D
100
AcDbEntity
  8
00_COMPONENTS_2
100
AcDbLine
 62
7
  6
BYLAYER
 10
56.3021948863
 20
27.6085688883
 11
57.4157512815
 21
26.9656713481
  0
LINE
  5
22E
100
AcDbEntity
  8
00_COMPONENTS_2
100
AcDbLine
 62
7
  6
BYLAYER
 10
55.0019458877
 20
29.3608045179
 11
56.1155022828
 21
28.7179069777
  0
LINE
  5
22F
100
AcDbEntity
  8
00_COMPONENTS_2
100
AcDbLine
 62
7
  6
BYLAYER
 10
54.0939452966
 20
83.3331742479
 11
55.2074924195
 21
83.9760771415
  0
LINE
  5
230
100
AcDbEntity
  8
00_COMPONENTS_1
100
AcDbLine
 62
7
  6
BYLAYER
 10
50.3976661075
 20
43.26374208
 11
45.2625247893
 21
41.8878207796
  0
LINE
  5
231
100
AcDbEntity
  8
00_COMPONENTS_1
100
AcDbLine
 62
7
  6
BYLAYER
 10
15.8757514863
 20
54.3468454245
 11
16.9893078814
 21
53.7039478843
  0
LINE
  5
232
100
AcDbEntity
  8
00_COMPONENTS_1
100
AcDbLine
 62
7
  6
BYLAYER
 10
49.4979703853
 20
34.935487436
 11
50.6115267805
 21
34.2925898958
  0
LINE
  5
233
100
AcDbEntity
  8
00_COMPONENTS_1
100
AcDbLine
 62
7
  6
BYLAYER
 10
10.6002058895
 20
60.139952556
 11
41.0254402992
 21
42.5743326668
  0
LINE
  5
234
100
AcDbEntity
  8
00_COMPONENTS_2
100
AcDbLine
 62
7
  6
BYLAYER
 10
35.1818628403
 20
69.0822718535
 11
35.5692990051
 21
69.4019954798
  0
LINE
  5
235
100
AcDbEntity
  8
00_COMPONENTS_2
100
AcDbLine
 62
7
  6
BYLAYER
 10
53.88135407
 20
35.9110451692
 11
52.7677976748
 21
36.5539427094
  0
LINE
  5
236
100
AcDbEntity
  8
00_COMPONENTS_2
100
AcDbLine
 62
7
420
3604575
  6
BYLAYER
 10
59.9851323968
 20
33.9877480905
 11
61.0986887919
 21
33.3448505503
  0
LINE
  5
237
100
AcDbEntity
  8
00_COMPONENTS_1
100
AcDbLine
 62
7
  6
BYLAYER
 10
38.3756642742
 20
76.4032248958
 11
34.7529331277
 21
69.3299089363
  0
LINE
  5
238
100
AcDbEntity
  8
00_COMPONENTS_2
100
AcDbLine
 62
7
  6
BYLAYER
 10
37.2780018185
 20
67.8720928281
 11
37.3187659944
 21
67.8956278955
  0
LINE
  5
239
100
AcDbEntity
  8
00_COMPONENTS_2
100
AcDbLine
 62
7
  6
BYLAYER
 10
56.7671708959
 20
37.3193759761
 11
57.8807272911
 21
36.6764784359
  0
LINE
  5
23A
100
AcDbEntity
  8
00_COMPONENTS_1
100
AcDbLine
 62
7
  6
BYLAYER
 10
51.9851594981
 20
41.005253651
 11
50.8716031029
 21
41.6481511912
  0
LINE
  5
23B
100
AcDbEntity
  8
00_COMPONENTS_2
100
AcDbLine
 62
7
  6
BYLAYER
 10
36.4207441211
 20
71.5249900991
 11
36.4207441211
 21
71.1102068712
  0
LINE
  5
23C
100
AcDbEntity
  8
00_COMPONENTS_2
100
AcDbLine
 62
7
  6
BYLAYER
 10
37.3187659944
 20
67.8956278955
 11
37.3187659944
 21
73.270405509
  0
LINE
  5
23D
100
AcDbEntity
  8
00_COMPONENTS_2
100
AcDbLine
 62
7
  6
BYLAYER
 10
37.3187659944
 20
81.5419960935
 11
37.3187659944
 21
90.7087054301
  0
LINE
  5
23E
100
AcDbEntity
  8
00_COMPONENTS_2
100
AcDbLine
 62
7
  6
BYLAYER
 10
39.4740274634
 20
67.8956330761
 11
39.4740274634
 21
90.7087106107
  0
LINE
  5
23F
100
AcDbEntity
  8
00_COMPONENTS_1
100
AcDbLine
 62
7
  6
BYLAYER
 10
41.0254402992
 20
42.5743326668
 11
45.0928806643
 21
62.4510865951
  0
LINE
  5
240
100
AcDbEntity
  8
00_COMPONENTS_2
100
AcDbLine
 62
7
  6
BYLAYER
 10
70.5610818764
 20
74.0467924891
 11
69.4475347536
 21
73.4038895955
  0
LINE
  5
241
100
AcDbEntity
  8
00_COMPONENTS_1
100
AcDbLine
 62
7
  6
BYLAYER
 10
49.3299651544
 20
61.7645747079
 11
65.2806210814
 21
66.0384292886
  0
LINE
  5
242
100
AcDbEntity
  8
00_COMPONENTS_1
100
AcDbLine
 62
7
  6
BYLAYER
 10
48.25110566
 20
62.4167690137
 11
64.2116800272
 21
66.6932811635
  0
LINE
  5
243
100
AcDbEntity
  8
00_COMPONENTS_2
100
AcDbLine
 62
7
  6
BYLAYER
 10
52.7677976748
 20
36.5539427094
 11
55.0019458877
 21
29.3608045179
  0
LINE
  5
244
100
AcDbEntity
  8
00_COMPONENTS_1
100
AcDbLine
 62
7
  6
BYLAYER
 10
49.3299651544
 20
61.7645747079
 11
45.2625247893
 21
41.8878207796
  0
LINE
  5
245
100
AcDbEntity
  8
00_COMPONENTS_2
100
AcDbLine
 62
7
  6
BYLAYER
 10
57.9332477116
 20
61.7964466169
 11
72.6652012472
 21
70.3018931857
  0
LINE
  5
246
100
AcDbEntity
  8
00_COMPONENTS_1
100
AcDbLine
 62
7
420
3604575
  6
BYLAYER
 10
27.8465432769
 20
61.2955195756
 11
28.9221472016
 21
61.5837193074
  0
LINE
  5
247
100
AcDbEntity
  8
00_COMPONENTS_1
100
AcDbLine
 62
7
  6
BYLAYER
 10
14.6676462545
 20
80.0167064843
 11
45.0928806643
 21
62.4510865951
  0
LINE
  5
248
100
AcDbEntity
  8
00_COMPONENTS_1
100
AcDbLine
 62
7
  6
BYLAYER
 10
46.132563415
 20
62.7600249573
 11
15.7791713533
 21
80.2841675858
  0
LINE
  5
249
100
AcDbEntity
  8
00_COMPONENTS_2
100
AcDbLine
 62
7
  6
BYLAYER
 10
72.0292906531
 20
48.3522856953
 11
70.9157342579
 21
48.9951832355
  0
LINE
  5
24A
100
AcDbEntity
  8
00_COMPONENTS_2
100
AcDbLine
 62
7
  6
BYLAYER
 10
35.5692990051
 20
69.4019954799
 11
34.9677330711
 21
69.7493018766
  0
LINE
  5
24B
100
AcDbEntity
  8
00_COMPONENTS_2
100
AcDbLine
 62
7
  6
BYLAYER
 10
71.3404899047
 20
49.497938619
 11
69.2972499271
 21
50.6775770831
  0
LINE
  5
24C
100
AcDbEntity
  8
00_COMPONENTS_2
100
AcDbLine
 62
7
  6
BYLAYER
 10
42.9596115799
 20
65.8832756737
 11
39.4740274634
 21
67.8956330761
  0
LINE
  5
24D
100
AcDbEntity
  8
00_COMPONENTS_2
100
AcDbLine
 62
7
  6
BYLAYER
 10
44.1007643199
 20
63.9330581742
 11
42.9596115799
 21
65.8832756737
  0
LINE
  5
24E
100
AcDbEntity
  8
00_COMPONENTS_2
100
AcDbLine
 62
7
  6
BYLAYER
 10
56.1155022829
 20
28.7179069776
 11
53.88135407
 21
35.9110451692
  0
LINE
  5
24F
100
AcDbEntity
  8
00_COMPONENTS_2
100
AcDbLine
 62
7
  6
BYLAYER
 10
59.0468041067
 20
61.1535490767
 11
73.8146785173
 21
69.6797344485
  0
LINE
  5
250
100
AcDbEntity
  8
00_COMPONENTS_2
100
AcDbLine
 62
7
  6
BYLAYER
 10
35.837274525
 20
71.4470655788
 11
36.4207441211
 21
71.1102068712
  0
LINE
  5
251
100
AcDbEntity
  8
00_COMPONENTS_2
100
AcDbLine
 62
7
  6
BYLAYER
 10
71.767179374
 20
50.7033946268
 11
72.8807357691
 21
50.0604970866
  0
LINE
  5
252
100
AcDbEntity
  8
00_COMPONENTS_2
100
AcDbLine
 62
7
  6
BYLAYER
 10
72.8807357691
 20
50.4752803145
 11
71.767179374
 21
51.1181778547
  0
LINE
  5
253
100
AcDbEntity
  8
00_COMPONENTS_2
100
AcDbLine
 62
7
  6
BYLAYER
 10
36.4207441211
 20
71.5249900991
 11
36.0012322061
 21
71.7671899368
  0
LINE
  5
254
100
AcDbEntity
  8
00_COMPONENTS
100
AcDbLine
 62
7
  6
BYLAYER
 10
70.4114720484
 20
52.9178076658
 11
69.2799550662
 21
53.5710745212
  0
LINE
  5
255
100
AcDbEntity
  8
00_COMPONENTS_2
100
AcDbLine
 62
7
  6
BYLAYER
 10
54.0939452966
 20
85.3789622758
 11
54.0939452966
 21
83.3331742479
  0
LINE
  5
256
100
AcDbEntity
  8
00_COMPONENTS_1
100
AcDbLine
 62
7
  6
BYLAYER
 10
49.4979703853
 20
34.935487436
 11
50.8716031029
 21
41.6481511912
  0
LINE
  5
257
100
AcDbEntity
  8
00_COMPONENTS_2
100
AcDbLine
 62
7
  6
BYLAYER
 10
36.9849656976
 20
73.6879114929
 11
37.5134429326
 21
73.3828019215
  0
LINE
  5
258
100
AcDbEntity
  8
00_COMPONENTS_2
100
AcDbLine
 62
7
  6
BYLAYER
 10
72.8297330583
 20
52.9933935807
 11
73.9535671937
 21
52.3445623187
  0
LINE
  5
259
100
AcDbEntity
  8
00_COMPONENTS_2
100
AcDbLine
 62
7
  6
BYLAYER
 10
59.0468041067
 20
61.1535490767
 11
57.9332477116
 21
61.7964466169
  0
LINE
  5
25A
100
AcDbEntity
  8
00_COMPONENTS_2
100
AcDbLine
 62
7
  6
BYLAYER
 10
37.1653145285
 20
74.0400392696
 11
38.0595580101
 21
73.5237592346
  0
LINE
  5
25B
100
AcDbEntity
  8
00_COMPONENTS
100
AcDbLine
 62
7
  6
BYLAYER
 10
35.2577727633
 20
76.0069552126
 11
36.5441000762
 21
75.2643105931
  0
LINE
  5
25C
100
AcDbEntity
  8
00_COMPONENTS_2
100
AcDbLine
 62
7
  6
BYLAYER
 10
55.2074924195
 20
84.7360700888
 11
55.2074924195
 21
83.9760771415
  0
LINE
  5
25D
100
AcDbEntity
  8
00_COMPONENTS_1
100
AcDbLine
 62
7
  6
BYLAYER
 10
50.6115267805
 20
34.2925898958
 11
51.9851594981
 21
41.005253651
  0
LINE
  5
25E
100
AcDbEntity
  8
00_COMPONENTS_2
100
AcDbLine
 62
7
  6
BYLAYER
 10
57.9332477116
 20
61.7964466169
 11
52.7677976748
 21
36.5539427094
  0
LINE
  5
25F
100
AcDbEntity
  8
00_COMPONENTS_2
100
AcDbLine
 62
7
  6
BYLAYER
 10
73.8146785173
 20
60.5130251119
 11
73.4729127448
 21
60.315707729
  0
LINE
  5
260
100
AcDbEntity
  8
00_COMPONENTS
100
AcDbLine
 62
7
  6
BYLAYER
 10
36.8063466801
 20
78.6910716625
 11
38.0934737875
 21
77.9479652919
  0
LINE
  5
261
100
AcDbEntity
  8
00_COMPONENTS_1
100
AcDbLine
 62
7
  6
BYLAYER
 10
31.7030175233
 20
85.4617416118
 11
38.3198055906
 21
80.713210251
  0
LINE
  5
262
100
AcDbEntity
  8
00_COMPONENTS_2
100
AcDbLine
 62
7
  6
BYLAYER
 10
58.4044861811
 20
80.7600785792
 11
58.4044861811
 21
82.8903266363
  0
LINE
  5
263
100
AcDbEntity
  8
00_COMPONENTS_2
100
AcDbLine
 62
7
  6
BYLAYER
 10
53.88135407
 20
35.9110451692
 11
59.0468041067
 21
61.1535490767
  0
LINE
  5
264
100
AcDbEntity
  8
00_COMPONENTS
100
AcDbLine
 62
7
  6
BYLAYER
 10
74.3801547105
 20
59.7919231854
 11
73.2486377283
 21
60.4451900408
  0
LINE
  5
265
100
AcDbEntity
  8
00_COMPONENTS_1
100
AcDbLine
 62
7
  6
BYLAYER
 10
65.3132814717
 20
66.0572856612
 11
64.2116800272
 21
66.6932811635
  0
LINE
  5
266
100
AcDbEntity
  8
00_COMPONENTS_1
100
AcDbLine
 62
7
  6
BYLAYER
 10
30.5894611282
 20
86.104639152
 11
31.7030175233
 21
85.4617416118
  0
LINE
  5
267
100
AcDbEntity
  8
00_COMPONENTS_2
100
AcDbLine
 62
7
  6
BYLAYER
 10
68.6092054149
 20
49.6724700092
 11
57.1394603844
 21
40.307036795
  0
LINE
  5
268
100
AcDbEntity
  8
00_COMPONENTS_1
100
AcDbLine
 62
7
  6
BYLAYER
 10
67.9902810265
 20
49.1670973955
 11
65.6961333974
 21
44.6878163277
  0
LINE
  5
269
100
AcDbEntity
  8
00_COMPONENTS_1
100
AcDbLine
 62
7
  6
BYLAYER
 10
62.1380289778
 20
37.7406828642
 11
60.2533988447
 21
34.0609771782
  0
LINE
  5
26A
100
AcDbEntity
  8
00_COMPONENTS_2
100
AcDbLine
 62
7
  6
BYLAYER
 10
70.9157342579
 20
48.9951832355
 11
56.767170896
 21
37.3193759761
  0
LINE
  5
26B
100
AcDbEntity
  8
00_COMPONENTS_2
100
AcDbLine
 62
7
  6
BYLAYER
 10
57.8807272911
 20
36.6764784359
 11
72.0292906531
 21
48.3522856953
  0
LINE
  5
26C
100
AcDbEntity
  8
00_COMPONENTS_2
100
AcDbLine
 62
7
  6
BYLAYER
 10
73.8146785173
 20
46.8666569139
 11
71.2210967219
 21
45.3692607044
  0
LINE
  5
26D
100
AcDbEntity
  8
00_COMPONENTS_1
100
AcDbLine
 62
7
  6
BYLAYER
 10
31.7030175233
 20
85.4617416118
 11
15.7424431561
 21
81.185229462
  0
LINE
  5
26E
100
AcDbEntity
  8
00_COMPONENTS_2
100
AcDbLine
 62
7
  6
BYLAYER
 10
39.4740274634
 20
90.7087106107
 11
42.6916849839
 21
88.8510372013
  0
LINE
  5
26F
100
AcDbEntity
  8
00_COMPONENTS_2
100
AcDbLine
 62
7
  6
BYLAYER
 10
69.4475347536
 20
73.4038895955
 11
72.665192274
 21
71.5462161861
  0
LINE
  5
270
100
AcDbEntity
  8
00_COMPONENTS_2
100
AcDbLine
 62
7
  6
BYLAYER
 10
40.5516534122
 20
91.3723521346
 11
43.6417556261
 21
89.5883211497
  0
LINE
  5
271
100
AcDbEntity
  8
00_COMPONENTS_2
100
AcDbLine
 62
7
  6
BYLAYER
 10
70.5610818764
 20
74.0467924891
 11
73.8146605709
 21
72.1683804493
  0
LINE
  5
272
100
AcDbEntity
  8
00_COMPONENTS_2
100
AcDbLine
 62
7
  6
BYLAYER
 10
71.767179374
 20
50.7033946268
 11
71.767179374
 21
51.1181778547
  0
LINE
  5
273
100
AcDbEntity
  8
00_COMPONENTS_2
100
AcDbLine
 62
7
  6
BYLAYER
 10
72.665192274
 20
52.8635932646
 11
72.665192274
 21
53.3028814511
  0
LINE
  5
274
100
AcDbEntity
  8
00_COMPONENTS_2
100
AcDbLine
 62
7
  6
BYLAYER
 10
72.665192274
 20
70.3018931857
 11
72.665192274
 21
71.5462161861
  0
LINE
  5
275
100
AcDbEntity
  8
00_COMPONENTS_2
100
AcDbLine
 62
7
  6
BYLAYER
 10
72.8807357691
 20
50.0604970866
 11
72.8807357691
 21
50.4752803145
  0
LINE
  5
276
100
AcDbEntity
  8
00_COMPONENTS_2
100
AcDbLine
 62
7
  6
BYLAYER
 10
70.0352612019
 20
53.1350081856
 11
69.3928981524
 21
50.8862754327
  0
LINE
  5
277
100
AcDbEntity
  8
00_COMPONENTS_2
100
AcDbLine
 62
7
  6
BYLAYER
 10
68.8049064532
 20
42.2394136356
 11
65.7699899781
 21
33.3815314121
  0
LINE
  5
278
100
AcDbEntity
  8
00_COMPONENTS_1
100
AcDbLine
 62
7
  6
BYLAYER
 10
30.5894611282
 20
86.104639152
 11
14.5941898602
 21
81.8188302367
  0
LINE
  5
279
100
AcDbEntity
  8
00_COMPONENTS_2
100
AcDbLine
 62
7
  6
BYLAYER
 10
58.4044861811
 20
82.8903266363
 11
54.0939452966
 21
85.3789622758
  0
LINE
  5
27A
100
AcDbEntity
  8
00_COMPONENTS_2
100
AcDbLine
 62
7
  6
BYLAYER
 10
73.7787393969
 20
60.4922757749
 11
73.7787393969
 21
60.1391426235
  0
LINE
  5
27B
100
AcDbEntity
  8
00_COMPONENTS_2
100
AcDbLine
 62
7
  6
BYLAYER
 10
73.8146785173
 20
46.8666569139
 11
73.8146785173
 21
52.2477283892
  0
LINE
  5
27C
100
AcDbEntity
  8
00_COMPONENTS_2
100
AcDbLine
 62
7
  6
BYLAYER
 10
73.8146785173
 20
60.5130251119
 11
73.8146785173
 21
69.6797344485
  0
LINE
  5
27D
100
AcDbEntity
  8
00_COMPONENTS_2
100
AcDbLine
 62
7
  6
BYLAYER
 10
74.7074080751
 20
48.1109747337
 11
74.7074080751
 21
53.5031566964
  0
LINE
  5
27E
100
AcDbEntity
  8
00_COMPONENTS_2
100
AcDbLine
 62
7
  6
BYLAYER
 10
74.7074080751
 20
61.7573429317
 11
74.7074080751
 21
70.9240522683
  0
ARC
  5
27F
100
AcDbEntity
  8
00_COMPONENTS_2
100
AcDbCircle
 62
7
  6
BYLAYER
 10
64.9458454344
 20
57.1201392553
 40
7.8377223326
100
AcDbArc
 50
303.7553648844
 51
304.0927735215
  0
ARC
  5
280
100
AcDbEntity
  8
00_COMPONENTS_2
100
AcDbCircle
 62
7
  6
BYLAYER
 10
48.3021013221
 20
83.3803270353
 40
7.8344636842
100
AcDbArc
 50
110.6543192768
 51
119.9933103085
  0
ARC
  5
281
100
AcDbEntity
  8
00_COMPONENTS_2
100
AcDbCircle
 62
7
  6
BYLAYER
 10
52.2422861812
 20
79.1988112048
 40
5.3386699005
100
AcDbArc
 50
129.9849377396
 51
134.0480848472
  0
ARC
  5
282
100
AcDbEntity
  8
00_COMPONENTS_1
100
AcDbCircle
 62
7
  6
BYLAYER
 10
24.4939403094
 20
53.6227855841
 40
4.5171245885
100
AcDbArc
 50
166.9279018907
 51
168.426462828
  0
ARC
  5
283
100
AcDbEntity
  8
00_COMPONENTS_1
100
AcDbCircle
 62
7
  6
BYLAYER
 10
57.6104020291
 20
37.5410614611
 40
2.7174664014
100
AcDbArc
 50
99.3830523824
 51
102.3900233568
  0
ARC
  5
284
100
AcDbEntity
  8
00_COMPONENTS_1
100
AcDbCircle
 62
7
  6
BYLAYER
 10
57.5876227788
 20
37.6780176071
 40
2.5786288786
100
AcDbArc
 50
97.6219460505
 51
99.3798095196
  0
ARC
  5
285
100
AcDbEntity
  8
00_COMPONENTS_2
100
AcDbCircle
 62
7
  6
BYLAYER
 10
37.8343518464
 20
72.6021756122
 40
0.8440141976
100
AcDbArc
 50
112.3471517621
 51
127.6526848227
  0
SPLINE
  5
286
100
AcDbEntity
  8
00_COMPONENTS
100
AcDbSpline
 62
7
  6
BYLAYER
 70
0
 71
3
 72
15
 73
11
 74
0
 42
0.0000001
 43
0.0000001
 44
0.0000000001
 40
0.0
 40
0.0
 40
0.0
 40
0.0
 40
0.1080112255
 40
0.218058011
 40
0.3319955869
 40
0.4513561993
 40
0.5772640822
 40
0.7104887085
 40
0.8514449003
 40
1.0
 40
1.0
 40
1.0
 40
1.0
 10
38.093471182
 20
77.9479607864
 30
0.0
 10
38.118874252
 20
77.933294711
 30
0.0
 10
38.1677190586
 20
77.8992201914
 30
0.0
 10
38.2322491783
 20
77.8357041373
 30
0.0
 10
38.2877542047
 20
77.7603258485
 30
0.0
 10
38.3337063715
 20
77.6739245699
 30
0.0
 10
38.369761315
 20
77.5773861237
 30
0.0
 10
38.3956377751
 20
77.4716286891
 30
0.0
 10
38.4111124418
 20
77.3576912803
 30
0.0
 10
38.4143736172
 20
77.2790147261
 30
0.0
 10
38.4143736172
 20
77.2386714345
 30
0.0
  0
SPLINE
  5
287
100
AcDbEntity
  8
00_COMPONENTS
100
AcDbSpline
 62
7
  6
BYLAYER
 70
0
 71
3
 72
25
 73
21
 74
0
 42
0.0000001
 43
0.0000001
 44
0.0000000001
 40
0.0
 40
0.0
 40
0.0
 40
0.0
 40
0.062379308
 40
0.1287252122
 40
0.1983148427
 40
0.2702920321
 40
0.3436682143
 40
0.4174008515
 40
0.4904261473
 40
0.5617130962
 40
0.6303102736
 40
0.6953975517
 40
0.7563449258
 40
0.8127821967
 40
0.8646827512
 40
0.9124574577
 40
0.9351019825
 40
0.9571073063
 40
0.9786678736
 40
1.0
 40
1.0
 40
1.0
 40
1.0
 10
38.4143736172
 20
77.2386714345
 30
0.0
 10
38.4143736172
 20
77.1743970704
 30
0.0
 10
38.4056615048
 20
77.0416731459
 30
0.0
 10
38.3698355344
 20
76.8401525918
 30
0.0
 10
38.3115692273
 20
76.6336576257
 30
0.0
 10
38.23213964
 20
76.4266096655
 30
0.0
 10
38.1332149545
 20
76.223391541
 30
0.0
 10
38.0169157012
 20
76.0283394068
 30
0.0
 10
37.8857162966
 20
75.8456152073
 30
0.0
 10
37.7424147545
 20
75.6791147726
 30
0.0
 10
37.5900530042
 20
75.5323768022
 30
0.0
 10
37.4318360176
 20
75.4085111086
 30
0.0
 10
37.2710538706
 20
75.3101405511
 30
0.0
 10
37.1109539438
 20
75.2393873198
 30
0.0
 10
36.9547819111
 20
75.1978752143
 30
0.0
 10
36.8281172033
 20
75.1885777529
 30
0.0
 10
36.7331169743
 20
75.1974917068
 30
0.0
 10
36.6662316377
 20
75.211759855
 30
0.0
 10
36.6028729856
 20
75.2336533531
 30
0.0
 10
36.5631382099
 20
75.2533252264
 30
0.0
 10
36.5441026817
 20
75.2643150986
 30
0.0
  0
SPLINE
  5
288
100
AcDbEntity
  8
00_COMPONENTS
100
AcDbSpline
 62
7
  6
BYLAYER
 70
0
 71
3
 72
25
 73
21
 74
0
 42
0.0000001
 43
0.0000001
 44
0.0000000001
 40
0.0
 40
0.0
 40
0.0
 40
0.0
 40
0.062379308
 40
0.1287252122
 40
0.1983148427
 40
0.2702920321
 40
0.3436682143
 40
0.4174008515
 40
0.4904261473
 40
0.5617130962
 40
0.6303102736
 40
0.6953975517
 40
0.7563449258
 40
0.8127821967
 40
0.8646827512
 40
0.9124574577
 40
0.9351019825
 40
0.9571073063
 40
0.9786678736
 40
1.0
 40
1.0
 40
1.0
 40
1.0
 10
36.2232002465
 20
75.9736044505
 30
0.0
 10
36.2232002465
 20
76.0378788146
 30
0.0
 10
36.2319123589
 20
76.1706027391
 30
0.0
 10
36.2677383293
 20
76.3721232932
 30
0.0
 10
36.3260046364
 20
76.5786182593
 30
0.0
 10
36.4054342237
 20
76.7856662195
 30
0.0
 10
36.5043589092
 20
76.988884344
 30
0.0
 10
36.6206581625
 20
77.1839364782
 30
0.0
 10
36.7518575671
 20
77.3666606777
 30
0.0
 10
36.8951591092
 20
77.5331611124
 30
0.0
 10
37.0475208595
 20
77.6798990828
 30
0.0
 10
37.2057378461
 20
77.8037647764
 30
0.0
 10
37.3665199931
 20
77.9021353339
 30
0.0
 10
37.5266199199
 20
77.9728885652
 30
0.0
 10
37.6827919526
 20
78.0144006707
 30
0.0
 10
37.8094566604
 20
78.0236981321
 30
0.0
 10
37.9044568894
 20
78.0147841782
 30
0.0
 10
37.971342226
 20
78.00051603
 30
0.0
 10
38.0347008781
 20
77.9786225319
 30
0.0
 10
38.0744356538
 20
77.9589506586
 30
0.0
 10
38.093471182
 20
77.9479607864
 30
0.0
  0
SPLINE
  5
289
100
AcDbEntity
  8
00_COMPONENTS
100
AcDbSpline
 62
7
  6
BYLAYER
 70
0
 71
3
 72
15
 73
11
 74
0
 42
0.0000001
 43
0.0000001
 44
0.0000000001
 40
0.0
 40
0.0
 40
0.0
 40
0.0
 40
0.1080112255
 40
0.218058011
 40
0.3319955869
 40
0.4513561993
 40
0.5772640822
 40
0.7104887085
 40
0.8514449003
 40
1.0
 40
1.0
 40
1.0
 40
1.0
 10
36.5441026817
 20
75.2643150986
 30
0.0
 10
36.5186996117
 20
75.278981174
 30
0.0
 10
36.4698548051
 20
75.3130556937
 30
0.0
 10
36.4053246854
 20
75.3765717477
 30
0.0
 10
36.349819659
 20
75.4519500365
 30
0.0
 10
36.3038674922
 20
75.5383513151
 30
0.0
 10
36.2678125487
 20
75.6348897613
 30
0.0
 10
36.2419360886
 20
75.7406471959
 30
0.0
 10
36.2264614219
 20
75.8545846047
 30
0.0
 10
36.2232002465
 20
75.9332611589
 30
0.0
 10
36.2232002465
 20
75.9736044505
 30
0.0
  0
SPLINE
  5
28A
100
AcDbEntity
  8
00_COMPONENTS
100
AcDbSpline
 62
7
  6
BYLAYER
 70
0
 71
3
 72
27
 73
23
 74
0
 42
0.0000001
 43
0.0000001
 44
0.0000000001
 40
0.0
 40
0.0
 40
0.0
 40
0.0
 40
0.0623775111
 40
0.128708558
 40
0.1982939953
 40
0.2702624501
 40
0.3436318177
 40
0.4173554416
 40
0.4903717373
 40
0.5616503104
 40
0.6302400448
 40
0.6953205805
 40
0.7562616073
 40
0.8126928772
 40
0.839215696
 40
0.8646358051
 40
0.8890201746
 40
0.9124669154
 40
0.9351092866
 40
0.9571121202
 40
0.9786702999
 40
1.0
 40
1.0
 40
1.0
 40
1.0
 10
75.2021317334
 20
57.9750844113
 30
0.0
 10
75.2021317334
 20
57.8104338353
 30
0.0
 10
75.1798272969
 20
57.4704700194
 30
0.0
 10
75.0880387319
 20
56.9542815535
 30
0.0
 10
74.9388168375
 20
56.4253562508
 30
0.0
 10
74.7353421968
 20
55.895003059
 30
0.0
 10
74.481953414
 20
55.3744645167
 30
0.0
 10
74.1840510195
 20
54.8748475945
 30
0.0
 10
73.8479923745
 20
54.40680876
 30
0.0
 10
73.4809329605
 20
53.9803216376
 30
0.0
 10
73.0906690408
 20
53.6044558189
 30
0.0
 10
72.6853829625
 20
53.287166512
 30
0.0
 10
72.2735946225
 20
53.0352191635
 30
0.0
 10
71.9248169017
 20
52.8810786705
 30
0.0
 10
71.6509249851
 20
52.7975113757
 30
0.0
 10
71.4536254055
 20
52.7553915457
 30
0.0
 10
71.2612958644
 20
52.7327641848
 30
0.0
 10
71.0749541888
 20
52.7298376054
 30
0.0
 10
70.8956242978
 20
52.74664261
 30
0.0
 10
70.7243070962
 20
52.7831962337
 30
0.0
 10
70.562016129
 20
52.8392803962
 30
0.0
 10
70.4602336894
 20
52.889662308
 30
0.0
 10
70.4114748136
 20
52.9178124567
 30
0.0
  0
SPLINE
  5
28B
100
AcDbEntity
  8
00_COMPONENTS
100
AcDbSpline
 62
7
  6
BYLAYER
 70
0
 71
3
 72
15
 73
11
 74
0
 42
0.0000001
 43
0.0000001
 44
0.0000000001
 40
0.0
 40
0.0
 40
0.0
 40
0.0
 40
0.1485853349
 40
0.2895082928
 40
0.4227232442
 40
0.5486425325
 40
0.6680013635
 40
0.7819384104
 40
0.8919874563
 40
1.0
 40
1.0
 40
1.0
 40
1.0
 10
68.4579780433
 20
55.3879132953
 30
0.0
 10
68.4579780433
 20
55.2845537362
 30
0.0
 10
68.4663131665
 20
55.0830260144
 30
0.0
 10
68.5059795012
 20
54.7911899918
 30
0.0
 10
68.5722491548
 20
54.5203155088
 30
0.0
 10
68.6645929285
 20
54.2730293565
 30
0.0
 10
68.782307448
 20
54.0517124252
 30
0.0
 10
68.9244740068
 20
53.8586254149
 30
0.0
 10
69.0897791605
 20
53.6959407573
 30
0.0
 10
69.2148875834
 20
53.6086466211
 30
0.0
 10
69.2799578114
 20
53.571079277
 30
0.0
  0
SPLINE
  5
28C
100
AcDbEntity
  8
00_COMPONENTS
100
AcDbSpline
 62
7
  6
BYLAYER
 70
0
 71
3
 72
27
 73
23
 74
0
 42
0.0000001
 43
0.0000001
 44
0.0000000001
 40
0.0
 40
0.0
 40
0.0
 40
0.0
 40
0.0213297434
 40
0.042887959
 40
0.0648908181
 40
0.0875332103
 40
0.1109799762
 40
0.1353643791
 40
0.1607845318
 40
0.1873073982
 40
0.2437387379
 40
0.3046797292
 40
0.3697601235
 40
0.4383496883
 40
0.5096281132
 40
0.5826442298
 40
0.6563676124
 40
0.7297368176
 40
0.8017053361
 40
0.8712909771
 40
0.9376223202
 40
1.0
 40
1.0
 40
1.0
 40
1.0
 10
73.2486349832
 20
60.445185285
 30
0.0
 10
73.1998760407
 20
60.473335547
 30
0.0
 10
73.0980933684
 20
60.5237174783
 30
0.0
 10
72.9358021281
 20
60.5798016919
 30
0.0
 10
72.7644846833
 20
60.6163552277
 30
0.0
 10
72.5851545982
 20
60.6331602044
 30
0.0
 10
72.3988127146
 20
60.6302334211
 30
0.0
 10
72.2064829144
 20
60.6076059608
 30
0.0
 10
72.0091830527
 20
60.5654858613
 30
0.0
 10
71.7352907842
 20
60.4819182654
 30
0.0
 10
71.3865129936
 20
60.3277773829
 30
0.0
 10
70.9747250489
 20
60.0758299428
 30
0.0
 10
70.5694398137
 20
59.7585410499
 30
0.0
 10
70.1791768116
 20
59.3826760326
 30
0.0
 10
69.81211822
 20
58.9561899372
 30
0.0
 10
69.4760603171
 20
58.4881524213
 30
0.0
 10
69.1781584633
 20
57.9885369744
 30
0.0
 10
68.9247696649
 20
57.4679994388
 30
0.0
 10
68.7212945298
 20
56.9376461409
 30
0.0
 10
68.5720717195
 20
56.4087195417
 30
0.0
 10
68.4802826776
 20
55.8925293563
 30
0.0
 10
68.4579780433
 20
55.5525643171
 30
0.0
 10
68.4579780433
 20
55.3879132953
 30
0.0
  0
SPLINE
  5
28D
100
AcDbEntity
  8
00_COMPONENTS
100
AcDbSpline
 62
7
  6
BYLAYER
 70
0
 71
3
 72
15
 73
11
 74
0
 42
0.0000001
 43
0.0000001
 44
0.0000000001
 40
0.0
 40
0.0
 40
0.0
 40
0.0
 40
0.1080120717
 40
0.2180607277
 40
0.3319976187
 40
0.4513565302
 40
0.5772758939
 40
0.7104911396
 40
0.8514146524
 40
1.0
 40
1.0
 40
1.0
 40
1.0
 10
74.3801519453
 20
59.7919183945
 30
0.0
 10
74.4452219299
 20
59.7543512908
 30
0.0
 10
74.5703296461
 20
59.6670572192
 30
0.0
 10
74.7356347526
 20
59.5043735903
 30
0.0
 10
74.8778012411
 20
59.3112868913
 30
0.0
 10
74.9955157969
 20
59.0899700178
 30
0.0
 10
75.0878602621
 20
58.8426837983
 30
0.0
 10
75.1541301042
 20
58.5718086855
 30
0.0
 10
75.1937964748
 20
58.2799720805
 30
0.0
 10
75.2021317334
 20
58.0784439756
 30
0.0
 10
75.2021317334
 20
57.9750844113
 30
0.0
  0
SPLINE
  5
28E
100
AcDbEntity
  8
00_COMPONENTS
100
AcDbSpline
 62
7
  6
BYLAYER
 70
0
 71
3
 72
27
 73
23
 74
0
 42
0.0000001
 43
0.0000001
 44
0.0000000001
 40
0.0
 40
0.0
 40
0.0
 40
0.0
 40
0.0623775111
 40
0.128708558
 40
0.1982939953
 40
0.2702624501
 40
0.3436318177
 40
0.4173554416
 40
0.4903717373
 40
0.5616503104
 40
0.6302400448
 40
0.6953205805
 40
0.7562616073
 40
0.8126928772
 40
0.839215696
 40
0.8646358051
 40
0.8890201746
 40
0.9124669154
 40
0.9351092866
 40
0.9571121202
 40
0.9786702999
 40
1.0
 40
1.0
 40
1.0
 40
1.0
 10
69.5894950255
 20
54.7346464399
 30
0.0
 10
69.5894950255
 20
54.899297016
 30
0.0
 10
69.611799462
 20
55.2392608318
 30
0.0
 10
69.703588027
 20
55.7554492978
 30
0.0
 10
69.8528099214
 20
56.2843746005
 30
0.0
 10
70.056284562
 20
56.8147277923
 30
0.0
 10
70.3096733449
 20
57.3352663345
 30
0.0
 10
70.6075757394
 20
57.8348832567
 30
0.0
 10
70.9436343844
 20
58.3029220913
 30
0.0
 10
71.3106937984
 20
58.7294092136
 30
0.0
 10
71.700957718
 20
59.1052750324
 30
0.0
 10
72.1062437964
 20
59.4225643392
 30
0.0
 10
72.5180321364
 20
59.6745116877
 30
0.0
 10
72.8668098572
 20
59.8286521807
 30
0.0
 10
73.1407017738
 20
59.9122194755
 30
0.0
 10
73.3380013533
 20
59.9543393055
 30
0.0
 10
73.5303308945
 20
59.9769666665
 30
0.0
 10
73.7166725701
 20
59.9798932458
 30
0.0
 10
73.896002461
 20
59.9630882412
 30
0.0
 10
74.0673196626
 20
59.9265346175
 30
0.0
 10
74.2296106299
 20
59.870450455
 30
0.0
 10
74.3313930694
 20
59.8200685433
 30
0.0
 10
74.3801519453
 20
59.7919183945
 30
0.0
  0
SPLINE
  5
28F
100
AcDbEntity
  8
00_COMPONENTS
100
AcDbSpline
 62
7
  6
BYLAYER
 70
0
 71
3
 72
15
 73
11
 74
0
 42
0.0000001
 43
0.0000001
 44
0.0000000001
 40
0.0
 40
0.0
 40
0.0
 40
0.0
 40
0.1080120717
 40
0.2180607277
 40
0.3319976187
 40
0.4513565302
 40
0.5772758939
 40
0.7104911396
 40
0.8514146524
 40
1.0
 40
1.0
 40
1.0
 40
1.0
 10
70.4114748136
 20
52.9178124567
 30
0.0
 10
70.346404829
 20
52.9553795604
 30
0.0
 10
70.2212971127
 20
53.042673632
 30
0.0
 10
70.0559920062
 20
53.2053572609
 30
0.0
 10
69.9138255178
 20
53.39844396
 30
0.0
 10
69.796110962
 20
53.6197608335
 30
0.0
 10
69.7037664968
 20
53.8670470529
 30
0.0
 10
69.6374966547
 20
54.1379221658
 30
0.0
 10
69.5978302841
 20
54.4297587707
 30
0.0
 10
69.5894950255
 20
54.6312868756
 30
0.0
 10
69.5894950255
 20
54.7346464399
 30
0.0
  0
SPLINE
  5
290
100
AcDbEntity
  8
00_COMPONENTS_2
100
AcDbSpline
 62
7
  6
BYLAYER
 70
0
 71
3
 72
23
 73
19
 74
0
 42
0.0000001
 43
0.0000001
 44
0.0000000001
 40
0.0
 40
0.0
 40
0.0
 40
0.0
 40
0.07587295
 40
0.1520389877
 40
0.2278710354
 40
0.3028069965
 40
0.3762776398
 40
0.4477570418
 40
0.516771456
 40
0.5829141883
 40
0.6458669162
 40
0.7054218532
 40
0.7615060225
 40
0.8142086712
 40
0.8638101598
 40
0.9108058687
 40
0.955903665
 40
1.0
 40
1.0
 40
1.0
 40
1.0
 10
70.5610818764
 20
74.0467924891
 30
0.0
 10
70.2102995041
 20
74.8080176338
 30
0.0
 10
69.4586267758
 20
76.3114441534
 30
0.0
 10
68.1942816805
 20
78.4899335821
 30
0.0
 10
66.8022892734
 20
80.5768783361
 30
0.0
 10
65.2991132105
 20
82.5479412186
 30
0.0
 10
63.7018943677
 20
84.3804246458
 30
0.0
 10
62.0291455189
 20
86.0531391059
 30
0.0
 10
60.3001167225
 20
87.5468156363
 30
0.0
 10
58.5345865961
 20
88.8442127951
 30
0.0
 10
56.7526383005
 20
89.9303304994
 30
0.0
 10
54.9743974962
 20
90.7925831657
 30
0.0
 10
53.2197334332
 20
91.4207182702
 30
0.0
 10
51.5081030656
 20
91.8067076599
 30
0.0
 10
49.8586657781
 20
91.9447314033
 30
0.0
 10
48.2903551783
 20
91.8309901794
 30
0.0
 10
46.8232108226
 20
91.4649446057
 30
0.0
 10
45.921069626
 20
91.0521018913
 30
0.0
 10
45.499208814
 20
90.8085318148
 30
0.0
  0
SPLINE
  5
291
100
AcDbEntity
  8
00_COMPONENTS_2
100
AcDbSpline
 62
7
  6
BYLAYER
 70
0
 71
3
 72
15
 73
11
 74
0
 42
0.0000001
 43
0.0000001
 44
0.0000000001
 40
0.0
 40
0.0
 40
0.0
 40
0.0
 40
0.1304139749
 40
0.2619970875
 40
0.3933249512
 40
0.522996363
 40
0.6496642896
 40
0.7720716698
 40
0.8891582004
 40
1.0
 40
1.0
 40
1.0
 40
1.0
 10
51.5009839145
 20
63.2420381316
 30
0.0
 10
51.1086289146
 20
63.7487349188
 30
0.0
 10
50.3590759768
 20
64.7972225551
 30
0.0
 10
49.3527784892
 20
66.4492807904
 30
0.0
 10
48.4714386237
 20
68.1672912974
 30
0.0
 10
47.729188635
 20
69.923665322
 30
0.0
 10
47.1379071733
 20
71.6904030393
 30
0.0
 10
46.7068528496
 20
73.4395562242
 30
0.0
 10
46.4431829405
 20
75.1430604577
 30
0.0
 10
46.3798638998
 20
76.2636923169
 30
0.0
 10
46.3798638998
 20
76.8083622102
 30
0.0
  0
SPLINE
  5
292
100
AcDbEntity
  8
00_COMPONENTS_2
100
AcDbSpline
 62
7
  6
BYLAYER
 70
0
 71
3
 72
14
 73
10
 74
0
 42
0.0000001
 43
0.0000001
 44
0.0000000001
 40
0.0
 40
0.0
 40
0.0
 40
0.0
 40
0.144981985
 40
0.2839502508
 40
0.5432576522
 40
0.6643711914
 40
0.7803420997
 40
0.8919005536
 40
1.0
 40
1.0
 40
1.0
 40
1.0
 10
46.3798638998
 20
76.8083622102
 30
0.0
 10
46.3798638998
 20
77.1350906955
 30
0.0
 10
46.4016837085
 20
77.775386608
 30
0.0
 10
46.5351477972
 20
78.99294737
 30
0.0
 10
46.8031931246
 20
80.1402868228
 30
0.0
 10
47.2197505005
 20
81.1803929385
 30
0.0
 10
47.5898787858
 20
81.8754294749
 30
0.0
 10
48.0226001195
 20
82.49794872
 30
0.0
 10
48.355401027
 20
82.8666574592
 30
0.0
 10
48.53051281
 20
83.0360152322
 30
0.0
  0
SPLINE
  5
293
100
AcDbEntity
  8
00_COMPONENTS_2
100
AcDbSpline
 62
7
  6
BYLAYER
 70
0
 71
3
 72
15
 73
11
 74
0
 42
0.0000001
 43
0.0000001
 44
0.0000000001
 40
0.0
 40
0.0
 40
0.0
 40
0.0
 40
0.1141231812
 40
0.2373468278
 40
0.366971913
 40
0.4999994099
 40
0.6330269884
 40
0.76265231
 40
0.885876356
 40
1.0
 40
1.0
 40
1.0
 40
1.0
 10
37.3187659944
 20
81.5419960935
 30
0.0
 10
37.39251765
 20
81.5845763775
 30
0.0
 10
37.5538599302
 20
81.6596710523
 30
0.0
 10
37.8165360695
 20
81.7395604391
 30
0.0
 10
38.1009726788
 20
81.7886754475
 30
0.0
 10
38.396394763
 20
81.8052863674
 30
0.0
 10
38.6918171034
 20
81.7886768834
 30
0.0
 10
38.9762544907
 20
81.7395632459
 30
0.0
 10
39.2389318513
 20
81.6596750765
 30
0.0
 10
39.4002752016
 20
81.584581199
 30
0.0
 10
39.4740274634
 20
81.5420012741
 30
0.0
  0
SPLINE
  5
294
100
AcDbEntity
  8
00_COMPONENTS_2
100
AcDbSpline
 62
7
  6
BYLAYER
 70
0
 71
3
 72
13
 73
9
 74
0
 42
0.0000001
 43
0.0000001
 44
0.0000000001
 40
0.0
 40
0.0
 40
0.0
 40
0.0
 40
0.2780382181
 40
0.5334378585
 40
0.654276093
 40
0.7715857535
 40
0.8864269297
 40
1.0
 40
1.0
 40
1.0
 40
1.0
 10
54.0939452966
 20
83.3331742479
 30
0.0
 10
53.5845634276
 20
83.5178492027
 30
0.0
 10
52.5780115485
 20
83.7993256982
 30
0.0
 10
51.2977320335
 20
83.9074289226
 30
0.0
 10
50.3374731744
 20
83.8253837432
 30
0.0
 10
49.6620819448
 20
83.6859022971
 30
0.0
 10
49.0228245107
 20
83.4677390436
 30
0.0
 10
48.6222763699
 20
83.2702049428
 30
0.0
 10
48.4305998903
 20
83.1595486192
 30
0.0
  0
SPLINE
  5
295
100
AcDbEntity
  8
00_COMPONENTS_2
100
AcDbSpline
 62
7
  6
BYLAYER
 70
0
 71
3
 72
15
 73
11
 74
0
 42
0.0000001
 43
0.0000001
 44
0.0000000001
 40
0.0
 40
0.0
 40
0.0
 40
0.0
 40
0.1196119036
 40
0.2439338533
 40
0.3714732144
 40
0.5006138949
 40
0.629674369
 40
0.7569721487
 40
0.8809070082
 40
1.0
 40
1.0
 40
1.0
 40
1.0
 10
66.5852226309
 20
66.7168695597
 30
0.0
 10
66.4667620215
 20
67.3660742447
 30
0.0
 10
66.1580266046
 20
68.6784769644
 30
0.0
 10
65.5103003535
 20
70.6254734244
 30
0.0
 10
64.6796255107
 20
72.5591146348
 30
0.0
 10
63.6822009428
 20
74.4417315335
 30
0.0
 10
62.5373016525
 20
76.2369048024
 30
0.0
 10
61.2670690172
 20
77.9099588939
 30
0.0
 10
59.8962339374
 20
79.4282812427
 30
0.0
 10
58.9093520271
 20
80.3395554997
 30
0.0
 10
58.4044861811
 20
80.7600785792
 30
0.0
  0
SPLINE
  5
296
100
AcDbEntity
  8
00_COMPONENTS_2
100
AcDbSpline
 62
7
  6
BYLAYER
 70
0
 71
3
 72
15
 73
11
 74
0
 42
0.0000001
 43
0.0000001
 44
0.0000000001
 40
0.0
 40
0.0
 40
0.0
 40
0.0
 40
0.1141231812
 40
0.2373468278
 40
0.366971913
 40
0.4999994099
 40
0.6330269884
 40
0.76265231
 40
0.885876356
 40
1.0
 40
1.0
 40
1.0
 40
1.0
 10
37.3187659944
 20
67.8956278955
 30
0.0
 10
37.39251765
 20
67.9382081796
 30
0.0
 10
37.5538599302
 20
68.0133028543
 30
0.0
 10
37.8165360695
 20
68.0931922411
 30
0.0
 10
38.1009726788
 20
68.1423072495
 30
0.0
 10
38.396394763
 20
68.1589181694
 30
0.0
 10
38.6918171034
 20
68.1423086855
 30
0.0
 10
38.9762544907
 20
68.0931950479
 30
0.0
 10
39.2389318513
 20
68.0133068785
 30
0.0
 10
39.4002752016
 20
67.938213001
 30
0.0
 10
39.4740274634
 20
67.8956330761
 30
0.0
  0
SPLINE
  5
297
100
AcDbEntity
  8
00_COMPONENTS_2
100
AcDbSpline
 62
7
  6
BYLAYER
 70
0
 71
3
 72
17
 73
13
 74
0
 42
0.0000001
 43
0.0000001
 44
0.0000000001
 40
0.0
 40
0.0
 40
0.0
 40
0.0
 40
0.1570371879
 40
0.306779277
 40
0.447238224
 40
0.5770652687
 40
0.6957919641
 40
0.8041157762
 40
0.8550762288
 40
0.904365073
 40
0.9524843727
 40
1.0
 40
1.0
 40
1.0
 40
1.0
 10
27.1354175318
 20
50.557717927
 30
0.0
 10
26.8950963925
 20
50.2674123925
 30
0.0
 10
26.3980881898
 20
49.7222697868
 30
0.0
 10
25.5942311179
 20
49.0078862284
 30
0.0
 10
24.7654593478
 20
48.4294702295
 30
0.0
 10
23.9317958417
 20
48.0017663882
 30
0.0
 10
23.1132323927
 20
47.7359957765
 30
0.0
 10
22.4451868946
 20
47.6554655866
 30
0.0
 10
21.9443395345
 20
47.6842552386
 30
0.0
 10
21.5932026392
 20
47.7491783298
 30
0.0
 10
21.2615982403
 20
47.8573840972
 30
0.0
 10
21.054524492
 20
47.9583830349
 30
0.0
 10
20.95577439
 20
48.0154066481
 30
0.0
  0
SPLINE
  5
298
100
AcDbEntity
  8
00_COMPONENTS_2
100
AcDbSpline
 62
7
  6
BYLAYER
 70
0
 71
3
 72
14
 73
10
 74
0
 42
0.0000001
 43
0.0000001
 44
0.0000000001
 40
0.0
 40
0.0
 40
0.0
 40
0.0
 40
0.1080448767
 40
0.2181302039
 40
0.3321100719
 40
0.4514927985
 40
0.5774386711
 40
0.7107395444
 40
1.0
 40
1.0
 40
1.0
 40
1.0
 10
63.5751368992
 20
37.6342815307
 30
0.0
 10
63.4939299895
 20
37.681154505
 30
0.0
 10
63.3215292248
 20
37.7619044835
 30
0.0
 10
63.0425526472
 20
37.8390408865
 30
0.0
 10
62.7451694799
 20
37.872176529
 30
0.0
 10
62.4325555005
 20
37.8613633613
 30
0.0
 10
62.107637079
 20
37.8068437167
 30
0.0
 10
61.6498845241
 20
37.6733598224
 30
0.0
 10
61.3160845489
 20
37.5144997719
 30
0.0
 10
61.0986887919
 20
37.3889870223
 30
0.0
  0
SPLINE
  5
299
100
AcDbEntity
  8
00_COMPONENTS_2
100
AcDbSpline
 62
7
  6
BYLAYER
 70
0
 71
3
 72
21
 73
17
 74
0
 42
0.0000001
 43
0.0000001
 44
0.0000000001
 40
0.0
 40
0.0
 40
0.0
 40
0.0
 40
0.0448432053
 40
0.0929687483
 40
0.1448838008
 40
0.2007559112
 40
0.2604722192
 40
0.3237025736
 40
0.3899385056
 40
0.4585461467
 40
0.5997979676
 40
0.7411939294
 40
0.8099732586
 40
0.8764391899
 40
0.9399812034
 40
1.0
 40
1.0
 40
1.0
 40
1.0
 10
62.9911341448
 20
37.7984959129
 30
0.0
 10
63.0725017582
 20
37.6883372244
 30
0.0
 10
63.2172722261
 20
37.4416544727
 30
0.0
 10
63.3701817893
 20
37.0244340189
 30
0.0
 10
63.4639275006
 20
36.5559158058
 30
0.0
 10
63.4973934928
 20
36.0441847788
 30
0.0
 10
63.4704665151
 20
35.4976810861
 30
0.0
 10
63.3836232836
 20
34.9255909746
 30
0.0
 10
63.2384906434
 20
34.337524718
 30
0.0
 10
62.9679742562
 20
33.5380323174
 30
0.0
 10
62.5035772473
 20
32.5660551866
 30
0.0
 10
61.8995226023
 20
31.6735325831
 30
0.0
 10
61.3458663384
 20
31.0342979039
 30
0.0
 10
60.9107838232
 20
30.6097379431
 30
0.0
 10
60.4597603107
 20
30.243261336
 30
0.0
 10
60.1438728762
 20
30.03525993
 30
0.0
 10
59.9851323968
 20
29.9436116185
 30
0.0
  0
SPLINE
  5
29A
100
AcDbEntity
  8
00_COMPONENTS_2
100
AcDbSpline
 62
7
  6
BYLAYER
 70
0
 71
3
 72
15
 73
11
 74
0
 42
0.0000001
 43
0.0000001
 44
0.0000000001
 40
0.0
 40
0.0
 40
0.0
 40
0.0
 40
0.1141464977
 40
0.2373352781
 40
0.3669759338
 40
0.4999994786
 40
0.633023096
 40
0.7626639634
 40
0.8858530776
 40
1.0
 40
1.0
 40
1.0
 40
1.0
 10
36.2411304741
 20
91.3723417733
 30
0.0
 10
36.3886642658
 20
91.4575199392
 30
0.0
 10
36.7113158862
 20
91.6077453106
 30
0.0
 10
37.236695456
 20
91.7674630903
 30
0.0
 10
37.8055293102
 20
91.8657162971
 30
0.0
 10
38.3963883085
 20
91.8989072444
 30
0.0
 10
38.9872477791
 20
91.8657191014
 30
0.0
 10
39.5560830287
 20
91.7674685956
 30
0.0
 10
40.0814648604
 20
91.6077533133
 30
0.0
 10
40.4041184574
 20
91.4575295535
 30
0.0
 10
40.5516534122
 20
91.3723521346
 30
0.0
  0
SPLINE
  5
29B
100
AcDbEntity
  8
00_COMPONENTS_2
100
AcDbSpline
 62
7
  6
BYLAYER
 70
0
 71
3
 72
12
 73
8
 74
0
 42
0.0000001
 43
0.0000001
 44
0.0000000001
 40
0.0
 40
0.0
 40
0.0
 40
0.0
 40
0.2895581804
 40
0.5486557816
 40
0.7816338325
 40
0.891839914
 40
1.0
 40
1.0
 40
1.0
 40
1.0
 10
73.8146605709
 20
72.1683804493
 30
0.0
 10
73.9484396896
 20
72.0911447864
 30
0.0
 10
74.191107946
 20
71.9239828624
 30
0.0
 10
74.4810808091
 20
71.6194913747
 30
0.0
 10
74.6366801056
 20
71.3324939484
 30
0.0
 10
74.6973797544
 20
71.0984936945
 30
0.0
 10
74.7073856691
 20
70.9817536786
 30
0.0
 10
74.7073856699
 20
70.9240522683
 30
0.0
  0
SPLINE
  5
29C
100
AcDbEntity
  8
00_COMPONENTS_2
100
AcDbSpline
 62
7
  6
BYLAYER
 70
0
 71
3
 72
11
 73
7
 74
0
 42
0.0000001
 43
0.0000001
 44
0.0000000001
 40
0.0
 40
0.0
 40
0.0
 40
0.0
 40
0.2897048043
 40
0.5490913404
 40
0.7822177947
 40
1.0
 40
1.0
 40
1.0
 40
1.0
 10
72.6652012472
 20
70.3018931857
 30
0.0
 10
72.7320722525
 20
70.3405009482
 30
0.0
 10
72.8533931131
 20
70.4240630137
 30
0.0
 10
72.9983884444
 20
70.5764465004
 30
0.0
 10
73.0901077374
 20
70.7450195562
 30
0.0
 10
73.1115584323
 20
70.8660059661
 30
0.0
 10
73.1115584215
 20
70.9240520956
 30
0.0
  0
SPLINE
  5
29D
100
AcDbEntity
  8
00_COMPONENTS_2
100
AcDbSpline
 62
7
  6
BYLAYER
 70
0
 71
3
 72
12
 73
8
 74
0
 42
0.0000001
 43
0.0000001
 44
0.0000000001
 40
0.0
 40
0.0
 40
0.0
 40
0.0
 40
0.2895577052
 40
0.5486551371
 40
0.7816333826
 40
0.8918396704
 40
1.0
 40
1.0
 40
1.0
 40
1.0
 10
73.8146785173
 20
60.5130251119
 30
0.0
 10
73.9484551343
 20
60.5902606167
 30
0.0
 10
74.1911187857
 20
60.7574218997
 30
0.0
 10
74.4810857587
 20
61.06191114
 30
0.0
 10
74.6366816437
 20
61.3489056784
 30
0.0
 10
74.6973799725
 20
61.5829033889
 30
0.0
 10
74.7073856706
 20
61.6996421356
 30
0.0
 10
74.7073856699
 20
61.7573429317
 30
0.0
  0
SPLINE
  5
29E
100
AcDbEntity
  8
00_COMPONENTS_2
100
AcDbSpline
 62
7
  6
BYLAYER
 70
0
 71
3
 72
11
 73
7
 74
0
 42
0.0000001
 43
0.0000001
 44
0.0000000001
 40
0.0
 40
0.0
 40
0.0
 40
0.0
 40
0.2791171284
 40
0.5353399159
 40
0.7728373249
 40
1.0
 40
1.0
 40
1.0
 40
1.0
 10
72.8297330583
 20
52.9933935807
 30
0.0
 10
72.8731495766
 20
53.0286577013
 30
0.0
 10
72.9514523251
 20
53.1028851103
 30
0.0
 10
73.0424997024
 20
53.2295255727
 30
0.0
 10
73.0987311405
 20
53.3640886447
 30
0.0
 10
73.1115576945
 20
53.4576343804
 30
0.0
 10
73.1115339696
 20
53.5031564642
 30
0.0
  0
SPLINE
  5
29F
100
AcDbEntity
  8
00_COMPONENTS_2
100
AcDbSpline
 62
7
  6
BYLAYER
 70
0
 71
3
 72
12
 73
8
 74
0
 42
0.0000001
 43
0.0000001
 44
0.0000000001
 40
0.0
 40
0.0
 40
0.0
 40
0.0
 40
0.2845916832
 40
0.5418570067
 40
0.7769689385
 40
0.8893169965
 40
1.0
 40
1.0
 40
1.0
 40
1.0
 10
73.9912842415
 20
54.6363430557
 30
0.0
 10
74.1002133091
 20
54.5616101692
 30
0.0
 10
74.2972122839
 20
54.4026677912
 30
0.0
 10
74.529087131
 20
54.1228601876
 30
0.0
 10
74.6516498299
 20
53.8661322555
 30
0.0
 10
74.6994747268
 20
53.6582331383
 30
0.0
 10
74.7073876032
 20
53.5545330196
 30
0.0
 10
74.7073918793
 20
53.5031566703
 30
0.0
  0
SPLINE
  5
2A0
100
AcDbEntity
  8
00_COMPONENTS_2
100
AcDbSpline
 62
7
  6
BYLAYER
 70
0
 71
3
 72
9
 73
5
 74
0
 42
0.0000001
 43
0.0000001
 44
0.0000000001
 40
0.0
 40
0.0
 40
0.0
 40
0.0
 40
0.2650616321
 40
1.0
 40
1.0
 40
1.0
 40
1.0
 10
72.6652012472
 20
52.8635932646
 30
0.0
 10
72.6798543971
 20
52.8749132485
 30
0.0
 10
72.7350676853
 20
52.9177082832
 30
0.0
 10
72.7898816435
 20
52.9610251377
 30
0.0
 10
72.8297330583
 20
52.9933935807
 30
0.0
  0
SPLINE
  5
2A1
100
AcDbEntity
  8
00_COMPONENTS_2
100
AcDbSpline
 62
7
  6
BYLAYER
 70
0
 71
3
 72
12
 73
8
 74
0
 42
0.0000001
 43
0.0000001
 44
0.0000000001
 40
0.0
 40
0.0
 40
0.0
 40
0.0
 40
0.2895577052
 40
0.5486551371
 40
0.7816333826
 40
0.8918396704
 40
1.0
 40
1.0
 40
1.0
 40
1.0
 10
73.8146785173
 20
46.8666569139
 30
0.0
 10
73.9484551343
 20
46.9438924187
 30
0.0
 10
74.1911187857
 20
47.1110537017
 30
0.0
 10
74.4810857587
 20
47.415542942
 30
0.0
 10
74.6366816437
 20
47.7025374805
 30
0.0
 10
74.6973799725
 20
47.936535191
 30
0.0
 10
74.7073856706
 20
48.0532739376
 30
0.0
 10
74.7073856699
 20
48.1109747337
 30
0.0
  0
SPLINE
  5
2A2
100
AcDbEntity
  8
00_COMPONENTS_2
100
AcDbSpline
 62
7
  6
BYLAYER
 70
0
 71
3
 72
11
 73
7
 74
0
 42
0.0000001
 43
0.0000001
 44
0.0000000001
 40
0.0
 40
0.0
 40
0.0
 40
0.0
 40
0.270747988
 40
0.524615354
 40
0.765697869
 40
1.0
 40
1.0
 40
1.0
 40
1.0
 10
55.0019458877
 20
29.3608045179
 30
0.0
 10
55.0616738052
 20
29.16850252
 30
0.0
 10
55.2041485005
 20
28.8032749795
 30
0.0
 10
55.498699822
 20
28.3123720469
 30
0.0
 10
55.8632610277
 20
27.9061012982
 30
0.0
 10
56.1513061035
 20
27.6957379902
 30
0.0
 10
56.3022106729
 20
27.6085961937
 30
0.0
  0
SPLINE
  5
2A3
100
AcDbEntity
  8
00_COMPONENTS_2
100
AcDbSpline
 62
7
  6
BYLAYER
 70
0
 71
3
 72
13
 73
9
 74
0
 42
0.0000001
 43
0.0000001
 44
0.0000000001
 40
0.0
 40
0.0
 40
0.0
 40
0.0
 40
0.1202514859
 40
0.2470345159
 40
0.509478876
 40
0.7668390435
 40
0.8875864
 40
1.0
 40
1.0
 40
1.0
 40
1.0
 10
72.6652012472
 20
52.8635932646
 30
0.0
 10
72.6010950208
 20
52.8140693428
 30
0.0
 10
72.4761397151
 20
52.7033986895
 30
0.0
 10
72.2463129179
 20
52.4477439932
 30
0.0
 10
72.0080791484
 20
52.0793903751
 30
0.0
 10
71.8473782614
 20
51.6751958188
 30
0.0
 10
71.7795643203
 20
51.3511083018
 30
0.0
 10
71.767179374
 20
51.1939054267
 30
0.0
 10
71.767179374
 20
51.1181778547
 30
0.0
  0
SPLINE
  5
2A4
100
AcDbEntity
  8
00_COMPONENTS_2
100
AcDbSpline
 62
7
  6
BYLAYER
 70
0
 71
3
 72
12
 73
8
 74
0
 42
0.0000001
 43
0.0000001
 44
0.0000000001
 40
0.0
 40
0.0
 40
0.0
 40
0.0
 40
0.1120986815
 40
0.2323032769
 40
0.4885628665
 40
0.7510287833
 40
1.0
 40
1.0
 40
1.0
 40
1.0
 10
71.767179374
 20
50.7033946268
 30
0.0
 10
71.767179374
 20
50.6301252773
 30
0.0
 10
71.7555922861
 20
50.4781606104
 30
0.0
 10
71.69191144
 20
50.1646387211
 30
0.0
 10
71.5402781524
 20
49.7719128816
 30
0.0
 10
71.2727831495
 20
49.3443250974
 30
0.0
 10
71.0412466782
 20
49.0987597464
 30
0.0
 10
70.9157342579
 20
48.9951832355
 30
0.0
  0
SPLINE
  5
2A5
100
AcDbEntity
  8
00_COMPONENTS_2
100
AcDbSpline
 62
7
  6
BYLAYER
 70
0
 71
3
 72
9
 73
5
 74
0
 42
0.0000001
 43
0.0000001
 44
0.0000000001
 40
0.0
 40
0.0
 40
0.0
 40
0.0
 40
0.2587261716
 40
1.0
 40
1.0
 40
1.0
 40
1.0
 10
56.767170896
 20
37.3193759761
 30
0.0
 10
56.7365452877
 20
37.2941028307
 30
0.0
 10
56.6163591359
 20
37.1986642879
 30
0.0
 10
56.4887255582
 20
37.1124207367
 30
0.0
 10
56.3902023428
 20
37.0555386713
 30
0.0
  0
SPLINE
  5
2A6
100
AcDbEntity
  8
00_COMPONENTS_2
100
AcDbSpline
 62
7
  6
BYLAYER
 70
0
 71
3
 72
9
 73
5
 74
0
 42
0.0000001
 43
0.0000001
 44
0.0000000001
 40
0.0
 40
0.0
 40
0.0
 40
0.0
 40
0.2665915979
 40
1.0
 40
1.0
 40
1.0
 40
1.0
 10
56.3902023428
 20
37.0555386713
 30
0.0
 10
56.3440264232
 20
37.0288791509
 30
0.0
 10
56.1676256371
 20
36.9348047943
 30
0.0
 10
55.9770403418
 20
36.8650645595
 30
0.0
 10
55.8332217323
 20
36.8362115234
 30
0.0
  0
SPLINE
  5
2A7
100
AcDbEntity
  8
00_COMPONENTS_2
100
AcDbSpline
 62
7
  6
BYLAYER
 70
0
 71
3
 72
11
 73
7
 74
0
 42
0.0000001
 43
0.0000001
 44
0.0000000001
 40
0.0
 40
0.0
 40
0.0
 40
0.0
 40
0.2806074394
 40
0.5398634223
 40
0.7785104432
 40
1.0
 40
1.0
 40
1.0
 40
1.0
 10
59.9851323968
 20
29.9436116185
 30
0.0
 10
59.8239520665
 20
29.8505546669
 30
0.0
 10
59.502684231
 20
29.6897202686
 30
0.0
 10
59.01071397
 20
29.5262523301
 30
0.0
 10
58.536515026
 20
29.4539715952
 30
0.0
 10
58.2288897456
 20
29.4692524683
 30
0.0
 10
58.0840351413
 20
29.4937075177
 30
0.0
  0
SPLINE
  5
2A8
100
AcDbEntity
  8
00_COMPONENTS_2
100
AcDbSpline
 62
7
  6
BYLAYER
 70
0
 71
3
 72
12
 73
8
 74
0
 42
0.0000001
 43
0.0000001
 44
0.0000000001
 40
0.0
 40
0.0
 40
0.0
 40
0.0
 40
0.1109309191
 40
0.2286741031
 40
0.479315614
 40
0.7408230342
 40
1.0
 40
1.0
 40
1.0
 40
1.0
 10
71.2210967219
 20
45.3692607044
 30
0.0
 10
71.0920997838
 20
45.2947847321
 30
0.0
 10
70.8355443692
 20
45.1246445513
 30
0.0
 10
70.3386822615
 20
44.7141825733
 30
0.0
 10
69.7671917105
 20
44.0839954302
 30
0.0
 10
69.2023224487
 20
43.211364844
 30
0.0
 10
68.9177057073
 20
42.5686360428
 30
0.0
 10
68.8049064532
 20
42.2394136356
 30
0.0
  0
SPLINE
  5
2A9
100
AcDbEntity
  8
00_COMPONENTS_2
100
AcDbSpline
 62
7
  6
BYLAYER
 70
0
 71
3
 72
15
 73
11
 74
0
 42
0.0000001
 43
0.0000001
 44
0.0000000001
 40
0.0
 40
0.0
 40
0.0
 40
0.0
 40
0.1284521058
 40
0.2592145207
 40
0.3905283868
 40
0.5207670548
 40
0.6482685186
 40
0.7714854283
 40
0.8891185724
 40
1.0
 40
1.0
 40
1.0
 40
1.0
 10
65.7699899781
 20
33.3815314121
 30
0.0
 10
65.6618336993
 20
33.0658602603
 30
0.0
 10
65.4157016563
 20
32.4380765997
 30
0.0
 10
64.9691367076
 20
31.5260014055
 30
0.0
 10
64.4486422966
 20
30.6485242995
 30
0.0
 10
63.8643909276
 20
29.8224884935
 30
0.0
 10
63.2273466916
 20
29.0636284961
 30
0.0
 10
62.5496335207
 20
28.3862071317
 30
0.0
 10
61.8441452665
 20
27.8033784054
 30
0.0
 10
61.3481403845
 20
27.4745138302
 30
0.0
 10
61.0986887919
 20
27.3304937457
 30
0.0
  0
SPLINE
  5
2AA
100
AcDbEntity
  8
00_COMPONENTS_2
100
AcDbSpline
 62
7
  6
BYLAYER
 70
0
 71
3
 72
15
 73
11
 74
0
 42
0.0000001
 43
0.0000001
 44
0.0000000001
 40
0.0
 40
0.0
 40
0.0
 40
0.0
 40
0.1485449796
 40
0.289507406
 40
0.4227351805
 40
0.5486397186
 40
0.6679971455
 40
0.781937428
 40
0.8919859995
 40
1.0
 40
1.0
 40
1.0
 40
1.0
 10
61.0986887919
 20
27.3304937457
 30
0.0
 10
60.9326065044
 20
27.2346066647
 30
0.0
 10
60.6009430086
 20
27.0610352695
 30
0.0
 10
60.0950864288
 20
26.8539070006
 30
0.0
 10
59.59816653
 20
26.7090670882
 30
0.0
 10
59.1150225356
 20
26.6280203988
 30
0.0
 10
58.6500880691
 20
26.611869176
 30
0.0
 10
58.207815107
 20
26.661165691
 30
0.0
 10
57.79293376
 20
26.7758916204
 30
0.0
 10
57.5365271928
 20
26.8959641567
 30
0.0
 10
57.415767068
 20
26.9656986535
 30
0.0
  0
SPLINE
  5
2AB
100
AcDbEntity
  8
00_COMPONENTS_2
100
AcDbSpline
 62
7
  6
BYLAYER
 70
0
 71
3
 72
11
 73
7
 74
0
 42
0.0000001
 43
0.0000001
 44
0.0000000001
 40
0.0
 40
0.0
 40
0.0
 40
0.0
 40
0.2501254685
 40
0.5070114189
 40
0.7602778656
 40
1.0
 40
1.0
 40
1.0
 40
1.0
 10
69.3928981524
 20
50.8862754327
 30
0.0
 10
69.359362447
 20
50.76887634
 30
0.0
 10
69.2719652153
 20
50.5361464936
 30
0.0
 10
69.0927416219
 20
50.2098320166
 30
0.0
 10
68.8724539279
 20
49.9160038748
 30
0.0
 10
68.6998445707
 20
49.7464799334
 30
0.0
 10
68.6092054149
 20
49.6724700092
 30
0.0
  0
SPLINE
  5
2AC
100
AcDbEntity
  8
00_COMPONENTS_2
100
AcDbSpline
 62
7
  6
BYLAYER
 70
0
 71
3
 72
17
 73
13
 74
0
 42
0.0000001
 43
0.0000001
 44
0.0000000001
 40
0.0
 40
0.0
 40
0.0
 40
0.0
 40
0.1380059616
 40
0.2839280741
 40
0.4309948314
 40
0.5722222163
 40
0.7015466265
 40
0.8150159494
 40
0.8657074487
 40
0.9127914271
 40
0.9571391867
 40
1.0
 40
1.0
 40
1.0
 40
1.0
 10
57.1394603844
 20
40.307036795
 30
0.0
 10
56.9748729876
 20
40.1726456408
 30
0.0
 10
56.6634761916
 20
39.8619333336
 30
0.0
 10
56.2741536134
 20
39.3215140761
 30
0.0
 10
55.9689175964
 20
38.7237228539
 30
0.0
 10
55.7690073894
 20
38.109393748
 30
0.0
 10
55.6878630719
 20
37.5203145849
 30
0.0
 10
55.7265868066
 20
37.064171217
 30
0.0
 10
55.8286997683
 20
36.7538832705
 30
0.0
 10
55.9335599077
 20
36.5602646846
 30
0.0
 10
56.0679232255
 20
36.4010745611
 30
0.0
 10
56.1766426826
 20
36.3198590116
 30
0.0
 10
56.2337875513
 20
36.2868527946
 30
0.0
  0
SPLINE
  5
2AD
100
AcDbEntity
  8
00_COMPONENTS_2
100
AcDbSpline
 62
7
  6
BYLAYER
 70
0
 71
3
 72
23
 73
19
 74
0
 42
0.0000001
 43
0.0000001
 44
0.0000000001
 40
0.0
 40
0.0
 40
0.0
 40
0.0
 40
0.062378523
 40
0.1287502511
 40
0.1983462742
 40
0.2703355277
 40
0.343724371
 40
0.4174662437
 40
0.4905036844
 40
0.5618022138
 40
0.6304106643
 40
0.6955096151
 40
0.7564664711
 40
0.8129120316
 40
0.8648215914
 40
0.9126045718
 40
0.9571861244
 40
1.0
 40
1.0
 40
1.0
 40
1.0
 10
61.0986887919
 20
37.3889870223
 30
0.0
 10
60.9207780288
 20
37.2862708085
 30
0.0
 10
60.5672712754
 20
37.049970739
 30
0.0
 10
60.0666007276
 20
36.6287239461
 30
0.0
 10
59.5880400917
 20
36.1373239223
 30
0.0
 10
59.1418157465
 20
35.5864829385
 30
0.0
 10
58.7373421887
 20
34.9877928159
 30
0.0
 10
58.3832503001
 20
34.354054301
 30
0.0
 10
58.0870857148
 20
33.6987810203
 30
0.0
 10
57.8552072896
 20
33.0359146233
 30
0.0
 10
57.6925039941
 20
32.3795585971
 30
0.0
 10
57.6024580245
 20
31.7435567716
 30
0.0
 10
57.5871457992
 20
31.1411937749
 30
0.0
 10
57.6471705285
 20
30.5849040497
 30
0.0
 10
57.7819288418
 20
30.0861067369
 30
0.0
 10
57.9900778814
 20
29.6553188302
 30
0.0
 10
58.2686763188
 20
29.3031155135
 30
0.0
 10
58.5001230216
 20
29.1259064055
 30
0.0
 10
58.6222406847
 20
29.0554195699
 30
0.0
  0
SPLINE
  5
2AE
100
AcDbEntity
  8
00_COMPONENTS_2
100
AcDbSpline
 62
7
  6
BYLAYER
 70
0
 71
3
 72
12
 73
8
 74
0
 42
0.0000001
 43
0.0000001
 44
0.0000000001
 40
0.0
 40
0.0
 40
0.0
 40
0.0
 40
0.2489713571
 40
0.5114373173
 40
0.7676968566
 40
0.8879013629
 40
1.0
 40
1.0
 40
1.0
 40
1.0
 10
35.5692990051
 20
69.4019954798
 30
0.0
 10
35.6948114962
 20
69.5055720492
 30
0.0
 10
35.9263480349
 20
69.7511375068
 30
0.0
 10
36.1938430426
 20
70.1787253961
 30
0.0
 10
36.3454762322
 20
70.5714511998
 30
0.0
 10
36.4091570748
 20
70.8849729682
 30
0.0
 10
36.4207441211
 20
71.0369375507
 30
0.0
 10
36.4207441211
 20
71.1102068712
 30
0.0
  0
SPLINE
  5
2AF
100
AcDbEntity
  8
00_COMPONENTS_2
100
AcDbSpline
 62
7
  6
BYLAYER
 70
0
 71
3
 72
13
 73
9
 74
0
 42
0.0000001
 43
0.0000001
 44
0.0000000001
 40
0.0
 40
0.0
 40
0.0
 40
0.0
 40
0.1124136508
 40
0.2331611088
 40
0.4905213333
 40
0.7529656427
 40
0.8797485666
 40
1.0
 40
1.0
 40
1.0
 40
1.0
 10
36.4207441211
 20
71.5249900991
 30
0.0
 10
36.4207441211
 20
71.6007177053
 30
0.0
 10
36.4331291177
 20
71.7579206796
 30
0.0
 10
36.5009430636
 20
72.082008338
 30
0.0
 10
36.6616440624
 20
72.4862029396
 30
0.0
 10
36.8998778572
 20
72.8545564485
 30
0.0
 10
37.1297045442
 20
73.1102110559
 30
0.0
 10
37.254659796
 20
73.2208816087
 30
0.0
 10
37.3187659944
 20
73.270405509
 30
0.0
  0
SPLINE
  5
2B0
100
AcDbEntity
  8
00_COMPONENTS_2
100
AcDbSpline
 62
7
  6
BYLAYER
 70
0
 71
3
 72
12
 73
8
 74
0
 42
0.0000001
 43
0.0000001
 44
0.0000000001
 40
0.0
 40
0.0
 40
0.0
 40
0.0
 40
0.1081603296
 40
0.2183666174
 40
0.4513448629
 40
0.7104422948
 40
1.0
 40
1.0
 40
1.0
 40
1.0
 10
74.7073856699
 20
70.9240522683
 30
0.0
 10
74.7073856706
 20
70.8663514722
 30
0.0
 10
74.6973799725
 20
70.7496127256
 30
0.0
 10
74.6366816437
 20
70.5156150151
 30
0.0
 10
74.4810857587
 20
70.2286204766
 30
0.0
 10
74.1911187857
 20
69.9241312363
 30
0.0
 10
73.9484551343
 20
69.7569699533
 30
0.0
 10
73.8146785173
 20
69.6797344485
 30
0.0
  0
SPLINE
  5
2B1
100
AcDbEntity
  8
00_COMPONENTS_2
100
AcDbSpline
 62
7
  6
BYLAYER
 70
0
 71
3
 72
9
 73
5
 74
0
 42
0.0000001
 43
0.0000001
 44
0.0000000001
 40
0.0
 40
0.0
 40
0.0
 40
0.0
 40
0.2408226926
 40
1.0
 40
1.0
 40
1.0
 40
1.0
 10
73.9535671937
 20
52.3445623187
 30
0.0
 10
73.9422230972
 20
52.3370749648
 30
0.0
 10
73.8953247079
 20
52.3056707963
 30
0.0
 10
73.8492423661
 20
52.2730531728
 30
0.0
 10
73.8146785173
 20
52.2477283892
 30
0.0
  0
SPLINE
  5
2B2
100
AcDbEntity
  8
00_COMPONENTS_2
100
AcDbSpline
 62
7
  6
BYLAYER
 70
0
 71
3
 72
11
 73
7
 74
0
 42
0.0000001
 43
0.0000001
 44
0.0000000001
 40
0.0
 40
0.0
 40
0.0
 40
0.0
 40
0.2624637955
 40
0.5235406999
 40
0.7724298537
 40
1.0
 40
1.0
 40
1.0
 40
1.0
 10
38.0595667987
 20
73.519132032
 30
0.0
 10
38.1857865772
 20
73.5358945457
 30
0.0
 10
38.4403993421
 20
73.5504855668
 30
0.0
 10
38.8150416358
 20
73.5184244415
 30
0.0
 10
39.1643192609
 20
73.4347675984
 30
0.0
 10
39.3782078885
 20
73.3426493893
 30
0.0
 10
39.4740274634
 20
73.2878150388
 30
0.0
  0
SPLINE
  5
2B3
100
AcDbEntity
  8
00_COMPONENTS_2
100
AcDbSpline
 62
7
  6
BYLAYER
 70
0
 71
3
 72
23
 73
19
 74
0
 42
0.0000001
 43
0.0000001
 44
0.0000000001
 40
0.0
 40
0.0
 40
0.0
 40
0.0
 40
0.0441293172
 40
0.0898849761
 40
0.137926062
 40
0.1887382119
 40
0.2426255374
 40
0.2997266356
 40
0.3600353088
 40
0.4234216758
 40
0.4896555032
 40
0.5584239389
 40
0.6293456948
 40
0.7019896327
 40
0.7758830074
 40
0.8505219758
 40
0.9254147077
 40
1.0
 40
1.0
 40
1.0
 40
1.0
 10
45.5386593954
 20
90.7112348874
 30
0.0
 10
45.9771823385
 20
90.8768516974
 30
0.0
 10
46.9019712221
 20
91.1354891887
 30
0.0
 10
48.3643749235
 20
91.2931665031
 30
0.0
 10
49.9043341898
 20
91.2258224147
 30
0.0
 10
51.5050959662
 20
90.9357061342
 30
0.0
 10
53.1506893374
 20
90.4271578271
 30
0.0
 10
54.8246451716
 20
89.7060832156
 30
0.0
 10
56.5102073248
 20
88.7802546297
 30
0.0
 10
58.1904151711
 20
87.6594351398
 30
0.0
 10
59.8482035427
 20
86.3552181786
 30
0.0
 10
61.4665768576
 20
84.8810141912
 30
0.0
 10
63.0289470944
 20
83.2520704213
 30
0.0
 10
64.5192102747
 20
81.4852137764
 30
0.0
 10
65.921920528
 20
79.5987405272
 30
0.0
 10
67.2227323094
 20
77.6120177058
 30
0.0
 10
68.4078673364
 20
75.5458373532
 30
0.0
 10
69.1159589438
 20
74.1234349996
 30
0.0
 10
69.4475347536
 20
73.4038895955
 30
0.0
  0
SPLINE
  5
2B4
100
AcDbEntity
  8
00_COMPONENTS_2
100
AcDbSpline
 62
7
  6
BYLAYER
 70
0
 71
3
 72
15
 73
11
 74
0
 42
0.0000001
 43
0.0000001
 44
0.0000000001
 40
0.0
 40
0.0
 40
0.0
 40
0.0
 40
0.110865053
 40
0.2278482507
 40
0.3500707547
 40
0.4765383562
 40
0.606064282
 40
0.7373734822
 40
0.8691373433
 40
1.0
 40
1.0
 40
1.0
 40
1.0
 10
45.2663167769
 20
76.1654593167
 30
0.0
 10
45.2663167769
 20
75.6346586951
 30
0.0
 10
45.3264362899
 20
74.5431964842
 30
0.0
 10
45.5772459326
 20
72.8838612747
 30
0.0
 10
45.9876030304
 20
71.1797550393
 30
0.0
 10
46.550989604
 20
69.4569137274
 30
0.0
 10
47.2590379177
 20
67.7412649945
 30
0.0
 10
48.1009453691
 20
66.0588320143
 30
0.0
 10
49.0638688113
 20
64.435310406
 30
0.0
 10
49.7817303107
 20
63.4013713761
 30
0.0
 10
50.1578500559
 20
62.9002795996
 30
0.0
  0
SPLINE
  5
2B5
100
AcDbEntity
  8
00_COMPONENTS_2
100
AcDbSpline
 62
7
  6
BYLAYER
 70
0
 71
3
 72
14
 73
10
 74
0
 42
0.0000001
 43
0.0000001
 44
0.0000000001
 40
0.0
 40
0.0
 40
0.0
 40
0.0
 40
0.1080448767
 40
0.2181302039
 40
0.3321100719
 40
0.4514927985
 40
0.5774386711
 40
0.7107395444
 40
1.0
 40
1.0
 40
1.0
 40
1.0
 10
58.6222406847
 20
29.0554195699
 30
0.0
 10
58.7034475943
 20
29.0085465956
 30
0.0
 10
58.8758483591
 20
28.9277966171
 30
0.0
 10
59.1548249367
 20
28.8506602141
 30
0.0
 10
59.4522081039
 20
28.8175245716
 30
0.0
 10
59.7648220834
 20
28.8283377393
 30
0.0
 10
60.0897405048
 20
28.8828573839
 30
0.0
 10
60.5474930598
 20
29.0163412782
 30
0.0
 10
60.881293035
 20
29.1752013287
 30
0.0
 10
61.0986887919
 20
29.3007140783
 30
0.0
  0
SPLINE
  5
2B6
100
AcDbEntity
  8
00_COMPONENTS_2
100
AcDbSpline
 62
7
  6
BYLAYER
 70
0
 71
3
 72
9
 73
5
 74
0
 42
0.0000001
 43
0.0000001
 44
0.0000000001
 40
0.0
 40
0.0
 40
0.0
 40
0.0
 40
0.2598642242
 40
1.0
 40
1.0
 40
1.0
 40
1.0
 10
38.0595580101
 20
73.5237592346
 30
0.0
 10
38.0110420279
 20
73.5174112356
 30
0.0
 10
37.8251510846
 20
73.4875460952
 30
0.0
 10
37.6423677342
 20
73.4357112674
 30
0.0
 10
37.5134429326
 20
73.3828019215
 30
0.0
  0
SPLINE
  5
2B7
100
AcDbEntity
  8
00_COMPONENTS_2
100
AcDbSpline
 62
7
  6
BYLAYER
 70
0
 71
3
 72
15
 73
11
 74
0
 42
0.0000001
 43
0.0000001
 44
0.0000000001
 40
0.0
 40
0.0
 40
0.0
 40
0.0
 40
0.108012866
 40
0.2180613237
 40
0.3319990751
 40
0.4513603874
 40
0.5772753139
 40
0.7104909388
 40
0.8514244203
 40
1.0
 40
1.0
 40
1.0
 40
1.0
 10
48.4305998903
 20
83.1595486192
 30
0.0
 10
48.1801023514
 20
83.0149344404
 30
0.0
 10
47.6985254066
 20
82.678831451
 30
0.0
 10
47.0621423567
 20
82.0525956215
 30
0.0
 10
46.5148415188
 20
81.3092871096
 30
0.0
 10
46.0617338206
 20
80.4572888296
 30
0.0
 10
45.7062055715
 20
79.5053595972
 30
0.0
 10
45.451094848
 20
78.4625814051
 30
0.0
 10
45.2984240219
 20
77.3391254654
 30
0.0
 10
45.2663167769
 20
76.5633252784
 30
0.0
 10
45.2663167769
 20
76.1654593167
 30
0.0
  0
SPLINE
  5
2B8
100
AcDbEntity
  8
00_COMPONENTS_2
100
AcDbSpline
 62
7
  6
BYLAYER
 70
0
 71
3
 72
12
 73
8
 74
0
 42
0.0000001
 43
0.0000001
 44
0.0000000001
 40
0.0
 40
0.0
 40
0.0
 40
0.0
 40
0.1081652362
 40
0.218374754
 40
0.4513371676
 40
0.7104807285
 40
1.0
 40
1.0
 40
1.0
 40
1.0
 10
56.2337875513
 20
36.2868527946
 30
0.0
 10
56.2754267877
 20
36.2628024521
 30
0.0
 10
56.3638659572
 20
36.2214181835
 30
0.0
 10
56.5580142918
 20
36.1677030806
 30
0.0
 10
56.8299856904
 20
36.1604064062
 30
0.0
 10
57.1705361216
 20
36.2428310077
 30
0.0
 10
57.3922938774
 20
36.348287248
 30
0.0
 10
57.5037587379
 20
36.4126411311
 30
0.0
  0
SPLINE
  5
2B9
100
AcDbEntity
  8
00_COMPONENTS_2
100
AcDbSpline
 62
7
  6
BYLAYER
 70
0
 71
3
 72
11
 73
7
 74
0
 42
0.0000001
 43
0.0000001
 44
0.0000000001
 40
0.0
 40
0.0
 40
0.0
 40
0.0
 40
0.234302131
 40
0.475384646
 40
0.729252012
 40
1.0
 40
1.0
 40
1.0
 40
1.0
 10
57.415767068
 20
26.9656986535
 30
0.0
 10
57.2648624987
 20
27.0528404499
 30
0.0
 10
56.9768174228
 20
27.263203758
 30
0.0
 10
56.6122562171
 20
27.6694745067
 30
0.0
 10
56.3177048957
 20
28.1603774393
 30
0.0
 10
56.1752302004
 20
28.5256049798
 30
0.0
 10
56.1155022829
 20
28.7179069776
 30
0.0
  0
SPLINE
  5
2BA
100
AcDbEntity
  8
00_COMPONENTS_2
100
AcDbSpline
 62
7
  6
BYLAYER
 70
0
 71
3
 72
11
 73
7
 74
0
 42
0.0000001
 43
0.0000001
 44
0.0000000001
 40
0.0
 40
0.0
 40
0.0
 40
0.0
 40
0.2177817009
 40
0.4509079353
 40
0.7102947134
 40
1.0
 40
1.0
 40
1.0
 40
1.0
 10
73.1115584215
 20
70.9240520956
 30
0.0
 10
73.1115584108
 20
70.9820988382
 30
0.0
 10
73.0901072646
 20
71.1030866236
 30
0.0
 10
72.9983859893
 20
71.2716613203
 30
0.0
 10
72.8533876944
 20
71.4240459291
 30
0.0
 10
72.7320645302
 20
71.5076083444
 30
0.0
 10
72.665192274
 20
71.5462161861
 30
0.0
  0
SPLINE
  5
2BB
100
AcDbEntity
  8
00_COMPONENTS_2
100
AcDbSpline
 62
7
  6
BYLAYER
 70
0
 71
3
 72
15
 73
11
 74
0
 42
0.0000001
 43
0.0000001
 44
0.0000000001
 40
0.0
 40
0.0
 40
0.0
 40
0.0
 40
0.1141236058
 40
0.2373475862
 40
0.3669728832
 40
0.5000004526
 40
0.6330279586
 40
0.7626530685
 40
0.8858767805
 40
1.0
 40
1.0
 40
1.0
 40
1.0
 10
39.4740274634
 20
90.7087106107
 30
0.0
 10
39.4002752263
 20
90.7512905214
 30
0.0
 10
39.238931958
 20
90.8263843903
 30
0.0
 10
38.9762546875
 20
90.9062725283
 30
0.0
 10
38.6918173805
 20
90.9553861863
 30
0.0
 10
38.39639506
 20
90.971995704
 30
0.0
 10
38.1009729559
 20
90.9553848179
 30
0.0
 10
37.8165362663
 20
90.9062698299
 30
0.0
 10
37.5538600368
 20
90.8263804117
 30
0.0
 10
37.3925176747
 20
90.7512857284
 30
0.0
 10
37.3187659944
 20
90.7087054301
 30
0.0
  0
SPLINE
  5
2BC
100
AcDbEntity
  8
00_COMPONENTS_2
100
AcDbSpline
 62
7
  6
BYLAYER
 70
0
 71
3
 72
9
 73
5
 74
0
 42
0.0000001
 43
0.0000001
 44
0.0000000001
 40
0.0
 40
0.0
 40
0.0
 40
0.0
 40
0.2412102831
 40
1.0
 40
1.0
 40
1.0
 40
1.0
 10
57.5037587379
 20
36.4126411311
 30
0.0
 10
57.5358191311
 20
36.4311510972
 30
0.0
 10
57.666946729
 20
36.5109690212
 30
0.0
 10
57.7909060785
 20
36.6023553507
 30
0.0
 10
57.8807272911
 20
36.6764784359
 30
0.0
  0
SPLINE
  5
2BD
100
AcDbEntity
  8
00_COMPONENTS_2
100
AcDbSpline
 62
7
  6
BYLAYER
 70
0
 71
3
 72
12
 73
8
 74
0
 42
0.0000001
 43
0.0000001
 44
0.0000000001
 40
0.0
 40
0.0
 40
0.0
 40
0.0
 40
0.2489713571
 40
0.5114373173
 40
0.7676968566
 40
0.8879013629
 40
1.0
 40
1.0
 40
1.0
 40
1.0
 10
72.0292906531
 20
48.3522856953
 30
0.0
 10
72.1548031442
 20
48.4558622647
 30
0.0
 10
72.3863396829
 20
48.7014277222
 30
0.0
 10
72.6538346906
 20
49.1290156115
 30
0.0
 10
72.8054678802
 20
49.5217414152
 30
0.0
 10
72.8691487228
 20
49.8352631836
 30
0.0
 10
72.8807357691
 20
49.9872277661
 30
0.0
 10
72.8807357691
 20
50.0604970866
 30
0.0
  0
SPLINE
  5
2BE
100
AcDbEntity
  8
00_COMPONENTS_2
100
AcDbSpline
 62
7
  6
BYLAYER
 70
0
 71
3
 72
13
 73
9
 74
0
 42
0.0000001
 43
0.0000001
 44
0.0000000001
 40
0.0
 40
0.0
 40
0.0
 40
0.0
 40
0.1127171247
 40
0.233944938
 40
0.4922612682
 40
0.7547437137
 40
0.8809041129
 40
1.0
 40
1.0
 40
1.0
 40
1.0
 10
72.8807357691
 20
50.4752803145
 30
0.0
 10
72.8807357691
 20
50.5528943292
 30
0.0
 10
72.893753235
 20
50.7141229921
 30
0.0
 10
72.9648031871
 20
51.0462756461
 30
0.0
 10
73.1326254906
 20
51.4592330798
 30
0.0
 10
73.3807365311
 20
51.8332620559
 30
0.0
 10
73.6192768422
 20
52.089701601
 30
0.0
 10
73.7485281502
 20
52.1992602992
 30
0.0
 10
73.8146785173
 20
52.2477283892
 30
0.0
  0
SPLINE
  5
2BF
100
AcDbEntity
  8
00_COMPONENTS_2
100
AcDbSpline
 62
7
  6
BYLAYER
 70
0
 71
3
 72
23
 73
19
 74
0
 42
0.0000001
 43
0.0000001
 44
0.0000000001
 40
0.0
 40
0.0
 40
0.0
 40
0.0
 40
0.062378523
 40
0.1287502511
 40
0.1983462742
 40
0.2703355277
 40
0.343724371
 40
0.4174662437
 40
0.4905036844
 40
0.5618022138
 40
0.6304106643
 40
0.6955096151
 40
0.7564664711
 40
0.8129120316
 40
0.8648215914
 40
0.9126045718
 40
0.9571861244
 40
1.0
 40
1.0
 40
1.0
 40
1.0
 10
61.0986887919
 20
29.3007140783
 30
0.0
 10
61.276599555
 20
29.4034302921
 30
0.0
 10
61.6301063085
 20
29.6397303616
 30
0.0
 10
62.1307768562
 20
30.0609771545
 30
0.0
 10
62.6093374921
 20
30.5523771783
 30
0.0
 10
63.0555618374
 20
31.1032181621
 30
0.0
 10
63.4600353952
 20
31.7019082847
 30
0.0
 10
63.8141272837
 20
32.3356467996
 30
0.0
 10
64.1102918691
 20
32.9909200803
 30
0.0
 10
64.3421702943
 20
33.6537864772
 30
0.0
 10
64.5048735898
 20
34.3101425035
 30
0.0
 10
64.5949195593
 20
34.946144329
 30
0.0
 10
64.6102317847
 20
35.5485073257
 30
0.0
 10
64.5502070554
 20
36.1047970508
 30
0.0
 10
64.4154487421
 20
36.6035943637
 30
0.0
 10
64.2072997025
 20
37.0343822704
 30
0.0
 10
63.9287012651
 20
37.3865855871
 30
0.0
 10
63.6972545623
 20
37.5637946951
 30
0.0
 10
63.5751368992
 20
37.6342815307
 30
0.0
  0
SPLINE
  5
2C0
100
AcDbEntity
  8
00_COMPONENTS_2
100
AcDbSpline
 62
7
  6
BYLAYER
 70
0
 71
3
 72
12
 73
8
 74
0
 42
0.0000001
 43
0.0000001
 44
0.0000000001
 40
0.0
 40
0.0
 40
0.0
 40
0.0
 40
0.1101300318
 40
0.2220112736
 40
0.4566329655
 40
0.7143864441
 40
1.0
 40
1.0
 40
1.0
 40
1.0
 10
74.7073918793
 20
53.5031566703
 30
0.0
 10
74.7073962724
 20
53.4503739272
 30
0.0
 10
74.699034959
 20
53.3437785446
 30
0.0
 10
74.6484607907
 20
53.1301021649
 30
0.0
 10
74.518934094
 20
52.866532545
 30
0.0
 10
74.2745868956
 20
52.5810382851
 30
0.0
 10
74.0678139506
 20
52.4199676979
 30
0.0
 10
73.9535671937
 20
52.3445623187
 30
0.0
  0
SPLINE
  5
2C1
100
AcDbEntity
  8
00_COMPONENTS_1
100
AcDbSpline
 62
7
  6
BYLAYER
 70
0
 71
3
 72
18
 73
14
 74
0
 42
0.0000001
 43
0.0000001
 44
0.0000000001
 40
0.0
 40
0.0
 40
0.0
 40
0.0
 40
0.1324735037
 40
0.2711038862
 40
0.4110490037
 40
0.5471725245
 40
0.6751116431
 40
0.7352300137
 40
0.7925493669
 40
0.8472038674
 40
0.8995668994
 40
0.9502344226
 40
1.0
 40
1.0
 40
1.0
 40
1.0
 10
29.3687030267
 20
60.4167201153
 30
0.0
 10
29.4057588195
 20
60.5978042395
 30
0.0
 10
29.4375994489
 20
60.9782561826
 30
0.0
 10
29.369478037
 20
61.5510956298
 30
0.0
 10
29.1925162524
 20
62.1058154245
 30
0.0
 10
28.9190611803
 20
62.6028717748
 30
0.0
 10
28.6193288532
 20
62.9476454167
 30
0.0
 10
28.3490684115
 20
63.1592850012
 30
0.0
 10
28.1407349951
 20
63.2803819044
 30
0.0
 10
27.9264322293
 20
63.3645954089
 30
0.0
 10
27.7100379772
 20
63.4101954372
 30
0.0
 10
27.4957445155
 20
63.415864517
 30
0.0
 10
27.356481594
 20
63.3927908161
 30
0.0
 10
27.2894121502
 20
63.3748151557
 30
0.0
  0
SPLINE
  5
2C2
100
AcDbEntity
  8
00_COMPONENTS_1
100
AcDbSpline
 62
7
  6
BYLAYER
 70
0
 71
3
 72
15
 73
11
 74
0
 42
0.0000001
 43
0.0000001
 44
0.0000000001
 40
0.0
 40
0.0
 40
0.0
 40
0.0
 40
0.1177537358
 40
0.2457425104
 40
0.3800673674
 40
0.5165272522
 40
0.6507498056
 40
0.7784973555
 40
0.8959693118
 40
1.0
 40
1.0
 40
1.0
 40
1.0
 10
41.0254402992
 20
42.5743326668
 30
0.0
 10
41.1742817095
 20
42.4884009826
 30
0.0
 10
41.4961976398
 20
42.3283608061
 30
0.0
 10
42.014935026
 20
42.1299511321
 30
0.0
 10
42.5748598315
 20
41.9686562014
 30
0.0
 10
43.1547015907
 20
41.8505913058
 30
0.0
 10
43.7326022562
 20
41.7802843555
 30
0.0
 10
44.2868346503
 20
41.7602209959
 30
0.0
 10
44.7964524722
 20
41.7910801239
 30
0.0
 10
45.1158613051
 20
41.8485234362
 30
0.0
 10
45.2625247893
 20
41.8878207796
 30
0.0
  0
SPLINE
  5
2C3
100
AcDbEntity
  8
00_COMPONENTS_1
100
AcDbSpline
 62
7
  6
BYLAYER
 70
0
 71
3
 72
11
 73
7
 74
0
 42
0.0000001
 43
0.0000001
 44
0.0000000001
 40
0.0
 40
0.0
 40
0.0
 40
0.0
 40
0.2550192681
 40
0.5088845002
 40
0.7581976683
 40
1.0
 40
1.0
 40
1.0
 40
1.0
 10
60.2533988447
 20
34.0609771782
 30
0.0
 10
60.0868923134
 20
33.7358762372
 30
0.0
 10
59.7282512288
 20
33.100291644
 30
0.0
 10
59.1200007611
 20
32.1992797499
 30
0.0
 10
58.4517789741
 20
31.3658844807
 30
0.0
 10
57.9655176579
 20
30.8560658884
 30
0.0
 10
57.7148884721
 20
30.6170483989
 30
0.0
  0
SPLINE
  5
2C4
100
AcDbEntity
  8
00_COMPONENTS_1
100
AcDbSpline
 62
7
  6
BYLAYER
 70
0
 71
3
 72
13
 73
9
 74
0
 42
0.0000001
 43
0.0000001
 44
0.0000000001
 40
0.0
 40
0.0
 40
0.0
 40
0.0
 40
0.2801912581
 40
0.5361678322
 40
0.6567292272
 40
0.7734220253
 40
0.8874093105
 40
1.0
 40
1.0
 40
1.0
 40
1.0
 10
55.1522455424
 20
28.894171669
 30
0.0
 10
54.8743808731
 20
28.782542016
 30
0.0
 10
54.3248943931
 20
28.6090117765
 30
0.0
 10
53.6217773542
 20
28.529312808
 30
0.0
 10
53.0945179174
 20
28.562536013
 30
0.0
 10
52.7246427934
 20
28.6325073638
 30
0.0
 10
52.3752038399
 20
28.7476020471
 30
0.0
 10
52.1568265926
 20
28.8543102097
 30
0.0
 10
52.0526225244
 20
28.914482058
 30
0.0
  0
SPLINE
  5
2C5
100
AcDbEntity
  8
00_COMPONENTS_1
100
AcDbSpline
 62
7
  6
BYLAYER
 70
0
 71
3
 72
15
 73
11
 74
0
 42
0.0000001
 43
0.0000001
 44
0.0000000001
 40
0.0
 40
0.0
 40
0.0
 40
0.0
 40
0.1548904802
 40
0.3014905161
 40
0.4387322471
 40
0.5663816758
 40
0.6847905327
 40
0.7950559198
 40
0.8991868661
 40
1.0
 40
1.0
 40
1.0
 40
1.0
 10
52.6065985764
 20
34.8271539145
 30
0.0
 10
52.5680282548
 20
34.6386685963
 30
0.0
 10
52.5091237104
 20
34.2681848801
 30
0.0
 10
52.4773180791
 20
33.7231843991
 30
0.0
 10
52.5051927781
 20
33.2115801963
 30
0.0
 10
52.5925331203
 20
32.7420017473
 30
0.0
 10
52.7382552938
 20
32.322044532
 30
0.0
 10
52.9410684444
 20
31.958992301
 30
0.0
 10
53.1981858836
 20
31.6600295945
 30
0.0
 10
53.404648116
 20
31.5067586312
 30
0.0
 10
53.5130932463
 20
31.4441488242
 30
0.0
  0
SPLINE
  5
2C6
100
AcDbEntity
  8
00_COMPONENTS_1
100
AcDbSpline
 62
7
  6
BYLAYER
 70
0
 71
3
 72
15
 73
11
 74
0
 42
0.0000001
 43
0.0000001
 44
0.0000000001
 40
0.0
 40
0.0
 40
0.0
 40
0.0
 40
0.1177299932
 40
0.2457547874
 40
0.3800633211
 40
0.5165274355
 40
0.650753394
 40
0.7784857244
 40
0.8959891474
 40
1.0
 40
1.0
 40
1.0
 40
1.0
 10
46.132563415
 20
62.7600249573
 30
0.0
 10
46.2069690156
 20
62.7170678355
 30
0.0
 10
46.3679416809
 20
62.6370586428
 30
0.0
 10
46.627298737
 20
62.5378334103
 30
0.0
 10
46.907280763
 20
62.4571912097
 30
0.0
 10
47.1971927816
 20
62.3981489649
 30
0.0
 10
47.4861384356
 20
62.363007745
 30
0.0
 10
47.7632687956
 20
62.3529640762
 30
0.0
 10
48.0180726707
 20
62.3684189028
 30
0.0
 10
48.1777879979
 20
62.3971241146
 30
0.0
 10
48.25110566
 20
62.4167690137
 30
0.0
  0
SPLINE
  5
2C7
100
AcDbEntity
  8
00_COMPONENTS_1
100
AcDbSpline
 62
7
  6
BYLAYER
 70
0
 71
3
 72
15
 73
11
 74
0
 42
0.0000001
 43
0.0000001
 44
0.0000000001
 40
0.0
 40
0.0
 40
0.0
 40
0.0
 40
0.1549226956
 40
0.3014845767
 40
0.4387228705
 40
0.5663862134
 40
0.6847874014
 40
0.795053586
 40
0.8991881606
 40
1.0
 40
1.0
 40
1.0
 40
1.0
 10
15.8757514863
 20
54.3468454245
 30
0.0
 10
15.8144216548
 20
54.0471390101
 30
0.0
 10
15.7207280516
 20
53.4581820767
 30
0.0
 10
15.6702438028
 20
52.5917788075
 30
0.0
 10
15.7145794926
 20
51.7785221534
 30
0.0
 10
15.8533053733
 20
51.0319770833
 30
0.0
 10
16.0850797919
 20
50.3643696822
 30
0.0
 10
16.4074789069
 20
49.7872191853
 30
0.0
 10
16.8161708929
 20
49.3118669419
 30
0.0
 10
17.1444561827
 20
49.0682824282
 30
0.0
 10
17.3168467815
 20
48.9687367868
 30
0.0
  0
SPLINE
  5
2C8
100
AcDbEntity
  8
00_COMPONENTS_1
100
AcDbSpline
 62
7
  6
BYLAYER
 70
0
 71
3
 72
17
 73
13
 74
0
 42
0.0000001
 43
0.0000001
 44
0.0000000001
 40
0.0
 40
0.0
 40
0.0
 40
0.0
 40
0.042928162
 40
0.0872691094
 40
0.1342255496
 40
0.1846402709
 40
0.2972045249
 40
0.4254153646
 40
0.5657758703
 40
0.7127014466
 40
0.8596321015
 40
1.0
 40
1.0
 40
1.0
 40
1.0
 10
36.9877488043
 20
78.6743207252
 30
0.0
 10
36.952157625
 20
78.6948663436
 30
0.0
 10
36.8747080581
 20
78.7283702345
 30
0.0
 10
36.7475527932
 20
78.7524330263
 30
0.0
 10
36.6110835409
 20
78.7504523358
 30
0.0
 10
36.4128771952
 20
78.7124491915
 30
0.0
 10
36.1551566354
 20
78.5970818258
 30
0.0
 10
35.8611526711
 20
78.3775471365
 30
0.0
 10
35.5879388521
 20
78.0859374995
 30
0.0
 10
35.3531234476
 20
77.7410196075
 30
0.0
 10
35.1718664781
 20
77.3653240925
 30
0.0
 10
35.0916049199
 20
77.1006595721
 30
0.0
 10
35.0646654149
 20
76.9690116896
 30
0.0
  0
SPLINE
  5
2C9
100
AcDbEntity
  8
00_COMPONENTS_1
100
AcDbSpline
 62
7
  6
BYLAYER
 70
0
 71
3
 72
10
 73
6
 74
0
 42
0.0000001
 43
0.0000001
 44
0.0000000001
 40
0.0
 40
0.0
 40
0.0
 40
0.0
 40
0.2844393241
 40
0.5474195077
 40
1.0
 40
1.0
 40
1.0
 40
1.0
 10
21.9427149249
 20
53.555365226
 30
0.0
 10
21.8107997577
 20
53.4331302512
 30
0.0
 10
21.5423120633
 20
53.2122017158
 30
0.0
 10
21.0040726523
 20
52.8809537385
 30
0.0
 10
20.5589203716
 20
52.7337118603
 30
0.0
 10
20.2732049176
 20
52.7179169065
 30
0.0
  0
SPLINE
  5
2CA
100
AcDbEntity
  8
00_COMPONENTS_1
100
AcDbSpline
 62
7
  6
BYLAYER
 70
0
 71
3
 72
15
 73
11
 74
0
 42
0.0000001
 43
0.0000001
 44
0.0000000001
 40
0.0
 40
0.0
 40
0.0
 40
0.0
 40
0.105392348
 40
0.2194749759
 40
0.3421654814
 40
0.4718194348
 40
0.6057369864
 40
0.7406268145
 40
0.8730899862
 40
1.0
 40
1.0
 40
1.0
 40
1.0
 10
28.902989889
 20
59.5044030364
 30
0.0
 10
28.7801561358
 20
59.5351651957
 30
0.0
 10
28.5330535735
 20
59.6371954042
 30
0.0
 10
28.1992872609
 20
59.882541877
 30
0.0
 10
27.903269072
 20
60.2121381385
 30
0.0
 10
27.6589929181
 20
60.6094015161
 30
0.0
 10
27.4778976007
 20
61.0548056066
 30
0.0
 10
27.3687266923
 20
61.5265263264
 30
0.0
 10
27.3369134146
 20
62.00115857
 30
0.0
 10
27.3694184174
 20
62.3131341131
 30
0.0
 10
27.3999874518
 20
62.4625187676
 30
0.0
  0
SPLINE
  5
2CB
100
AcDbEntity
  8
00_COMPONENTS_1
100
AcDbSpline
 62
7
  6
BYLAYER
 70
0
 71
3
 72
15
 73
11
 74
0
 42
0.0000001
 43
0.0000001
 44
0.0000000001
 40
0.0
 40
0.0
 40
0.0
 40
0.0
 40
0.1006084422
 40
0.2054792645
 40
0.3167437496
 40
0.4359905612
 40
0.5640111529
 40
0.7009858004
 40
0.8466409187
 40
1.0
 40
1.0
 40
1.0
 40
1.0
 10
38.3198055906
 20
80.713210251
 30
0.0
 10
38.3994649822
 20
80.6560427681
 30
0.0
 10
38.5498297198
 20
80.5211717469
 30
0.0
 10
38.7344988327
 20
80.2715577189
 30
0.0
 10
38.8787384246
 20
79.9764542909
 30
0.0
 10
38.980850576
 20
79.6409784383
 30
0.0
 10
39.0400100211
 20
79.2701799749
 30
0.0
 10
39.0554803149
 20
78.8694312962
 30
0.0
 10
39.0271848045
 20
78.4448068766
 30
0.0
 10
38.980681577
 20
78.1566738508
 30
0.0
 10
38.9507183043
 20
78.0102494305
 30
0.0
  0
SPLINE
  5
2CC
100
AcDbEntity
  8
00_COMPONENTS_1
100
AcDbSpline
 62
7
  6
BYLAYER
 70
0
 71
3
 72
9
 73
5
 74
0
 42
0.0000001
 43
0.0000001
 44
0.0000000001
 40
0.0
 40
0.0
 40
0.0
 40
0.0
 40
0.4889066744
 40
1.0
 40
1.0
 40
1.0
 40
1.0
 10
38.9507183043
 20
78.0102494305
 30
0.0
 10
38.8948273022
 20
77.7371214686
 30
0.0
 10
38.7371880284
 20
77.1868495903
 30
0.0
 10
38.5085190025
 20
76.6626213102
 30
0.0
 10
38.3756642742
 20
76.4032248958
 30
0.0
  0
SPLINE
  5
2CD
100
AcDbEntity
  8
00_COMPONENTS_1
100
AcDbSpline
 62
7
  6
BYLAYER
 70
0
 71
3
 72
17
 73
13
 74
0
 42
0.0000001
 43
0.0000001
 44
0.0000000001
 40
0.0
 40
0.0
 40
0.0
 40
0.0
 40
0.1569553348
 40
0.3073972887
 40
0.448867685
 40
0.5795904972
 40
0.698725447
 40
0.8067284328
 40
0.8572427302
 40
0.9059175171
 40
0.9532949989
 40
1.0
 40
1.0
 40
1.0
 40
1.0
 10
25.4347604081
 20
51.5504731802
 30
0.0
 10
25.1737451777
 20
51.2008080568
 30
0.0
 10
24.6279767249
 20
50.5408659474
 30
0.0
 10
23.7324551427
 20
49.6682011838
 30
0.0
 10
22.7970995477
 20
48.9519432421
 30
0.0
 10
21.8476339675
 20
48.4125765856
 30
0.0
 10
20.9098095272
 20
48.065872538
 30
0.0
 10
20.1402380575
 20
47.9453780815
 30
0.0
 10
19.5630710651
 20
47.9626666248
 30
0.0
 10
19.1596297233
 20
48.0284005559
 30
0.0
 10
18.7794959515
 20
48.1468891785
 30
0.0
 10
18.5428454741
 20
48.2609113543
 30
0.0
 10
18.4304036254
 20
48.3258400466
 30
0.0
  0
SPLINE
  5
2CE
100
AcDbEntity
  8
00_COMPONENTS_1
100
AcDbSpline
 62
7
  6
BYLAYER
 70
0
 71
3
 72
13
 73
9
 74
0
 42
0.0000001
 43
0.0000001
 44
0.0000000001
 40
0.0
 40
0.0
 40
0.0
 40
0.0
 40
0.3013842115
 40
0.5659904404
 40
0.6844887907
 40
0.7948718855
 40
0.8990976332
 40
1.0
 40
1.0
 40
1.0
 40
1.0
 10
35.0646654149
 20
76.9690116896
 30
0.0
 10
35.0400570422
 20
76.8487555766
 30
0.0
 10
35.0127372448
 20
76.6183387198
 30
0.0
 10
35.0417005372
 20
76.3375046573
 30
0.0
 10
35.1079167152
 20
76.1468389446
 30
0.0
 10
35.1744280511
 20
76.0276539486
 30
0.0
 10
35.2588474736
 20
75.9295585591
 30
0.0
 10
35.3265925265
 20
75.8792412503
 30
0.0
 10
35.3621836766
 20
75.8586956488
 30
0.0
  0
SPLINE
  5
2CF
100
AcDbEntity
  8
00_COMPONENTS_1
100
AcDbSpline
 62
7
  6
BYLAYER
 70
0
 71
3
 72
15
 73
11
 74
0
 42
0.0000001
 43
0.0000001
 44
0.0000000001
 40
0.0
 40
0.0
 40
0.0
 40
0.0
 40
0.1548707754
 40
0.3014925673
 40
0.4387405862
 40
0.5663820664
 40
0.6847922524
 40
0.7950571218
 40
0.8991883003
 40
1.0
 40
1.0
 40
1.0
 40
1.0
 10
20.0686578273
 20
54.5290358262
 30
0.0
 10
20.0424531585
 20
54.4009789387
 30
0.0
 10
20.0024445
 20
54.1492366899
 30
0.0
 10
19.9808051482
 20
53.7789112148
 30
0.0
 10
19.9997565092
 20
53.4312652907
 30
0.0
 10
20.0591073955
 20
53.1121963135
 30
0.0
 10
20.1581150503
 20
52.826840976
 30
0.0
 10
20.2959488648
 20
52.5801716193
 30
0.0
 10
20.4706086416
 20
52.3769830995
 30
0.0
 10
20.6109388812
 20
52.272895733
 30
0.0
 10
20.6846193546
 20
52.230344393
 30
0.0
  0
SPLINE
  5
2D0
100
AcDbEntity
  8
00_COMPONENTS_1
100
AcDbSpline
 62
7
  6
BYLAYER
 70
0
 71
3
 72
12
 73
8
 74
0
 42
0.0000001
 43
0.0000001
 44
0.0000000001
 40
0.0
 40
0.0
 40
0.0
 40
0.0
 40
0.1124346265
 40
0.226439814
 40
0.4638988137
 40
0.720980961
 40
1.0
 40
1.0
 40
1.0
 40
1.0
 10
28.4036744036
 20
59.2162239954
 30
0.0
 10
28.462264594
 20
59.2319270832
 30
0.0
 10
28.5778058911
 20
59.2737033093
 30
0.0
 10
28.7966239853
 20
59.3971686279
 30
0.0
 10
29.0389105869
 20
59.626954399
 30
0.0
 10
29.2526898651
 20
59.9902807645
 30
0.0
 10
29.3385250516
 20
60.2692464878
 30
0.0
 10
29.3687030267
 20
60.4167201153
 30
0.0
  0
SPLINE
  5
2D1
100
AcDbEntity
  8
00_COMPONENTS_1
100
AcDbSpline
 62
7
  6
BYLAYER
 70
0
 71
3
 72
10
 73
6
 74
0
 42
0.0000001
 43
0.0000001
 44
0.0000000001
 40
0.0
 40
0.0
 40
0.0
 40
0.0
 40
0.2682997259
 40
0.5249324791
 40
1.0
 40
1.0
 40
1.0
 40
1.0
 10
27.3999874518
 20
62.4625187676
 30
0.0
 10
27.4180670602
 20
62.5508701375
 30
0.0
 10
27.4637101141
 20
62.7219626029
 30
0.0
 10
27.5913074028
 20
63.0333405272
 30
0.0
 10
27.7329920354
 20
63.2409131672
 30
0.0
 10
27.8452674395
 20
63.3544587326
 30
0.0
  0
SPLINE
  5
2D2
100
AcDbEntity
  8
00_COMPONENTS_1
100
AcDbSpline
 62
7
  6
BYLAYER
 70
0
 71
3
 72
11
 73
7
 74
0
 42
0.0000001
 43
0.0000001
 44
0.0000000001
 40
0.0
 40
0.0
 40
0.0
 40
0.0
 40
0.238035134
 40
0.4811476088
 40
0.7339168657
 40
1.0
 40
1.0
 40
1.0
 40
1.0
 10
58.4659995621
 20
40.0230282857
 30
0.0
 10
58.3794184764
 20
40.073015086
 30
0.0
 10
58.1947163953
 20
40.1581648321
 30
0.0
 10
57.8948768561
 20
40.2358292154
 30
0.0
 10
57.5746780038
 20
40.2632554289
 30
0.0
 10
57.3563728731
 20
40.2486744087
 30
0.0
 10
57.2456036385
 20
40.2338638077
 30
0.0
  0
SPLINE
  5
2D3
100
AcDbEntity
  8
00_COMPONENTS_1
100
AcDbSpline
 62
7
  6
BYLAYER
 70
0
 71
3
 72
9
 73
5
 74
0
 42
0.0000001
 43
0.0000001
 44
0.0000000001
 40
0.0
 40
0.0
 40
0.0
 40
0.0
 40
0.2560942008
 40
1.0
 40
1.0
 40
1.0
 40
1.0
 10
52.9342701689
 20
35.9466302596
 30
0.0
 10
52.8989531473
 20
35.853467717
 30
0.0
 10
52.767942395
 20
35.4871356638
 30
0.0
 10
52.6646196003
 20
35.1106908596
 30
0.0
 10
52.6065985764
 20
34.8271539145
 30
0.0
  0
SPLINE
  5
2D4
100
AcDbEntity
  8
00_COMPONENTS_1
100
AcDbSpline
 62
7
  6
BYLAYER
 70
0
 71
3
 72
11
 73
7
 74
0
 42
0.0000001
 43
0.0000001
 44
0.0000000001
 40
0.0
 40
0.0
 40
0.0
 40
0.0
 40
0.225278043
 40
0.4655826458
 40
0.723460289
 40
1.0
 40
1.0
 40
1.0
 40
1.0
 10
57.8568553879
 20
40.2205159203
 30
0.0
 10
57.9345445799
 20
40.1199101657
 30
0.0
 10
58.0746344248
 20
39.895604468
 30
0.0
 10
58.2288549265
 20
39.5158819217
 30
0.0
 10
58.3316686124
 20
39.0895883904
 30
0.0
 10
58.3639954584
 20
38.7889347181
 30
0.0
 10
58.3721975873
 20
38.6331159103
 30
0.0
  0
SPLINE
  5
2D5
100
AcDbEntity
  8
00_COMPONENTS_1
100
AcDbSpline
 62
7
  6
BYLAYER
 70
0
 71
3
 72
15
 73
11
 74
0
 42
0.0000001
 43
0.0000001
 44
0.0000000001
 40
0.0
 40
0.0
 40
0.0
 40
0.0
 40
0.1549226956
 40
0.3014845767
 40
0.4387228705
 40
0.5663862134
 40
0.6847874014
 40
0.795053586
 40
0.8991881606
 40
1.0
 40
1.0
 40
1.0
 40
1.0
 10
49.4979703853
 20
34.935487436
 30
0.0
 10
49.4366405539
 20
34.6357810216
 30
0.0
 10
49.3429469506
 20
34.0468240881
 30
0.0
 10
49.2924627019
 20
33.180420819
 30
0.0
 10
49.3367983916
 20
32.3671641648
 30
0.0
 10
49.4755242724
 20
31.6206190947
 30
0.0
 10
49.7072986909
 20
30.9530116936
 30
0.0
 10
50.0296978059
 20
30.3758611967
 30
0.0
 10
50.438389792
 20
29.9005089533
 30
0.0
 10
50.7666750817
 20
29.6569244396
 30
0.0
 10
50.9390656806
 20
29.5573787983
 30
0.0
  0
SPLINE
  5
2D6
100
AcDbEntity
  8
00_COMPONENTS_1
100
AcDbSpline
 62
7
  6
BYLAYER
 70
0
 71
3
 72
11
 73
7
 74
0
 42
0.0000001
 43
0.0000001
 44
0.0000000001
 40
0.0
 40
0.0
 40
0.0
 40
0.0
 40
0.2324611266
 40
0.4726068369
 40
0.727085087
 40
1.0
 40
1.0
 40
1.0
 40
1.0
 10
51.4040595688
 20
43.1738231728
 30
0.0
 10
51.3345629844
 20
43.2139606695
 30
0.0
 10
51.1833398214
 20
43.2794816833
 30
0.0
 10
50.9349030696
 20
43.3264169874
 30
0.0
 10
50.6684112287
 20
43.3225258367
 30
0.0
 10
50.4886765367
 20
43.2881276189
 30
0.0
 10
50.3976661075
 20
43.26374208
 30
0.0
  0
SPLINE
  5
2D7
100
AcDbEntity
  8
00_COMPONENTS_1
100
AcDbSpline
 62
7
  6
BYLAYER
 70
0
 71
3
 72
9
 73
5
 74
0
 42
0.0000001
 43
0.0000001
 44
0.0000000001
 40
0.0
 40
0.0
 40
0.0
 40
0.0
 40
0.5240713608
 40
1.0
 40
1.0
 40
1.0
 40
1.0
 10
54.1719428941
 20
32.0084464924
 30
0.0
 10
53.981058489
 20
31.9434897343
 30
0.0
 10
53.6044432156
 20
31.8514369772
 30
0.0
 10
53.2148303683
 20
31.8486454572
 30
0.0
 10
53.0334119393
 20
31.8734865354
 30
0.0
  0
SPLINE
  5
2D8
100
AcDbEntity
  8
00_COMPONENTS_1
100
AcDbSpline
 62
7
  6
BYLAYER
 70
0
 71
3
 72
10
 73
6
 74
0
 42
0.0000001
 43
0.0000001
 44
0.0000000001
 40
0.0
 40
0.0
 40
0.0
 40
0.0
 40
0.454381845
 40
0.7167964412
 40
1.0
 40
1.0
 40
1.0
 40
1.0
 10
50.7521096032
 20
43.3094343976
 30
0.0
 10
50.8664741342
 20
43.080499303
 30
0.0
 10
50.9547443657
 20
42.672838174
 30
0.0
 10
50.9480663884
 20
42.1097945182
 30
0.0
 10
50.9035798998
 20
41.804415295
 30
0.0
 10
50.8716031029
 20
41.6481511912
 30
0.0
  0
SPLINE
  5
2D9
100
AcDbEntity
  8
00_COMPONENTS_1
100
AcDbSpline
 62
7
  6
BYLAYER
 70
0
 71
3
 72
13
 73
9
 74
0
 42
0.0000001
 43
0.0000001
 44
0.0000000001
 40
0.0
 40
0.0
 40
0.0
 40
0.0
 40
0.0888037046
 40
0.1827805939
 40
0.2860592106
 40
0.4014244839
 40
0.6731827227
 40
1.0
 40
1.0
 40
1.0
 40
1.0
 10
15.3270459595
 20
80.8685942669
 30
0.0
 10
15.3224020381
 20
80.8459317817
 30
0.0
 10
15.3193394642
 20
80.7977265144
 30
0.0
 10
15.3341892325
 20
80.7240047819
 30
0.0
 10
15.3673350833
 20
80.6490394679
 30
0.0
 10
15.4390453494
 20
80.5426947593
 30
0.0
 10
15.5749512352
 20
80.4130436162
 30
0.0
 10
15.705440969
 20
80.3267348801
 30
0.0
 10
15.7791713533
 20
80.2841675858
 30
0.0
  0
SPLINE
  5
2DA
100
AcDbEntity
  8
00_COMPONENTS_1
100
AcDbSpline
 62
7
  6
BYLAYER
 70
0
 71
3
 72
13
 73
9
 74
0
 42
0.0000001
 43
0.0000001
 44
0.0000000001
 40
0.0
 40
0.0
 40
0.0
 40
0.0
 40
0.0976134951
 40
0.1986846279
 40
0.3062275353
 40
0.4226219062
 40
0.6876035047
 40
1.0
 40
1.0
 40
1.0
 40
1.0
 10
13.7633483181
 20
81.1855695586
 30
0.0
 10
13.7704949758
 20
81.2204981699
 30
0.0
 10
13.7927300104
 20
81.2902343723
 30
0.0
 10
13.8479715487
 20
81.3882565948
 30
0.0
 10
13.9245427374
 20
81.4797390742
 30
0.0
 10
14.0598850605
 20
81.5971766959
 30
0.0
 10
14.2833216997
 20
81.7217701193
 30
0.0
 10
14.483978158
 20
81.7892998656
 30
0.0
 10
14.5941898602
 20
81.8188302367
 30
0.0
  0
SPLINE
  5
2DB
100
AcDbEntity
  8
00_COMPONENTS_1
100
AcDbSpline
 62
7
  6
BYLAYER
 70
0
 71
3
 72
15
 73
11
 74
0
 42
0.0000001
 43
0.0000001
 44
0.0000000001
 40
0.0
 40
0.0
 40
0.0
 40
0.0
 40
0.0887402973
 40
0.1826340189
 40
0.285864933
 40
0.4011638088
 40
0.5300537111
 40
0.6730978413
 40
0.8301186671
 40
1.0
 40
1.0
 40
1.0
 40
1.0
 10
9.6959079531
 20
61.3088156303
 30
0.0
 10
9.6866336342
 20
61.263488277
 30
0.0
 10
9.6805917971
 20
61.1670921601
 30
0.0
 10
9.7101435092
 20
61.0196142939
 30
0.0
 10
9.7765862884
 20
60.8697313318
 30
0.0
 10
9.8781150512
 20
60.7188565964
 30
0.0
 10
10.0134448499
 20
60.5683322322
 30
0.0
 10
10.1809334365
 20
60.4195526338
 30
0.0
 10
10.378616879
 20
60.2743234082
 30
0.0
 10
10.5235008677
 20
60.1842372191
 30
0.0
 10
10.6002058895
 20
60.139952556
 30
0.0
  0
SPLINE
  5
2DC
100
AcDbEntity
  8
00_COMPONENTS_1
100
AcDbSpline
 62
7
  6
BYLAYER
 70
0
 71
3
 72
9
 73
5
 74
0
 42
0.0000001
 43
0.0000001
 44
0.0000000001
 40
0.0
 40
0.0
 40
0.0
 40
0.0
 40
0.2538754071
 40
1.0
 40
1.0
 40
1.0
 40
1.0
 10
37.1213765193
 20
78.5661896484
 30
0.0
 10
37.1115571157
 20
78.5769661254
 30
0.0
 10
37.0713509658
 20
78.617990024
 30
0.0
 10
37.0248570781
 20
78.6528993381
 30
0.0
 10
36.9877488043
 20
78.6743207252
 30
0.0
  0
SPLINE
  5
2DD
100
AcDbEntity
  8
00_COMPONENTS_1
100
AcDbSpline
 62
7
  6
BYLAYER
 70
0
 71
3
 72
18
 73
14
 74
0
 42
0.0000001
 43
0.0000001
 44
0.0000000001
 40
0.0
 40
0.0
 40
0.0
 40
0.0
 40
0.1324735037
 40
0.2711038862
 40
0.4110490037
 40
0.5471725245
 40
0.6751116431
 40
0.7352300137
 40
0.7925493669
 40
0.8472038674
 40
0.8995668994
 40
0.9502344226
 40
1.0
 40
1.0
 40
1.0
 40
1.0
 10
26.324383527
 20
62.1743190358
 30
0.0
 10
26.2873277342
 20
61.9932349116
 30
0.0
 10
26.2554871048
 20
61.6127829685
 30
0.0
 10
26.3236085168
 20
61.0399435213
 30
0.0
 10
26.5005703014
 20
60.4852237266
 30
0.0
 10
26.7740253734
 20
59.9881673763
 30
0.0
 10
27.0737577005
 20
59.6433937344
 30
0.0
 10
27.3440181422
 20
59.4317541499
 30
0.0
 10
27.5523515586
 20
59.3106572467
 30
0.0
 10
27.7666543245
 20
59.2264437422
 30
0.0
 10
27.9830485765
 20
59.1808437139
 30
0.0
 10
28.1973420382
 20
59.1751746341
 30
0.0
 10
28.3366049597
 20
59.198248335
 30
0.0
 10
28.4036744036
 20
59.2162239954
 30
0.0
  0
SPLINE
  5
2DE
100
AcDbEntity
  8
00_COMPONENTS_1
100
AcDbSpline
 62
7
  6
BYLAYER
 70
0
 71
3
 72
14
 73
10
 74
0
 42
0.0000001
 43
0.0000001
 44
0.0000000001
 40
0.0
 40
0.0
 40
0.0
 40
0.0
 40
0.1000508094
 40
0.2035969343
 40
0.3135681069
 40
0.4319934518
 40
0.5599742159
 40
0.6977473457
 40
1.0
 40
1.0
 40
1.0
 40
1.0
 10
20.6846193546
 20
52.230344393
 30
0.0
 10
20.7605824087
 20
52.1864748359
 30
0.0
 10
20.9264090916
 20
52.1153857088
 30
0.0
 10
21.1990991183
 20
52.0667357767
 30
0.0
 10
21.491822825
 20
52.0752784755
 30
0.0
 10
21.7989646254
 20
52.1397999173
 30
0.0
 10
22.1153576857
 20
52.2586475448
 30
0.0
 10
22.5557464738
 20
52.4933408812
 30
0.0
 10
22.8626719431
 20
52.7329990151
 30
0.0
 10
23.0570155159
 20
52.913158532
 30
0.0
  0
SPLINE
  5
2DF
100
AcDbEntity
  8
00_COMPONENTS_1
100
AcDbSpline
 62
7
  6
BYLAYER
 70
0
 71
3
 72
9
 73
5
 74
0
 42
0.0000001
 43
0.0000001
 44
0.0000000001
 40
0.0
 40
0.0
 40
0.0
 40
0.0
 40
0.2478177304
 40
1.0
 40
1.0
 40
1.0
 40
1.0
 10
35.3621836766
 20
75.8586956488
 30
0.0
 10
35.3745781476
 20
75.8515407279
 30
0.0
 10
35.4257242974
 20
75.824656591
 30
0.0
 10
35.4811405791
 20
75.8060537442
 30
0.0
 10
35.5235902888
 20
75.7968393628
 30
0.0
  0
SPLINE
  5
2E0
100
AcDbEntity
  8
00_COMPONENTS_1
100
AcDbSpline
 62
7
  6
BYLAYER
 70
0
 71
3
 72
15
 73
11
 74
0
 42
0.0000001
 43
0.0000001
 44
0.0000000001
 40
0.0
 40
0.0
 40
0.0
 40
0.0
 40
0.154870819
 40
0.3014943246
 40
0.4387411934
 40
0.5663801717
 40
0.6847887473
 40
0.7950540161
 40
0.8991870792
 40
1.0
 40
1.0
 40
1.0
 40
1.0
 10
51.9851594981
 20
41.005253651
 30
0.0
 10
52.0098808522
 20
41.1260618812
 30
0.0
 10
52.0476231824
 20
41.3635558446
 30
0.0
 10
52.0680386711
 20
41.7129193896
 30
0.0
 10
52.0501581748
 20
42.0408850956
 30
0.0
 10
51.9941674424
 20
42.3418889434
 30
0.0
 10
51.9007644048
 20
42.611088422
 30
0.0
 10
51.7707379247
 20
42.8437980573
 30
0.0
 10
51.6059632811
 20
43.0354893119
 30
0.0
 10
51.4735691426
 20
43.133678174
 30
0.0
 10
51.4040595688
 20
43.1738231728
 30
0.0
  0
SPLINE
  5
2E1
100
AcDbEntity
  8
00_COMPONENTS_1
100
AcDbSpline
 62
7
  6
BYLAYER
 70
0
 71
3
 72
9
 73
5
 74
0
 42
0.0000001
 43
0.0000001
 44
0.0000000001
 40
0.0
 40
0.0
 40
0.0
 40
0.0
 40
0.489131886
 40
1.0
 40
1.0
 40
1.0
 40
1.0
 10
53.5130932463
 20
31.4441488242
 30
0.0
 10
53.6400937905
 20
31.3708262181
 30
0.0
 10
53.9212450188
 20
31.2557042873
 30
0.0
 10
54.2216971052
 20
31.2161598335
 30
0.0
 10
54.3748218122
 20
31.2127014898
 30
0.0
  0
SPLINE
  5
2E2
100
AcDbEntity
  8
00_COMPONENTS_1
100
AcDbSpline
 62
7
  6
BYLAYER
 70
0
 71
3
 72
15
 73
11
 74
0
 42
0.0000001
 43
0.0000001
 44
0.0000000001
 40
0.0
 40
0.0
 40
0.0
 40
0.0
 40
0.1008106305
 40
0.204944213
 40
0.3152098796
 40
0.4336111404
 40
0.5612747328
 40
0.6985137573
 40
0.8450772023
 40
1.0
 40
1.0
 40
1.0
 40
1.0
 10
52.0526225244
 20
28.914482058
 30
0.0
 10
51.880234011
 20
29.0140264968
 30
0.0
 10
51.5519513678
 20
29.257606901
 30
0.0
 10
51.1432611409
 20
29.7329536217
 30
0.0
 10
50.8208626234
 20
30.3101011156
 30
0.0
 10
50.5890861356
 20
30.9777071651
 30
0.0
 10
50.4503554928
 20
31.7242534587
 30
0.0
 10
50.4060190897
 20
32.537515183
 30
0.0
 10
50.4565036935
 20
33.4039230405
 30
0.0
 10
50.5501969148
 20
33.9928833141
 30
0.0
 10
50.6115267805
 20
34.2925898958
 30
0.0
  0
SPLINE
  5
2E3
100
AcDbEntity
  8
00_COMPONENTS_1
100
AcDbSpline
 62
7
  6
BYLAYER
 70
0
 71
3
 72
15
 73
11
 74
0
 42
0.0000001
 43
0.0000001
 44
0.0000000001
 40
0.0
 40
0.0
 40
0.0
 40
0.0
 40
0.1008106305
 40
0.204944213
 40
0.3152098796
 40
0.4336111404
 40
0.5612747328
 40
0.6985137573
 40
0.8450772023
 40
1.0
 40
1.0
 40
1.0
 40
1.0
 10
18.4304036254
 20
48.3258400466
 30
0.0
 10
18.2580151119
 20
48.4253844853
 30
0.0
 10
17.9297324687
 20
48.6689648895
 30
0.0
 10
17.5210422418
 20
49.1443116102
 30
0.0
 10
17.1986437243
 20
49.7214591041
 30
0.0
 10
16.9668672366
 20
50.3890651536
 30
0.0
 10
16.8281365937
 20
51.1356114472
 30
0.0
 10
16.7838001907
 20
51.9488731716
 30
0.0
 10
16.8342847944
 20
52.8152810291
 30
0.0
 10
16.9279780158
 20
53.4042413026
 30
0.0
 10
16.9893078814
 20
53.7039478843
 30
0.0
  0
SPLINE
  5
2E4
100
AcDbEntity
  8
00_COMPONENTS_1
100
AcDbSpline
 62
7
  6
BYLAYER
 70
0
 71
3
 72
10
 73
6
 74
0
 42
0.0000001
 43
0.0000001
 44
0.0000000001
 40
0.0
 40
0.0
 40
0.0
 40
0.0
 40
0.5125520026
 40
0.7579991288
 40
1.0
 40
1.0
 40
1.0
 40
1.0
 10
59.1509019794
 20
39.2991983002
 30
0.0
 10
59.0688573592
 20
39.4505174734
 30
0.0
 10
58.9201166185
 20
39.6619075205
 30
0.0
 10
58.6722716355
 20
39.8898043669
 30
0.0
 10
58.5363826814
 20
39.9823932336
 30
0.0
 10
58.4659995621
 20
40.0230282857
 30
0.0
  0
SPLINE
  5
2E5
100
AcDbEntity
  8
00_COMPONENTS_1
100
AcDbSpline
 62
7
  6
BYLAYER
 70
0
 71
3
 72
12
 73
8
 74
0
 42
0.0000001
 43
0.0000001
 44
0.0000000001
 40
0.0
 40
0.0
 40
0.0
 40
0.0
 40
0.1124346265
 40
0.226439814
 40
0.4638988137
 40
0.720980961
 40
1.0
 40
1.0
 40
1.0
 40
1.0
 10
27.2894121502
 20
63.3748151557
 30
0.0
 10
27.2308219597
 20
63.3591120679
 30
0.0
 10
27.1152806626
 20
63.3173358418
 30
0.0
 10
26.8964625684
 20
63.1938705232
 30
0.0
 10
26.6541759668
 20
62.9640847521
 30
0.0
 10
26.4403966886
 20
62.6007583866
 30
0.0
 10
26.3545615021
 20
62.3217926633
 30
0.0
 10
26.324383527
 20
62.1743190358
 30
0.0
  0
SPLINE
  5
2E6
100
AcDbEntity
  8
00_COMPONENTS_1
100
AcDbSpline
 62
7
  6
BYLAYER
 70
0
 71
3
 72
15
 73
11
 74
0
 42
0.0000001
 43
0.0000001
 44
0.0000000001
 40
0.0
 40
0.0
 40
0.0
 40
0.0
 40
0.1040306882
 40
0.2215026445
 40
0.3492501944
 40
0.4834727478
 40
0.6199326326
 40
0.7542574896
 40
0.8822462642
 40
1.0
 40
1.0
 40
1.0
 40
1.0
 10
49.3299651544
 20
61.7645747079
 30
0.0
 10
49.1833016702
 20
61.7252773645
 30
0.0
 10
48.8638928373
 20
61.6678340522
 30
0.0
 10
48.3542750154
 20
61.6369749242
 30
0.0
 10
47.8000426213
 20
61.6570382838
 30
0.0
 10
47.2221419558
 20
61.7273452341
 30
0.0
 10
46.6423001966
 20
61.8454101297
 30
0.0
 10
46.0823753911
 20
62.0067050604
 30
0.0
 10
45.5636380049
 20
62.2051147344
 30
0.0
 10
45.2417220745
 20
62.3651549109
 30
0.0
 10
45.0928806643
 20
62.4510865951
 30
0.0
  0
SPLINE
  5
2E7
100
AcDbEntity
  8
00_COMPONENTS_1
100
AcDbSpline
 62
7
  6
BYLAYER
 70
0
 71
3
 72
15
 73
11
 74
0
 42
0.0000001
 43
0.0000001
 44
0.0000000001
 40
0.0
 40
0.0
 40
0.0
 40
0.0
 40
0.1698813329
 40
0.3269021587
 40
0.4699462889
 40
0.5988361912
 40
0.714135067
 40
0.8173659811
 40
0.9112597027
 40
1.0
 40
1.0
 40
1.0
 40
1.0
 10
14.6676462545
 20
80.0167064843
 30
0.0
 10
14.5909412328
 20
80.0609911474
 30
0.0
 10
14.4460572441
 20
80.1510773365
 30
0.0
 10
14.2483738016
 20
80.2963065621
 30
0.0
 10
14.080885215
 20
80.4450861605
 30
0.0
 10
13.9455554162
 20
80.5956105247
 30
0.0
 10
13.8440266535
 20
80.7464852601
 30
0.0
 10
13.7775838743
 20
80.8963682222
 30
0.0
 10
13.7480321622
 20
81.0438460884
 30
0.0
 10
13.7540739993
 20
81.1402422053
 30
0.0
 10
13.7633483181
 20
81.1855695586
 30
0.0
  0
SPLINE
  5
2E8
100
AcDbEntity
  8
00_COMPONENTS_1
100
AcDbSpline
 62
7
  6
BYLAYER
 70
0
 71
3
 72
12
 73
8
 74
0
 42
0.0000001
 43
0.0000001
 44
0.0000000001
 40
0.0
 40
0.0
 40
0.0
 40
0.0
 40
0.3125105974
 40
0.5778053293
 40
0.8011997965
 40
0.9023191051
 40
1.0
 40
1.0
 40
1.0
 40
1.0
 10
15.7424431561
 20
81.185229462
 30
0.0
 10
15.6873564671
 20
81.1704694108
 30
0.0
 10
15.5869584981
 20
81.1365926181
 30
0.0
 10
15.4583044416
 20
81.0650591688
 30
0.0
 10
15.3797403159
 20
80.9884684035
 30
0.0
 10
15.3417195314
 20
80.9209250013
 30
0.0
 10
15.3306243884
 20
80.8860571146
 30
0.0
 10
15.3270459595
 20
80.8685942669
 30
0.0
  0
ELLIPSE
  5
2E9
100
AcDbEntity
  8
00_COMPONENTS_2
100
AcDbEllipse
 62
7
  6
BYLAYER
 10
38.3964009164
 20
72.7069462425
 30
0.0
 11
3.0479927816
 21
0.0115405001
 31
0.0
 40
0.5748012363
 41
1.2058650403
 42
1.9464232151
  0
ENDSEC
  0
SECTION
  2
OBJECTS
  0
DICTIONARY
  5
C
100
AcDbDictionary
280
0
281
1
  3
ACAD_GROUP
350
D
  3
ACAD_MLINESTYLE
350
17
  3
ACAD_LAYOUT
350
1A
  3
ACAD_PLOTSETTINGS
350
19
  3
ACAD_PLOTSTYLENAME
350
E
  0
DICTIONARY
  5
D
102
{ACAD_REACTORS
330
C
102
}
100
AcDbDictionary
280
0
281
1
  0
ACDBDICTIONARYWDFLT
  5
E
102
{ACAD_REACTORS
330
C
102
}
100
AcDbDictionary
281
1
  3
Normal
350
F
100
AcDbDictionaryWithDefault
340
F
  0
DICTIONARY
  5
17
102
{ACAD_REACTORS
330
C
102
}
100
AcDbDictionary
280
0
281
1
  3
Standard
350
18
  0
DICTIONARY
  5
19
102
{ACAD_REACTORS
330
C
102
}
100
AcDbDictionary
281
1
  0
DICTIONARY
  5
1A
102
{ACAD_REACTORS
330
C
102
}
100
AcDbDictionary
281
1
  3
Model
350
2EA
  3
Layout1
350
2EB
  0
ACDBPLACEHOLDER
  5
F
102
{ACAD_REACTORS
330
E
102
}
  0
MLINESTYLE
  5
18
102
{ACAD_REACTORS
330
17
102
}
100
AcDbMlineStyle
  2
STANDARD
 70
0
  3

 62
256
 51
90.0
 52
90.0
 71
2
 49
0.5
 62
256
  6
BYLAYER
 49
-0.5
 62
256
  6
BYLAYER
  0
LAYOUT
  5
2EA
102
{ACAD_REACTORS
330
1A
102
}
100
AcDbPlotSettings
  1

  2
none_device
  4

  6

 40
0.0
 41
0.0
 42
0.0
 43
0.0
 44
210.0
 45
297.0
 46
0.0
 47
0.0
 48
0.0
 49
0.0
140
0.0
141
0.0
142
1.0
143
1.0
 70
1024
 72
1
 73
0
 74
0
  7

 75
0
147
1.0
148
0.0
149
0.0
100
AcDbLayout
  1
Model
 70
0
 71
0
 10
0.0
 20
0.0
 11
210.0
 21
297.0
 12
0.0
 22
0.0
 32
0.0
 14
0.0
 24
0.0
 34
0.0
 15
0.0
 25
0.0
 35
0.0
146
0.0
 13
0.0
 23
0.0
 33
0.0
 16
1.0
 26
0.0
 36
0.0
 17
0.0
 27
1.0
 37
0.0
 76
0
330
21A
345
0
346
0
  0
LAYOUT
  5
2EB
102
{ACAD_REACTORS
330
1A
102
}
100
AcDbPlotSettings
  1

  2
none_device
  4

  6

 40
0.0
 41
0.0
 42
0.0
 43
0.0
 44
210.0
 45
297.0
 46
0.0
 47
0.0
 48
0.0
 49
0.0
140
0.0
141
0.0
142
1.0
143
1.0
 70
0
 72
1
 73
0
 74
0
  7

 75
0
147
1.0
148
0.0
149
0.0
100
AcDbLayout
  1
Layout1
 70
0
 71
1
 10
0.0
 20
0.0
 11
210.0
 21
297.0
 12
0.0
 22
0.0
 32
0.0
 14
0.0
 24
0.0
 34
0.0
 15
0.0
 25
0.0
 35
0.0
146
0.0
 13
0.0
 23
0.0
 33
0.0
 16
1.0
 26
0.0
 36
0.0
 17
0.0
 27
1.0
 37
0.0
 76
0
330
21B
345
0
346
0
  0
ENDSEC
  0
EOF
