999
DXF file: C:\Users\sesa63760\Dev\_Creo\CAD\MCADUE0002387_3D-CAD\drw0001_4.dxf
999
Pro/ENGINEER 2019471 by Parametric Technology Corporation
  0
SECTION
  2
HEADER
  9
$ACADVER
  1
AC1024
  9
$DWGCODEPAGE
  3
ANSI_1252
  9
$EXTMAX
 10
747.3063173711
 20
1056.9046488534
 30
0.0
  9
$EXTMIN
 10
0.0
 20
0.0
 30
0.0
  9
$LIMMIN
 10
0.0
 20
0.0
  9
$LIMMAX
 10
747.3063173711
 20
1056.9046488534
  9
$VIEWCTR
 10
373.6531586855
 20
528.4523244267
  9
$VIEWSIZE
 40
1056.9046488534
  9
$CLAYER
  8
0
  9
$LTSCALE
 40
68.8945252586
  9
$CELTYPE
  6
BYLAYER
  9
$DIMSCALE
 40
1.0
  9
$DIMASZ
 40
8.8965037782
  9
$DIMEXO
 40
1.0
  9
$DIMDLI
 40
47.599853815
  9
$DIMEXE
 40
1.0
  9
$DIMCEN
 40
11.2736495878
  9
$DIMLFAC
 40
1.0
  9
$DIMBLK
  1
_FILLED
  9
$DIMALT
 70
0
  9
$DIMALTF
 40
0.0393700787
  9
$DIMTXT
 40
12.4551052895
  9
$DIMTOL
 70
1
  9
$DIMLIM
 70
0
  9
$DIMTFAC
 40
1.0
  9
$DIMTP
 40
0.01
  9
$DIMTM
 40
0.01
  9
$DIMGAP
 40
0.625
  9
$DIMDSEP
 70
46
  9
$AUNITS
 70
0
  9
$PDMODE
 70
3
  9
$PDSIZE
 40
0.3125
  9
$HANDSEED
  5
3F7
  9
$TILEMODE
 70
1
  9
$MEASUREMENT
 70
1
  9
$INSUNITS
 70
4
  0
ENDSEC
  0
SECTION
  2
CLASSES
  0
CLASS
  1
ACDBDICTIONARYWDFLT
  2
AcDbDictionaryWithDefault
  3
AutoCAD 2000
 90
0
 91
1
280
0
281
0
  0
CLASS
  1
ACDBPLACEHOLDER
  2
AcDbPlaceHolder
  3
AutoCAD 2000
 90
0
 91
1
280
0
281
0
  0
CLASS
  1
LAYOUT
  2
AcDbLayout
  3
AutoCAD 2000
 90
0
 91
0
280
0
281
0
  0
ENDSEC
  0
SECTION
  2
TABLES
  0
TABLE
  2
VPORT
  5
8
100
AcDbSymbolTable
 70
2
  0
VPORT
  5
1F4
100
AcDbSymbolTableRecord
100
AcDbViewportTableRecord
  2
*ACTIVE
 70
0
 10
0.0
 20
0.0
 11
1.0
 21
1.0
 12
373.6531586855
 22
528.4523244267
 13
0.0
 23
0.0
 14
1.0
 24
1.0
 15
0.0
 25
0.0
 16
0.0
 26
0.0
 36
1.0
 17
0.0
 27
0.0
 37
0.0
 40
1056.9046488534
 41
0.7070707071
 42
50.0
 43
0.0
 44
0.0
 50
0.0
 51
0.0
 71
0
 72
100
 73
1
 74
1
 75
0
 76
0
 77
0
 78
0
  0
ENDTAB
  0
TABLE
  2
LTYPE
  5
5
100
AcDbSymbolTable
 70
6
  0
LTYPE
  5
14
100
AcDbSymbolTableRecord
100
AcDbLinetypeTableRecord
  2
BYBLOCK
 70
0
  3

 72
65
 73
0
 40
0.0
  0
LTYPE
  5
15
100
AcDbSymbolTableRecord
100
AcDbLinetypeTableRecord
  2
BYLAYER
 70
0
  3

 72
65
 73
0
 40
0.0
  0
LTYPE
  5
16
100
AcDbSymbolTableRecord
100
AcDbLinetypeTableRecord
  2
CONTINUOUS
 70
64
  3
Solid line
 72
65
 73
0
 40
0.0
  0
LTYPE
  5
1F5
100
AcDbSymbolTableRecord
100
AcDbLinetypeTableRecord
  2
CENTER
 70
64
  3
____ _ ____ _ ____ _ ____ _ ____ _ ____ _ ____
 72
65
 73
4
 40
0.6
 49
0.375
 74
0
 49
-0.075
 74
0
 49
0.075
 74
0
 49
-0.075
 74
0
  0
LTYPE
  5
1F6
100
AcDbSymbolTableRecord
100
AcDbLinetypeTableRecord
  2
HIDDEN
 70
64
  3
- - - - - - - - - - - - - - - - - - - -
 72
65
 73
2
 40
0.2
 49
0.1
 74
0
 49
-0.1
 74
0
  0
LTYPE
  5
1F7
100
AcDbSymbolTableRecord
100
AcDbLinetypeTableRecord
  2
PHANTOM
 70
64
  3
_____ _ _ _____ _ _ _____ _ _ _____
 72
65
 73
6
 40
0.8
 49
0.45
 74
0
 49
-0.05
 74
0
 49
0.1
 74
0
 49
-0.05
 74
0
 49
0.1
 74
0
 49
-0.05
 74
0
  0
LTYPE
  5
1F8
100
AcDbSymbolTableRecord
100
AcDbLinetypeTableRecord
  2
DOT
 70
64
  3
. . . . . . . . . . . . . . . . . . . .
 72
65
 73
2
 40
0.2
 49
0.1
 74
0
 49
-0.1
 74
0
  0
LTYPE
  5
1F9
100
AcDbSymbolTableRecord
100
AcDbLinetypeTableRecord
  2
DASHED
 70
64
  3
- - - - - - - - - - - - - - - - - - - -
 72
65
 73
2
 40
0.2
 49
0.1
 74
0
 49
-0.1
 74
0
  0
ENDTAB
  0
TABLE
  2
LAYER
  5
2
100
AcDbSymbolTable
 70
36
  0
LAYER
  5
10
100
AcDbSymbolTableRecord
100
AcDbLayerTableRecord
  2
0
 70
0
 62
7
  6
CONTINUOUS
370
-3
390
F
  0
LAYER
  5
1FA
100
AcDbSymbolTableRecord
100
AcDbLayerTableRecord
  2
DEFAULT_1
 70
0
 62
7
  6
CENTER
370
-3
390
F
  0
LAYER
  5
1FB
100
AcDbSymbolTableRecord
100
AcDbLayerTableRecord
  2
DEFAULT_2
 70
0
 62
8
  6
HIDDEN
370
-3
390
F
  0
LAYER
  5
1FC
100
AcDbSymbolTableRecord
100
AcDbLayerTableRecord
  2
DEFAULT_3
 70
0
 62
7
  6
PHANTOM
370
-3
390
F
  0
LAYER
  5
1FD
100
AcDbSymbolTableRecord
100
AcDbLayerTableRecord
  2
00_COMPONENTS
 70
0
 62
7
  6
CONTINUOUS
370
-3
390
F
  0
LAYER
  5
1FE
100
AcDbSymbolTableRecord
100
AcDbLayerTableRecord
  2
01_1_DEFAULT_DATUMS
 70
0
 62
7
  6
CONTINUOUS
370
-3
390
F
  0
LAYER
  5
1FF
100
AcDbSymbolTableRecord
100
AcDbLayerTableRecord
  2
01_PLANES
 70
0
 62
7
  6
CONTINUOUS
370
-3
390
F
  0
LAYER
  5
200
100
AcDbSymbolTableRecord
100
AcDbLayerTableRecord
  2
02_COORD_SYS
 70
0
 62
7
  6
CONTINUOUS
370
-3
390
F
  0
LAYER
  5
201
100
AcDbSymbolTableRecord
100
AcDbLayerTableRecord
  2
03_AXES
 70
0
 62
7
  6
CONTINUOUS
370
-3
390
F
  0
LAYER
  5
202
100
AcDbSymbolTableRecord
100
AcDbLayerTableRecord
  2
04_POINTS
 70
0
 62
7
  6
CONTINUOUS
370
-3
390
F
  0
LAYER
  5
203
100
AcDbSymbolTableRecord
100
AcDbLayerTableRecord
  2
05_CURVES
 70
0
 62
7
  6
CONTINUOUS
370
-3
390
F
  0
LAYER
  5
204
100
AcDbSymbolTableRecord
100
AcDbLayerTableRecord
  2
06_SURFS
 70
0
 62
7
  6
CONTINUOUS
370
-3
390
F
  0
LAYER
  5
205
100
AcDbSymbolTableRecord
100
AcDbLayerTableRecord
  2
07_COSMETICS
 70
0
 62
7
  6
CONTINUOUS
370
-3
390
F
  0
LAYER
  5
206
100
AcDbSymbolTableRecord
100
AcDbLayerTableRecord
  2
10_NOTES
 70
0
 62
7
  6
CONTINUOUS
370
-3
390
F
  0
LAYER
  5
207
100
AcDbSymbolTableRecord
100
AcDbLayerTableRecord
  2
11_NOTES_PUB
 70
0
 62
7
  6
CONTINUOUS
370
-3
390
F
  0
LAYER
  5
208
100
AcDbSymbolTableRecord
100
AcDbLayerTableRecord
  2
13_REF_GTOL
 70
0
 62
7
  6
CONTINUOUS
370
-3
390
F
  0
LAYER
  5
209
100
AcDbSymbolTableRecord
100
AcDbLayerTableRecord
  2
16_MISC
 70
0
 62
7
  6
CONTINUOUS
370
-3
390
F
  0
LAYER
  5
20A
100
AcDbSymbolTableRecord
100
AcDbLayerTableRecord
  2
17_NO_PRINT
 70
0
 62
7
  6
CONTINUOUS
370
-3
390
F
  0
LAYER
  5
20B
100
AcDbSymbolTableRecord
100
AcDbLayerTableRecord
  2
18_DATUM_CAMS_JOINTS
 70
0
 62
7
  6
CONTINUOUS
370
-3
390
F
  0
LAYER
  5
20C
100
AcDbSymbolTableRecord
100
AcDbLayerTableRecord
  2
19_DATUM_FUNCTIONAL
 70
0
 62
7
  6
CONTINUOUS
370
-3
390
F
  0
LAYER
  5
20D
100
AcDbSymbolTableRecord
100
AcDbLayerTableRecord
  2
20_DATUM_KINEMATIC_SCHEME
 70
0
 62
7
  6
CONTINUOUS
370
-3
390
F
  0
ENDTAB
  0
TABLE
  2
STYLE
  5
3
100
AcDbSymbolTable
 70
1
  0
STYLE
  5
11
100
AcDbSymbolTableRecord
100
AcDbTextStyleTableRecord
  2
STANDARD
 70
0
 40
0.0
 41
0.8
 50
0.0
 71
0
 42
0.2
  3
txt
  4

  0
STYLE
  5
20E
100
AcDbSymbolTableRecord
100
AcDbTextStyleTableRecord
  2
TEXTSTYLE_1
 70
0
 40
0.0
 41
0.8
 50
0.0
 71
0
 42
0.2
  3
gdt
  4

  0
ENDTAB
  0
TABLE
  2
VIEW
  5
6
100
AcDbSymbolTable
 70
0
  0
ENDTAB
  0
TABLE
  2
UCS
  5
7
100
AcDbSymbolTable
 70
0
  0
ENDTAB
  0
TABLE
  2
APPID
  5
9
100
AcDbSymbolTable
 70
1
  0
APPID
  5
20F
100
AcDbSymbolTableRecord
100
AcDbRegAppTableRecord
  2
ACAD
 70
0
  0
ENDTAB
  0
TABLE
  2
BLOCK_RECORD
  5
1
100
AcDbSymbolTable
 70
0
  0
BLOCK_RECORD
  5
210
100
AcDbSymbolTableRecord
100
AcDbBlockTableRecord
  2
*Model_Space
  0
BLOCK_RECORD
  5
211
100
AcDbSymbolTableRecord
100
AcDbBlockTableRecord
  2
*Paper_Space
  0
BLOCK_RECORD
  5
212
100
AcDbSymbolTableRecord
100
AcDbBlockTableRecord
  2
_FILLED
  0
ENDTAB
  0
TABLE
  2
DIMSTYLE
  5
A
100
AcDbSymbolTable
 70
1
100
AcDbDimStyleTable
 71
0
  0
DIMSTYLE
105
213
100
AcDbSymbolTableRecord
100
AcDbDimStyleTableRecord
  2
STANDARD
 70
0
  3

  4

 40
1.0
 41
8.8965037782
 42
1.0
 43
0.38
 44
1.0
 45
0.0
 46
0.0
 47
0.01
 48
0.01
140
12.4551052895
141
0.09
142
0.0
143
25.4
144
1.0
145
0.0
146
1.0
147
0.625
 71
1
 72
0
 73
0
 74
0
 75
0
 76
0
 77
1
 78
8
 79
2
170
0
171
1
172
0
173
0
174
0
175
0
176
0
177
0
178
0
270
2
179
2
271
2
272
2
273
2
274
2
275
0
280
0
281
0
282
0
283
1
284
8
285
0
286
0
287
3
288
0
340
11
278
46
341
212
342
212
343
212
344
212
  0
ENDTAB
  0
ENDSEC
  0
SECTION
  2
BLOCKS
  0
BLOCK
  5
20
100
AcDbEntity
  8
0
100
AcDbBlockBegin
  2
*Model_Space
 70
0
 10
0.0
 20
0.0
 30
0.0
  3
*Model_Space
  1

  0
ENDBLK
  5
21
100
AcDbEntity
  8
0
100
AcDbBlockEnd
  0
BLOCK
  5
1C
100
AcDbEntity
  8
0
100
AcDbBlockBegin
  2
*Paper_Space
 70
0
 10
0.0
 20
0.0
 30
0.0
  3
*Paper_Space
  1

  0
ENDBLK
  5
1D
100
AcDbEntity
  8
0
100
AcDbBlockEnd
  0
BLOCK
  5
214
100
AcDbEntity
  8
0
100
AcDbBlockBegin
  2
_FILLED
 70
64
 10
0.0
 20
0.0
  3
_FILLED
  1

  0
SOLID
  5
215
100
AcDbEntity
  8
0
  6
BYBLOCK
 62
0
100
AcDbTrace
 10
0.0
 20
0.0
 11
-1.0
 21
0.25
 12
-1.0
 22
-0.25
 13
-1.0
 23
-0.25
  0
ENDBLK
  5
216
100
AcDbEntity
  8
0
  6
BYBLOCK
 62
0
100
AcDbBlockEnd
  0
ENDSEC
  0
SECTION
  2
ENTITIES
  0
LINE
  5
217
100
AcDbEntity
  8
0
100
AcDbLine
 62
7
  6
CONTINUOUS
 10
83.4801640715
 20
125.218222074
 11
683.4801640715
 21
125.218222074
  0
LINE
  5
218
100
AcDbEntity
  8
0
100
AcDbLine
 62
7
  6
CONTINUOUS
 10
83.2307674155
 20
126.718222074
 11
683.2307674156
 21
126.718222074
  0
LINE
  5
219
100
AcDbEntity
  8
0
100
AcDbLine
 62
7
  6
CONTINUOUS
 10
681.2801640715
 20
127.418222074
 11
680.4807674156
 21
127.418222074
  0
LINE
  5
21A
100
AcDbEntity
  8
0
100
AcDbLine
 62
7
  6
CONTINUOUS
 10
86.0313707596
 20
127.418222074
 11
85.6801640716
 21
127.418222074
  0
LINE
  5
21B
100
AcDbEntity
  8
0
100
AcDbLine
 62
7
  6
CONTINUOUS
 10
681.5313707596
 20
128.218222074
 11
675.8158147801
 21
128.218222074
  0
LINE
  5
21C
100
AcDbEntity
  8
0
100
AcDbLine
 62
7
  6
CONTINUOUS
 10
90.2469267391
 20
128.218222074
 11
84.5313707596
 21
128.218222074
  0
LINE
  5
21D
100
AcDbEntity
  8
0
100
AcDbLine
 62
7
  6
CONTINUOUS
 10
91.1072913936
 20
128.218222074
 11
92.8620969328
 21
128.218222074
  0
LINE
  5
21E
100
AcDbEntity
  8
0
100
AcDbLine
 62
7
  6
CONTINUOUS
 10
673.2006445865
 20
128.218222074
 11
674.9554501256
 21
128.218222074
  0
LINE
  5
21F
100
AcDbEntity
  8
0
100
AcDbLine
 62
7
  6
CONTINUOUS
 10
672.306203702
 20
128.5373126192
 11
671.4458390475
 21
128.5373126192
  0
LINE
  5
220
100
AcDbEntity
  8
0
100
AcDbLine
 62
7
  6
CONTINUOUS
 10
93.7565378172
 20
128.5373126192
 11
94.6169024717
 21
128.5373126192
  0
LINE
  5
221
100
AcDbEntity
  8
0
100
AcDbLine
 62
7
  6
CONTINUOUS
 10
683.2307674156
 20
128.718222074
 11
681.5313707596
 21
128.718222074
  0
LINE
  5
222
100
AcDbEntity
  8
0
100
AcDbLine
 62
7
  6
CONTINUOUS
 10
84.5313707596
 20
128.718222074
 11
83.2307674156
 21
128.718222074
  0
LINE
  5
223
100
AcDbEntity
  8
0
100
AcDbLine
 62
7
  6
CONTINUOUS
 10
90.2469267391
 20
128.218222074
 11
93.7565378172
 21
128.5373126192
  0
LINE
  5
224
100
AcDbEntity
  8
0
100
AcDbLine
 62
7
  6
CONTINUOUS
 10
670.585474393
 20
129.718222074
 11
95.4772671262
 21
129.718222074
  0
LINE
  5
225
100
AcDbEntity
  8
0
100
AcDbLine
 62
7
  6
CONTINUOUS
 10
675.8158147801
 20
128.218222074
 11
672.306203702
 21
128.5373126192
  0
LINE
  5
226
100
AcDbEntity
  8
0
100
AcDbLine
 62
7
  6
CONTINUOUS
 10
83.2307674156
 20
923.718222074
 11
83.2307674156
 21
126.718222074
  0
LINE
  5
227
100
AcDbEntity
  8
0
100
AcDbLine
 62
7
  6
CONTINUOUS
 10
83.4801640715
 20
925.218222074
 11
83.4801640715
 21
923.718222074
  0
LINE
  5
228
100
AcDbEntity
  8
0
100
AcDbLine
 62
7
  6
CONTINUOUS
 10
83.4801640715
 20
126.718222074
 11
83.4801640715
 21
125.218222074
  0
LINE
  5
229
100
AcDbEntity
  8
0
100
AcDbLine
 62
7
  6
CONTINUOUS
 10
84.5313707596
 20
922.218222074
 11
84.5313707596
 21
128.218222074
  0
LINE
  5
22A
100
AcDbEntity
  8
0
100
AcDbLine
 62
7
  6
CONTINUOUS
 10
84.7307674156
 20
125.218222074
 11
84.7307674156
 21
128.218222074
  0
LINE
  5
22B
100
AcDbEntity
  8
0
100
AcDbLine
 62
7
  6
CONTINUOUS
 10
84.7307674156
 20
922.218222074
 11
84.7307674156
 21
925.2182220741
  0
LINE
  5
22C
100
AcDbEntity
  8
0
100
AcDbLine
 62
7
  6
CONTINUOUS
 10
85.6801640715
 20
127.418222074
 11
85.6801640715
 21
128.218222074
  0
LINE
  5
22D
100
AcDbEntity
  8
0
100
AcDbLine
 62
7
  6
CONTINUOUS
 10
85.6801640715
 20
922.218222074
 11
85.6801640715
 21
923.0182220741
  0
LINE
  5
22E
100
AcDbEntity
  8
0
100
AcDbLine
 62
7
  6
CONTINUOUS
 10
85.8106414506
 20
128.218222074
 11
85.8106414506
 21
922.218222074
  0
LINE
  5
22F
100
AcDbEntity
  8
0
100
AcDbLine
 62
7
  6
CONTINUOUS
 10
86.0313707596
 20
128.218222074
 11
86.0313707596
 21
126.718222074
  0
LINE
  5
230
100
AcDbEntity
  8
0
100
AcDbLine
 62
7
  6
CONTINUOUS
 10
86.0313707596
 20
922.218222074
 11
86.0313707596
 21
923.718222074
  0
LINE
  5
231
100
AcDbEntity
  8
0
100
AcDbLine
 62
7
  6
CONTINUOUS
 10
86.6710061051
 20
128.218222074
 11
86.6710061051
 21
126.718222074
  0
LINE
  5
232
100
AcDbEntity
  8
0
100
AcDbLine
 62
7
  6
CONTINUOUS
 10
86.671006105
 20
922.218222074
 11
86.671006105
 21
923.718222074
  0
LINE
  5
233
100
AcDbEntity
  8
0
100
AcDbLine
 62
7
  6
CONTINUOUS
 10
86.7307674156
 20
125.218222074
 11
86.7307674156
 21
126.718222074
  0
LINE
  5
234
100
AcDbEntity
  8
0
100
AcDbLine
 62
7
  6
CONTINUOUS
 10
86.7307674156
 20
923.718222074
 11
86.7307674156
 21
925.218222074
  0
LINE
  5
235
100
AcDbEntity
  8
0
100
AcDbLine
 62
7
  6
CONTINUOUS
 10
593.0313707596
 20
225.218222074
 11
173.0313707596
 21
225.218222074
  0
LINE
  5
236
100
AcDbEntity
  8
0
100
AcDbLine
 62
7
  6
CONTINUOUS
 10
92.8620969328
 20
923.718222074
 11
92.8620969328
 21
922.218222074
  0
LINE
  5
237
100
AcDbEntity
  8
0
100
AcDbLine
 62
7
  6
CONTINUOUS
 10
92.8620969328
 20
128.218222074
 11
92.8620969328
 21
126.718222074
  0
LINE
  5
238
100
AcDbEntity
  8
0
100
AcDbLine
 62
7
  6
CONTINUOUS
 10
93.7565378172
 20
921.8991315289
 11
93.7565378172
 21
128.5373126192
  0
LINE
  5
239
100
AcDbEntity
  8
0
100
AcDbLine
 62
7
  6
CONTINUOUS
 10
94.6885406791
 20
128.8578575239
 11
94.6885406791
 21
127.997492765
  0
LINE
  5
23A
100
AcDbEntity
  8
0
100
AcDbLine
 62
7
  6
CONTINUOUS
 10
94.6885406791
 20
921.5785866423
 11
94.6885406791
 21
922.4389513831
  0
LINE
  5
23B
100
AcDbEntity
  8
0
100
AcDbLine
 62
7
  6
CONTINUOUS
 10
95.4772671262
 20
129.718222074
 11
95.4772671262
 21
920.718222074
  0
LINE
  5
23C
100
AcDbEntity
  8
0
100
AcDbLine
 62
7
  6
CONTINUOUS
 10
126.7932576648
 20
524.763031253
 11
126.7984925893
 21
524.4630769444
  0
LINE
  5
23D
100
AcDbEntity
  8
0
100
AcDbLine
 62
7
  6
CONTINUOUS
 10
126.7932576648
 20
525.6734128951
 11
126.7932576648
 21
524.763031253
  0
LINE
  5
23E
100
AcDbEntity
  8
0
100
AcDbLine
 62
7
  6
CONTINUOUS
 10
126.970487959
 20
503.6327161217
 11
126.970487959
 21
521.6549401165
  0
LINE
  5
23F
100
AcDbEntity
  8
0
100
AcDbLine
 62
7
  6
CONTINUOUS
 10
126.970487959
 20
528.767007976
 11
126.970487959
 21
537.20368603
  0
LINE
  5
240
100
AcDbEntity
  8
0
100
AcDbLine
 62
7
  6
CONTINUOUS
 10
127.0845761584
 20
525.6734128951
 11
127.0845761584
 21
524.763031253
  0
LINE
  5
241
100
AcDbEntity
  8
0
100
AcDbLine
 62
7
  6
CONTINUOUS
 10
127.0922535603
 20
503.632758118
 11
127.0922535603
 21
521.4066280894
  0
LINE
  5
242
100
AcDbEntity
  8
0
100
AcDbLine
 62
7
  6
CONTINUOUS
 10
127.0922535603
 20
529.015320003
 11
127.0922535603
 21
537.20368603
  0
LINE
  5
243
100
AcDbEntity
  8
0
100
AcDbLine
 62
7
  6
CONTINUOUS
 10
131.970487959
 20
502.2042100919
 11
131.970487959
 21
514.7939008787
  0
LINE
  5
244
100
AcDbEntity
  8
0
100
AcDbLine
 62
7
  6
CONTINUOUS
 10
131.970487959
 20
535.6280472167
 11
131.970487959
 21
538.6322770926
  0
LINE
  5
245
100
AcDbEntity
  8
0
100
AcDbLine
 62
7
  6
CONTINUOUS
 10
132.0922535603
 20
502.2041670555
 11
132.0922535603
 21
514.738919753
  0
LINE
  5
246
100
AcDbEntity
  8
0
100
AcDbLine
 62
7
  6
CONTINUOUS
 10
132.0922535603
 20
535.6830283395
 11
132.0922535603
 21
538.6322770926
  0
LINE
  5
247
100
AcDbEntity
  8
0
100
AcDbLine
 62
7
  6
CONTINUOUS
 10
136.970487959
 20
538.6322770926
 11
136.970487959
 21
535.6850307033
  0
LINE
  5
248
100
AcDbEntity
  8
0
100
AcDbLine
 62
7
  6
CONTINUOUS
 10
136.970487959
 20
514.7369173892
 11
136.970487959
 21
502.2041670555
  0
LINE
  5
249
100
AcDbEntity
  8
0
100
AcDbLine
 62
7
  6
CONTINUOUS
 10
137.0922535603
 20
538.6322340561
 11
137.0922535603
 21
535.6301693238
  0
LINE
  5
24A
100
AcDbEntity
  8
0
100
AcDbLine
 62
7
  6
CONTINUOUS
 10
137.0922535603
 20
514.7917787708
 11
137.0922535603
 21
502.2041670555
  0
LINE
  5
24B
100
AcDbEntity
  8
0
100
AcDbLine
 62
7
  6
CONTINUOUS
 10
141.970487959
 20
537.20368603
 11
141.970487959
 21
529.0242558421
  0
LINE
  5
24C
100
AcDbEntity
  8
0
100
AcDbLine
 62
7
  6
CONTINUOUS
 10
141.970487959
 20
521.3976922504
 11
141.970487959
 21
503.632758118
  0
LINE
  5
24D
100
AcDbEntity
  8
0
100
AcDbLine
 62
7
  6
CONTINUOUS
 10
142.0139153671
 20
525.6734128951
 11
142.0139153671
 21
524.763031253
  0
LINE
  5
24E
100
AcDbEntity
  8
0
100
AcDbLine
 62
7
  6
CONTINUOUS
 10
142.0922535603
 20
537.203728037
 11
142.0922535603
 21
528.776548276
  0
LINE
  5
24F
100
AcDbEntity
  8
0
100
AcDbLine
 62
7
  6
CONTINUOUS
 10
142.0922535603
 20
521.6454077835
 11
142.0922535603
 21
503.632758118
  0
LINE
  5
250
100
AcDbEntity
  8
0
100
AcDbLine
 62
7
  6
CONTINUOUS
 10
126.7984925893
 20
525.9733672036
 11
126.7932576648
 21
525.6734128951
  0
LINE
  5
251
100
AcDbEntity
  8
0
100
AcDbLine
 62
7
  6
CONTINUOUS
 10
173.0313707596
 20
225.218222074
 11
173.0313707596
 21
825.218222074
  0
LINE
  5
252
100
AcDbEntity
  8
0
100
AcDbLine
 62
7
  6
CONTINUOUS
 10
146.1523055117
 20
542.5200428234
 11
146.0726576302
 21
542.3685607579
  0
LINE
  5
253
100
AcDbEntity
  8
0
100
AcDbLine
 62
7
  6
CONTINUOUS
 10
122.9104093963
 20
498.3164153167
 11
122.9900574601
 21
498.4678972863
  0
LINE
  5
254
100
AcDbEntity
  8
0
100
AcDbLine
 62
7
  6
CONTINUOUS
 10
122.9900781675
 20
542.3685577495
 11
122.9104302465
 21
542.5200397942
  0
LINE
  5
255
100
AcDbEntity
  8
0
100
AcDbLine
 62
7
  6
CONTINUOUS
 10
146.1523124896
 20
498.3164049937
 11
146.0726645604
 21
498.467887034
  0
LINE
  5
256
100
AcDbEntity
  8
0
100
AcDbLine
 62
7
  6
CONTINUOUS
 10
129.045417786
 20
531.3982415267
 11
128.9126672294
 21
531.547791222
  0
LINE
  5
257
100
AcDbEntity
  8
0
100
AcDbLine
 62
7
  6
CONTINUOUS
 10
138.6271310615
 20
528.0861047121
 11
139.3616158611
 21
528.6003965054
  0
LINE
  5
258
100
AcDbEntity
  8
0
100
AcDbLine
 62
7
  6
CONTINUOUS
 10
129.7011256582
 20
528.6003965054
 11
130.4356104577
 21
528.0861047121
  0
LINE
  5
259
100
AcDbEntity
  8
0
100
AcDbLine
 62
7
  6
CONTINUOUS
 10
128.4746871404
 20
519.4624149243
 11
128.544329104
 21
519.4974366266
  0
LINE
  5
25A
100
AcDbEntity
  8
0
100
AcDbLine
 62
7
  6
CONTINUOUS
 10
128.6008861333
 20
519.3926130536
 11
128.5308118226
 21
519.3587842721
  0
LINE
  5
25B
100
AcDbEntity
  8
0
100
AcDbLine
 62
7
  6
CONTINUOUS
 10
681.2801640715
 20
923.018222074
 11
680.4801640715
 21
922.218222074
  0
LINE
  5
25C
100
AcDbEntity
  8
0
100
AcDbLine
 62
7
  6
CONTINUOUS
 10
136.9646783826
 20
538.9555267487
 11
136.9037110699
 21
538.9371770156
  0
LINE
  5
25D
100
AcDbEntity
  8
0
100
AcDbLine
 62
7
  6
CONTINUOUS
 10
681.2801640715
 20
127.418222074
 11
680.4801640715
 21
128.218222074
  0
LINE
  5
25E
100
AcDbEntity
  8
0
100
AcDbLine
 62
7
  6
CONTINUOUS
 10
149.0992813885
 20
505.1877985278
 11
146.4128421236
 21
505.6704765546
  0
LINE
  5
25F
100
AcDbEntity
  8
0
100
AcDbLine
 62
7
  6
CONTINUOUS
 10
119.9634601308
 20
535.6486456202
 11
122.6498993957
 21
535.1659675934
  0
LINE
  5
260
100
AcDbEntity
  8
0
100
AcDbLine
 62
7
  6
CONTINUOUS
 10
126.5289713695
 20
524.7584188211
 11
126.7932576648
 21
524.763031253
  0
LINE
  5
261
100
AcDbEntity
  8
0
100
AcDbLine
 62
7
  6
CONTINUOUS
 10
126.5638895047
 20
524.4592246332
 11
126.7896011606
 21
524.4630769444
  0
LINE
  5
262
100
AcDbEntity
  8
0
100
AcDbLine
 62
7
  6
CONTINUOUS
 10
137.0922535603
 20
502.2041670555
 11
136.970487959
 21
502.2041670555
  0
LINE
  5
263
100
AcDbEntity
  8
0
100
AcDbLine
 62
7
  6
CONTINUOUS
 10
132.0922535603
 20
502.2041670555
 11
131.970487959
 21
502.2041670555
  0
LINE
  5
264
100
AcDbEntity
  8
0
100
AcDbLine
 62
7
  6
CONTINUOUS
 10
142.0922535603
 20
503.632758118
 11
141.970487959
 21
503.632758118
  0
LINE
  5
265
100
AcDbEntity
  8
0
100
AcDbLine
 62
7
  6
CONTINUOUS
 10
127.0922535603
 20
503.632758118
 11
126.970487959
 21
503.632758118
  0
LINE
  5
266
100
AcDbEntity
  8
0
100
AcDbLine
 62
7
  6
CONTINUOUS
 10
127.0845761584
 20
524.763031253
 11
126.7932576648
 21
524.763031253
  0
LINE
  5
267
100
AcDbEntity
  8
0
100
AcDbLine
 62
7
  6
CONTINUOUS
 10
126.7932576648
 20
525.6734128951
 11
127.0845761584
 21
525.6734128951
  0
LINE
  5
268
100
AcDbEntity
  8
0
100
AcDbLine
 62
7
  6
CONTINUOUS
 10
142.5144677654
 20
525.9766532793
 11
142.5021009462
 21
525.9766522929
  0
LINE
  5
269
100
AcDbEntity
  8
0
100
AcDbLine
 62
7
  6
CONTINUOUS
 10
142.5034783025
 20
524.459767817
 11
142.5158429915
 21
524.4597668677
  0
LINE
  5
26A
100
AcDbEntity
  8
0
100
AcDbLine
 62
7
  6
CONTINUOUS
 10
146.9842467291
 20
519.188047985
 11
146.8976978838
 21
519.1884475526
  0
LINE
  5
26B
100
AcDbEntity
  8
0
100
AcDbLine
 62
7
  6
CONTINUOUS
 10
122.0788473775
 20
521.6483946417
 11
122.1652182642
 21
521.6479957322
  0
LINE
  5
26C
100
AcDbEntity
  8
0
100
AcDbLine
 62
7
  6
CONTINUOUS
 10
126.7895947364
 20
525.9733672036
 11
126.5652678529
 21
525.9771954594
  0
LINE
  5
26D
100
AcDbEntity
  8
0
100
AcDbLine
 62
7
  6
CONTINUOUS
 10
142.5034783025
 20
524.459767817
 11
142.3090629757
 21
524.4630769444
  0
LINE
  5
26E
100
AcDbEntity
  8
0
100
AcDbLine
 62
7
  6
CONTINUOUS
 10
126.7932576648
 20
525.6734128951
 11
126.5298025833
 21
525.6780108203
  0
LINE
  5
26F
100
AcDbEntity
  8
0
100
AcDbLine
 62
7
  6
CONTINUOUS
 10
122.6498994978
 20
505.670476573
 11
119.9634601308
 21
505.1877985278
  0
LINE
  5
270
100
AcDbEntity
  8
0
100
AcDbLine
 62
7
  6
CONTINUOUS
 10
142.3090723562
 20
525.9733672036
 11
142.5021009462
 21
525.9766522929
  0
LINE
  5
271
100
AcDbEntity
  8
0
100
AcDbLine
 62
7
  6
CONTINUOUS
 10
126.970487959
 20
537.20368603
 11
127.0922535603
 21
537.20368603
  0
LINE
  5
272
100
AcDbEntity
  8
0
100
AcDbLine
 62
7
  6
CONTINUOUS
 10
141.970487959
 20
537.20368603
 11
142.0922535603
 21
537.20368603
  0
LINE
  5
273
100
AcDbEntity
  8
0
100
AcDbLine
 62
7
  6
CONTINUOUS
 10
131.970487959
 20
538.6322770926
 11
132.0922535603
 21
538.6322770926
  0
LINE
  5
274
100
AcDbEntity
  8
0
100
AcDbLine
 62
7
  6
CONTINUOUS
 10
136.970487959
 20
538.6322770926
 11
137.0922535603
 21
538.6322770926
  0
LINE
  5
275
100
AcDbEntity
  8
0
100
AcDbLine
 62
7
  6
CONTINUOUS
 10
86.0313707596
 20
127.7915988236
 11
85.6801640716
 21
127.418222074
  0
LINE
  5
276
100
AcDbEntity
  8
0
100
AcDbLine
 62
7
  6
CONTINUOUS
 10
146.4128420215
 20
535.1659675751
 11
149.0992813885
 21
535.6486456202
  0
LINE
  5
277
100
AcDbEntity
  8
0
100
AcDbLine
 62
7
  6
CONTINUOUS
 10
85.6801640716
 20
923.018222074
 11
86.0313707596
 21
922.6448453245
  0
LINE
  5
278
100
AcDbEntity
  8
0
100
AcDbLine
 62
7
  6
CONTINUOUS
 10
593.0313707596
 20
825.218222074
 11
593.0313707596
 21
225.218222074
  0
LINE
  5
279
100
AcDbEntity
  8
0
100
AcDbLine
 62
7
  6
CONTINUOUS
 10
670.585474393
 20
920.718222074
 11
670.585474393
 21
129.718222074
  0
LINE
  5
27A
100
AcDbEntity
  8
0
100
AcDbLine
 62
7
  6
CONTINUOUS
 10
671.3742008402
 20
128.8578574195
 11
671.3742008402
 21
127.997492765
  0
LINE
  5
27B
100
AcDbEntity
  8
0
100
AcDbLine
 62
7
  6
CONTINUOUS
 10
671.3742008402
 20
921.5785866242
 11
671.3742008402
 21
922.4389513831
  0
LINE
  5
27C
100
AcDbEntity
  8
0
100
AcDbLine
 62
7
  6
CONTINUOUS
 10
672.3062037021
 20
128.5373126192
 11
672.3062037021
 21
921.8991315289
  0
LINE
  5
27D
100
AcDbEntity
  8
0
100
AcDbLine
 62
7
  6
CONTINUOUS
 10
673.2006445864
 20
126.718222074
 11
673.2006445864
 21
128.218222074
  0
LINE
  5
27E
100
AcDbEntity
  8
0
100
AcDbLine
 62
7
  6
CONTINUOUS
 10
673.2006445864
 20
922.218222074
 11
673.2006445864
 21
923.718222074
  0
LINE
  5
27F
100
AcDbEntity
  8
0
100
AcDbLine
 62
7
  6
CONTINUOUS
 10
679.3917354214
 20
128.218222074
 11
679.3917354214
 21
126.718222074
  0
LINE
  5
280
100
AcDbEntity
  8
0
100
AcDbLine
 62
7
  6
CONTINUOUS
 10
679.3917354213
 20
922.218222074
 11
679.3917354213
 21
923.718222074
  0
LINE
  5
281
100
AcDbEntity
  8
0
100
AcDbLine
 62
7
  6
CONTINUOUS
 10
679.7307674156
 20
925.2182220741
 11
679.7307674156
 21
923.718222074
  0
LINE
  5
282
100
AcDbEntity
  8
0
100
AcDbLine
 62
7
  6
CONTINUOUS
 10
679.7307674156
 20
126.718222074
 11
679.7307674156
 21
125.218222074
  0
LINE
  5
283
100
AcDbEntity
  8
0
100
AcDbLine
 62
7
  6
CONTINUOUS
 10
680.0313707596
 20
128.218222074
 11
680.0313707596
 21
126.718222074
  0
LINE
  5
284
100
AcDbEntity
  8
0
100
AcDbLine
 62
7
  6
CONTINUOUS
 10
680.0313707596
 20
922.218222074
 11
680.0313707596
 21
923.718222074
  0
LINE
  5
285
100
AcDbEntity
  8
0
100
AcDbLine
 62
7
  6
CONTINUOUS
 10
680.2521000687
 20
922.218222074
 11
680.2521000687
 21
128.218222074
  0
LINE
  5
286
100
AcDbEntity
  8
0
100
AcDbLine
 62
7
  6
CONTINUOUS
 10
680.4807674156
 20
128.218222074
 11
680.4807674156
 21
126.718222074
  0
LINE
  5
287
100
AcDbEntity
  8
0
100
AcDbLine
 62
7
  6
CONTINUOUS
 10
680.4807674156
 20
922.218222074
 11
680.4807674156
 21
923.718222074
  0
LINE
  5
288
100
AcDbEntity
  8
0
100
AcDbLine
 62
7
  6
CONTINUOUS
 10
681.2801640715
 20
923.018222074
 11
681.2801640715
 21
922.218222074
  0
LINE
  5
289
100
AcDbEntity
  8
0
100
AcDbLine
 62
7
  6
CONTINUOUS
 10
681.2801640715
 20
128.218222074
 11
681.2801640715
 21
127.418222074
  0
LINE
  5
28A
100
AcDbEntity
  8
0
100
AcDbLine
 62
7
  6
CONTINUOUS
 10
681.5313707596
 20
128.218222074
 11
681.5313707596
 21
922.218222074
  0
LINE
  5
28B
100
AcDbEntity
  8
0
100
AcDbLine
 62
7
  6
CONTINUOUS
 10
681.7307674156
 20
125.218222074
 11
681.7307674156
 21
128.718222074
  0
LINE
  5
28C
100
AcDbEntity
  8
0
100
AcDbLine
 62
7
  6
CONTINUOUS
 10
681.7307674156
 20
921.718222074
 11
681.7307674156
 21
925.218222074
  0
LINE
  5
28D
100
AcDbEntity
  8
0
100
AcDbLine
 62
7
  6
CONTINUOUS
 10
683.2307674156
 20
126.718222074
 11
683.2307674156
 21
923.718222074
  0
LINE
  5
28E
100
AcDbEntity
  8
0
100
AcDbLine
 62
7
  6
CONTINUOUS
 10
683.4801640715
 20
125.218222074
 11
683.4801640715
 21
925.218222074
  0
LINE
  5
28F
100
AcDbEntity
  8
0
100
AcDbLine
 62
7
  6
CONTINUOUS
 10
173.0313707596
 20
825.218222074
 11
593.0313707596
 21
825.218222074
  0
LINE
  5
290
100
AcDbEntity
  8
0
100
AcDbLine
 62
7
  6
CONTINUOUS
 10
675.8158147801
 20
922.218222074
 11
672.3062037021
 21
921.8991315289
  0
LINE
  5
291
100
AcDbEntity
  8
0
100
AcDbLine
 62
7
  6
CONTINUOUS
 10
93.7565378172
 20
921.8991315289
 11
90.2469267391
 21
922.218222074
  0
LINE
  5
292
100
AcDbEntity
  8
0
100
AcDbLine
 62
7
  6
CONTINUOUS
 10
95.4772671262
 20
920.718222074
 11
670.585474393
 21
920.718222074
  0
LINE
  5
293
100
AcDbEntity
  8
0
100
AcDbLine
 62
7
  6
CONTINUOUS
 10
83.2307674156
 20
921.718222074
 11
84.5313707596
 21
921.718222074
  0
LINE
  5
294
100
AcDbEntity
  8
0
100
AcDbLine
 62
7
  6
CONTINUOUS
 10
681.5313707596
 20
921.718222074
 11
683.2307674156
 21
921.718222074
  0
LINE
  5
295
100
AcDbEntity
  8
0
100
AcDbLine
 62
7
  6
CONTINUOUS
 10
94.6169024717
 20
921.8991315289
 11
93.7565378172
 21
921.8991315289
  0
LINE
  5
296
100
AcDbEntity
  8
0
100
AcDbLine
 62
7
  6
CONTINUOUS
 10
671.4458390475
 20
921.8991315289
 11
672.306203702
 21
921.8991315289
  0
LINE
  5
297
100
AcDbEntity
  8
0
100
AcDbLine
 62
7
  6
CONTINUOUS
 10
674.9554501256
 20
922.218222074
 11
673.2006445864
 21
922.218222074
  0
LINE
  5
298
100
AcDbEntity
  8
0
100
AcDbLine
 62
7
  6
CONTINUOUS
 10
92.8620969328
 20
922.218222074
 11
91.1072913936
 21
922.218222074
  0
LINE
  5
299
100
AcDbEntity
  8
0
100
AcDbLine
 62
7
  6
CONTINUOUS
 10
84.5313707596
 20
922.218222074
 11
90.2469267391
 21
922.218222074
  0
LINE
  5
29A
100
AcDbEntity
  8
0
100
AcDbLine
 62
7
  6
CONTINUOUS
 10
675.8158147801
 20
922.218222074
 11
681.5313707596
 21
922.218222074
  0
LINE
  5
29B
100
AcDbEntity
  8
0
100
AcDbLine
 62
7
  6
CONTINUOUS
 10
85.6801640716
 20
923.018222074
 11
86.0313707596
 21
923.018222074
  0
LINE
  5
29C
100
AcDbEntity
  8
0
100
AcDbLine
 62
7
  6
CONTINUOUS
 10
680.4807674156
 20
923.018222074
 11
681.2801640715
 21
923.018222074
  0
LINE
  5
29D
100
AcDbEntity
  8
0
100
AcDbLine
 62
7
  6
CONTINUOUS
 10
83.2307674156
 20
923.718222074
 11
683.2307674156
 21
923.718222074
  0
LINE
  5
29E
100
AcDbEntity
  8
0
100
AcDbLine
 62
7
  6
CONTINUOUS
 10
683.4801640715
 20
925.218222074
 11
83.4801640715
 21
925.218222074
  0
ARC
  5
29F
100
AcDbEntity
  8
0
100
AcDbCircle
 62
7
  6
CONTINUOUS
 10
24.3517530308
 20
166.3871805719
 40
72.6619138696
100
AcDbArc
 50
327.2556817885
 51
327.5675332779
  0
ARC
  5
2A0
100
AcDbEntity
  8
0
100
AcDbCircle
 62
7
  6
CONTINUOUS
 10
-130.9057157304
 20
520.3750157653
 40
277.805824135
100
AcDbArc
 50
359.7552768228
 51
0.6027411281
  0
ARC
  5
2A1
100
AcDbEntity
  8
0
100
AcDbCircle
 62
7
  6
CONTINUOUS
 10
-129.9571002969
 20
520.4264486253
 40
276.9436683252
100
AcDbArc
 50
359.74379174
 51
0.5941875888
  0
ARC
  5
2A2
100
AcDbEntity
  8
0
100
AcDbCircle
 62
7
  6
CONTINUOUS
 10
-112.4428900029
 20
520.2252631947
 40
259.4292101679
100
AcDbArc
 50
358.8680045147
 51
359.7709270612
  0
ARC
  5
2A3
100
AcDbEntity
  8
0
100
AcDbCircle
 62
7
  6
CONTINUOUS
 10
-77.9773275235
 20
520.0184449041
 40
224.876557132
100
AcDbArc
 50
358.7472809102
 51
359.7885264102
  0
ARC
  5
2A4
100
AcDbEntity
  8
0
100
AcDbCircle
 62
7
  6
CONTINUOUS
 10
-65.928267851
 20
521.3122297186
 40
212.9098341812
100
AcDbArc
 50
0.5345174718
 51
1.6325837337
  0
ARC
  5
2A5
100
AcDbEntity
  8
0
100
AcDbCircle
 62
7
  6
CONTINUOUS
 10
-43.1488009508
 20
521.4604247147
 40
190.0422893212
100
AcDbArc
 50
0.5538457323
 51
1.7834581286
  0
ARC
  5
2A6
100
AcDbEntity
  8
0
100
AcDbCircle
 62
7
  6
CONTINUOUS
 10
-8.3162111364
 20
518.444384056
 40
155.1975603378
100
AcDbArc
 50
357.25048658
 51
358.7660096122
  0
ARC
  5
2A7
100
AcDbEntity
  8
0
100
AcDbCircle
 62
7
  6
CONTINUOUS
 10
-6.0609728297
 20
518.0552259985
 40
153.0247119427
100
AcDbArc
 50
357.355405393
 51
358.8934492442
  0
ARC
  5
2A8
100
AcDbEntity
  8
0
100
AcDbCircle
 62
7
  6
CONTINUOUS
 10
44.9962286859
 20
515.6773765759
 40
101.9120822778
100
AcDbArc
 50
355.0565678708
 51
357.3663752506
  0
ARC
  5
2A9
100
AcDbEntity
  8
0
100
AcDbCircle
 62
7
  6
CONTINUOUS
 10
44.9765398285
 20
515.8623523354
 40
101.8423879796
100
AcDbArc
 50
354.95420338
 51
357.2632149442
  0
ARC
  5
2AA
100
AcDbEntity
  8
0
100
AcDbCircle
 62
7
  6
CONTINUOUS
 10
58.1173251649
 20
514.8094818791
 40
88.6596908246
100
AcDbArc
 50
354.0907680077
 51
354.8850773467
  0
ARC
  5
2AB
100
AcDbEntity
  8
0
100
AcDbCircle
 62
7
  6
CONTINUOUS
 10
64.3313707596
 20
520.418222074
 40
86.1252835919
100
AcDbArc
 50
349.814228253
 51
10.185771747
  0
ARC
  5
2AC
100
AcDbEntity
  8
0
100
AcDbCircle
 62
7
  6
CONTINUOUS
 10
63.4409684994
 20
514.1712247064
 40
83.4062027013
100
AcDbArc
 50
354.1502648948
 51
354.9955161378
  0
ARC
  5
2AD
100
AcDbEntity
  8
0
100
AcDbCircle
 62
7
  6
CONTINUOUS
 10
79.6432517734
 20
135.7036459909
 40
16.9056900781
100
AcDbArc
 50
334.3967161753
 51
334.8914706526
  0
ARC
  5
2AE
100
AcDbEntity
  8
0
100
AcDbCircle
 62
7
  6
CONTINUOUS
 10
101.6300000707
 20
124.0713049233
 40
8.3143953994
100
AcDbArc
 50
145.4153942118
 51
147.51035991
  0
ARC
  5
2AF
100
AcDbEntity
  8
0
100
AcDbCircle
 62
7
  6
CONTINUOUS
 10
88.5192853998
 20
122.3248056001
 40
5.8185608962
100
AcDbArc
 50
124.2724861884
 51
126.2321216878
  0
ARC
  5
2B0
100
AcDbEntity
  8
0
100
AcDbCircle
 62
7
  6
CONTINUOUS
 10
147.3062176639
 20
491.0984188823
 40
32.2017680267
100
AcDbArc
 50
90.5952524353
 51
90.7499422489
  0
ARC
  5
2B1
100
AcDbEntity
  8
0
100
AcDbCircle
 62
7
  6
CONTINUOUS
 10
142.6754060507
 20
508.1536701613
 40
4.575598634
100
AcDbArc
 50
261.5753447802
 51
261.9654584145
  0
ARC
  5
2B2
100
AcDbEntity
  8
0
100
AcDbCircle
 62
7
  6
CONTINUOUS
 10
137.6360118559
 20
505.953848943
 40
3.8082833636
100
AcDbArc
 50
259.9354914558
 51
260.886530729
  0
ARC
  5
2B3
100
AcDbEntity
  8
0
100
AcDbCircle
 62
7
  6
CONTINUOUS
 10
132.6356609237
 20
505.7802250717
 40
3.6373954979
100
AcDbArc
 50
259.4629867246
 51
260.4106050422
  0
ARC
  5
2B4
100
AcDbEntity
  8
0
100
AcDbCircle
 62
7
  6
CONTINUOUS
 10
131.4610932346
 20
505.7622496591
 40
3.613630896
100
AcDbArc
 50
279.0535244438
 51
280.0589346766
  0
ARC
  5
2B5
100
AcDbEntity
  8
0
100
AcDbCircle
 62
7
  6
CONTINUOUS
 10
136.4366692528
 20
505.7316608646
 40
3.5878963458
100
AcDbArc
 50
279.5643469266
 51
280.5282943106
  0
ARC
  5
2B6
100
AcDbEntity
  8
0
100
AcDbCircle
 62
7
  6
CONTINUOUS
 10
141.5852177301
 20
506.39043314
 40
2.8039002943
100
AcDbArc
 50
279.2489739039
 51
280.41824456
  0
ARC
  5
2B7
100
AcDbEntity
  8
0
100
AcDbCircle
 62
7
  6
CONTINUOUS
 10
147.1610890508
 20
505.3047373783
 40
2.469228276
100
AcDbArc
 50
227.6765359718
 51
229.4499457456
  0
CIRCLE
  5
2B8
100
AcDbEntity
  8
0
100
AcDbCircle
 62
7
  6
CONTINUOUS
 10
134.5313707596
 20
502.718222074
 40
0.75
  0
ARC
  5
2B9
100
AcDbEntity
  8
0
100
AcDbCircle
 62
7
  6
CONTINUOUS
 10
121.659477786
 20
517.1250242655
 40
12.7311029416
100
AcDbArc
 50
86.8461799002
 51
87.2873317137
  0
ARC
  5
2BA
100
AcDbEntity
  8
0
100
AcDbCircle
 62
7
  6
CONTINUOUS
 10
121.8724933391
 20
513.581069839
 40
7.9487009105
100
AcDbArc
 50
275.6126668177
 51
276.3860374866
  0
ARC
  5
2BB
100
AcDbEntity
  8
0
100
AcDbCircle
 62
7
  6
CONTINUOUS
 10
133.7297092953
 20
518.5295809312
 40
4.1292097854
100
AcDbArc
 50
244.7832939014
 51
246.6370553455
  0
ARC
  5
2BC
100
AcDbEntity
  8
0
100
AcDbCircle
 62
7
  6
CONTINUOUS
 10
134.4965439944
 20
525.2109780298
 40
8.3908516223
100
AcDbArc
 50
334.8537482804
 51
25.1462517199
  0
ARC
  5
2BD
100
AcDbEntity
  8
0
100
AcDbCircle
 62
7
  6
CONTINUOUS
 10
133.5538270252
 20
524.7303194931
 40
7.2662821436
100
AcDbArc
 50
205.0400661639
 51
207.2202941706
  0
ARC
  5
2BE
100
AcDbEntity
  8
0
100
AcDbCircle
 62
7
  6
CONTINUOUS
 10
128.8745165102
 20
519.5613678245
 40
0.6000006555
100
AcDbArc
 50
345.8943545178
 51
103.9716168945
  0
ARC
  5
2BF
100
AcDbEntity
  8
0
100
AcDbCircle
 62
7
  6
CONTINUOUS
 10
126.784346471
 20
524.7653132088
 40
0.30228194
100
AcDbArc
 50
270.9960459478
 51
272.9413693739
  0
ARC
  5
2C0
100
AcDbEntity
  8
0
100
AcDbCircle
 62
7
  6
CONTINUOUS
 10
126.784371316
 20
524.7643042951
 40
0.3012730818
100
AcDbArc
 50
272.9464964248
 51
285.2907298281
  0
ARC
  5
2C1
100
AcDbEntity
  8
0
100
AcDbCircle
 62
7
  6
CONTINUOUS
 10
147.217045436
 20
513.8351544696
 40
8.2041884678
100
AcDbArc
 50
263.6236580215
 51
264.3746384515
  0
ARC
  5
2C2
100
AcDbEntity
  8
0
100
AcDbCircle
 62
7
  6
CONTINUOUS
 10
146.9587086211
 20
512.1046621811
 40
5.2269447011
100
AcDbArc
 50
264.1280434143
 51
265.2867544055
  0
ARC
  5
2C3
100
AcDbEntity
  8
0
100
AcDbCircle
 62
7
  6
CONTINUOUS
 10
135.3366894207
 20
518.5276923885
 40
4.1278653998
100
AcDbArc
 50
293.3157173388
 51
295.1693929613
  0
ARC
  5
2C4
100
AcDbEntity
  8
0
100
AcDbCircle
 62
7
  6
CONTINUOUS
 10
134.5313707596
 20
520.418222074
 40
24.9707149466
100
AcDbArc
 50
242.2650268459
 51
297.7349731541
  0
ARC
  5
2C5
100
AcDbEntity
  8
0
100
AcDbCircle
 62
7
  6
CONTINUOUS
 10
134.5313707596
 20
520.418222074
 40
24.9707149466
100
AcDbArc
 50
62.2650268458
 51
117.7349731541
  0
ARC
  5
2C6
100
AcDbEntity
  8
0
100
AcDbCircle
 62
7
  6
CONTINUOUS
 10
134.5313707596
 20
520.418222074
 40
24.7995699754
100
AcDbArc
 50
242.2649488134
 51
297.7350002899
  0
ARC
  5
2C7
100
AcDbEntity
  8
0
100
AcDbCircle
 62
7
  6
CONTINUOUS
 10
134.5313707596
 20
520.418222074
 40
24.7995699754
100
AcDbArc
 50
62.2650177995
 51
117.7349971353
  0
ARC
  5
2C8
100
AcDbEntity
  8
0
100
AcDbCircle
 62
7
  6
CONTINUOUS
 10
134.533658326
 20
520.3109740462
 40
6.0034300864
100
AcDbArc
 50
188.7992391838
 51
351.1940755649
  0
ARC
  5
2C9
100
AcDbEntity
  8
0
100
AcDbCircle
 62
7
  6
CONTINUOUS
 10
134.533658326
 20
520.3110016662
 40
5.8034636223
100
AcDbArc
 50
194.3136114345
 51
345.6863885655
  0
ARC
  5
2CA
100
AcDbEntity
  8
0
100
AcDbCircle
 62
7
  6
CONTINUOUS
 10
140.1882250091
 20
519.5613678245
 40
0.6000006555
100
AcDbArc
 50
75.6218488209
 51
194.4284358822
  0
ARC
  5
2CB
100
AcDbEntity
  8
0
100
AcDbCircle
 62
7
  6
CONTINUOUS
 10
140.6606547632
 20
519.3615442738
 40
0.2000657109
100
AcDbArc
 50
136.5017188422
 51
171.1180154873
  0
ARC
  5
2CC
100
AcDbEntity
  8
0
100
AcDbCircle
 62
7
  6
CONTINUOUS
 10
134.533658326
 20
525.2109740462
 40
8.470583972
100
AcDbArc
 50
48.4048141769
 51
131.5951858231
  0
ARC
  5
2CD
100
AcDbEntity
  8
0
100
AcDbCircle
 62
7
  6
CONTINUOUS
 10
134.533658326
 20
525.2109740462
 40
8.470583972
100
AcDbArc
 50
228.4048141769
 51
311.5951858231
  0
ARC
  5
2CE
100
AcDbEntity
  8
0
100
AcDbCircle
 62
7
  6
CONTINUOUS
 10
134.5715436104
 20
525.2109740462
 40
8.3916824565
100
AcDbArc
 50
154.9281984336
 51
205.0718015664
  0
ARC
  5
2CF
100
AcDbEntity
  8
0
100
AcDbCircle
 62
7
  6
CONTINUOUS
 10
134.533658326
 20
525.2109740462
 40
8.270614433
100
AcDbArc
 50
48.4291474445
 51
131.5789998388
  0
ARC
  5
2D0
100
AcDbEntity
  8
0
100
AcDbCircle
 62
7
  6
CONTINUOUS
 10
134.533658326
 20
525.2109740462
 40
8.270614433
100
AcDbArc
 50
228.4012413114
 51
311.6541335977
  0
ARC
  5
2D1
100
AcDbEntity
  8
0
100
AcDbCircle
 62
7
  6
CONTINUOUS
 10
134.533658326
 20
525.2109740462
 40
8.0174553926
100
AcDbArc
 50
176.6631034945
 51
183.2332355088
  0
ARC
  5
2D2
100
AcDbEntity
  8
0
100
AcDbCircle
 62
7
  6
CONTINUOUS
 10
134.533658326
 20
525.2109740462
 40
8.0174553926
100
AcDbArc
 50
354.623702206
 51
5.4801864992
  0
ARC
  5
2D3
100
AcDbEntity
  8
0
100
AcDbCircle
 62
7
  6
CONTINUOUS
 10
134.533658326
 20
525.2109740462
 40
8.0051451296
100
AcDbArc
 50
185.3861030087
 51
220.7288164977
  0
ARC
  5
2D4
100
AcDbEntity
  8
0
100
AcDbCircle
 62
7
  6
CONTINUOUS
 10
134.533658326
 20
525.2109740462
 40
8.0051451296
100
AcDbArc
 50
139.1955402207
 51
174.5098930849
  0
ARC
  5
2D5
100
AcDbEntity
  8
0
100
AcDbCircle
 62
7
  6
CONTINUOUS
 10
134.533658326
 20
525.2109740462
 40
8.0051451296
100
AcDbArc
 50
49.2697510784
 51
130.7542593689
  0
ARC
  5
2D6
100
AcDbEntity
  8
0
100
AcDbCircle
 62
7
  6
CONTINUOUS
 10
134.533658326
 20
525.2109740462
 40
8.0051451296
100
AcDbArc
 50
5.4844069377
 51
40.8267879858
  0
ARC
  5
2D7
100
AcDbEntity
  8
0
100
AcDbCircle
 62
7
  6
CONTINUOUS
 10
134.533658326
 20
525.2109740462
 40
8.0051451296
100
AcDbArc
 50
319.2484533802
 51
354.6195621957
  0
ARC
  5
2D8
100
AcDbEntity
  8
0
100
AcDbCircle
 62
7
  6
CONTINUOUS
 10
134.533658326
 20
525.2109740462
 40
8.0051451296
100
AcDbArc
 50
229.1745589075
 51
310.8018308831
  0
ARC
  5
2D9
100
AcDbEntity
  8
0
100
AcDbCircle
 62
7
  6
CONTINUOUS
 10
134.533658326
 20
525.2109740462
 40
8.0000003276
100
AcDbArc
 50
220.7272886652
 51
229.1760855521
  0
ARC
  5
2DA
100
AcDbEntity
  8
0
100
AcDbCircle
 62
7
  6
CONTINUOUS
 10
134.533658326
 20
525.2109740462
 40
8.0000003276
100
AcDbArc
 50
130.7527634673
 51
139.1970373851
  0
ARC
  5
2DB
100
AcDbEntity
  8
0
100
AcDbCircle
 62
7
  6
CONTINUOUS
 10
134.533658326
 20
525.2109740462
 40
8.0000003276
100
AcDbArc
 50
40.8252963831
 51
49.2712527758
  0
ARC
  5
2DC
100
AcDbEntity
  8
0
100
AcDbCircle
 62
7
  6
CONTINUOUS
 10
134.533658326
 20
525.2109740462
 40
8.0000003276
100
AcDbArc
 50
310.8002916047
 51
319.2499983166
  0
ARC
  5
2DD
100
AcDbEntity
  8
0
100
AcDbCircle
 62
7
  6
CONTINUOUS
 10
134.533658326
 20
525.2109740462
 40
7.7051908211
100
AcDbArc
 50
228.7811764673
 51
311.1818407819
  0
ARC
  5
2DE
100
AcDbEntity
  8
0
100
AcDbCircle
 62
7
  6
CONTINUOUS
 10
134.533658326
 20
525.2109740462
 40
7.7051908211
100
AcDbArc
 50
318.8684439212
 51
354.5841239066
  0
ARC
  5
2DF
100
AcDbEntity
  8
0
100
AcDbCircle
 62
7
  6
CONTINUOUS
 10
134.533658326
 20
525.2109740462
 40
7.7051908211
100
AcDbArc
 50
5.5202188662
 51
41.2493523607
  0
ARC
  5
2E0
100
AcDbEntity
  8
0
100
AcDbCircle
 62
7
  6
CONTINUOUS
 10
134.533658326
 20
525.2109740462
 40
7.7051908211
100
AcDbArc
 50
48.8471871124
 51
131.190369716
  0
ARC
  5
2E1
100
AcDbEntity
  8
0
100
AcDbCircle
 62
7
  6
CONTINUOUS
 10
134.533658326
 20
525.2109740462
 40
7.7051908211
100
AcDbArc
 50
138.7594302729
 51
174.4037349035
  0
ARC
  5
2E2
100
AcDbEntity
  8
0
100
AcDbCircle
 62
7
  6
CONTINUOUS
 10
134.533658326
 20
525.2109740462
 40
7.7051908211
100
AcDbArc
 50
185.4907964254
 51
221.1260295704
  0
ARC
  5
2E3
100
AcDbEntity
  8
0
100
AcDbCircle
 62
7
  6
CONTINUOUS
 10
135.5093062975
 20
524.7308661451
 40
7.2702762448
100
AcDbArc
 50
332.7118395867
 51
334.8853632334
  0
ARC
  5
2E4
100
AcDbEntity
  8
0
100
AcDbCircle
 62
7
  6
CONTINUOUS
 10
147.3666019391
 20
523.0043706744
 40
12.0231032381
100
AcDbArc
 50
266.8349122557
 51
267.3020645944
  0
ARC
  5
2E5
100
AcDbEntity
  8
0
100
AcDbCircle
 62
7
  6
CONTINUOUS
 10
277.3720289738
 20
522.3922824211
 40
155.1906334014
100
AcDbArc
 50
177.2504442451
 51
178.766040794
  0
ARC
  5
2E6
100
AcDbEntity
  8
0
100
AcDbCircle
 62
7
  6
CONTINUOUS
 10
275.3319225789
 20
522.7741111415
 40
153.2329394269
100
AcDbArc
 50
177.3563399839
 51
178.8922979116
  0
ARC
  5
2E7
100
AcDbEntity
  8
0
100
AcDbCircle
 62
7
  6
CONTINUOUS
 10
224.0539770668
 20
525.1598282845
 40
101.8995911763
100
AcDbArc
 50
175.0564476713
 51
177.3664744111
  0
ARC
  5
2E8
100
AcDbEntity
  8
0
100
AcDbCircle
 62
7
  6
CONTINUOUS
 10
223.7865674851
 20
524.9882700961
 40
101.5424896623
100
AcDbArc
 50
174.9472486515
 51
177.2631304651
  0
ARC
  5
2E9
100
AcDbEntity
  8
0
100
AcDbCircle
 62
7
  6
CONTINUOUS
 10
204.7313707596
 20
520.418222074
 40
86.1252835919
100
AcDbArc
 50
169.8142282529
 51
190.1857717471
  0
ARC
  5
2EA
100
AcDbEntity
  8
0
100
AcDbCircle
 62
7
  6
CONTINUOUS
 10
210.0156466893
 20
526.1357147214
 40
87.7239117634
100
AcDbArc
 50
174.0989001583
 51
174.9016216538
  0
ARC
  5
2EB
100
AcDbEntity
  8
0
100
AcDbCircle
 62
7
  6
CONTINUOUS
 10
15.8409656084
 20
886.5660629687
 40
86.6505077365
100
AcDbArc
 50
23.2121531492
 51
23.6493402088
  0
ARC
  5
2EC
100
AcDbEntity
  8
0
100
AcDbCircle
 62
7
  6
CONTINUOUS
 10
205.6562646046
 20
526.6623048155
 40
83.440751152
100
AcDbArc
 50
174.1506874848
 51
174.9956624317
  0
ARC
  5
2ED
100
AcDbEntity
  8
0
100
AcDbCircle
 62
7
  6
CONTINUOUS
 10
24.3515800491
 20
884.049153965
 40
72.6621186553
100
AcDbArc
 50
32.4324665199
 51
32.7443175033
  0
ARC
  5
2EE
100
AcDbEntity
  8
0
100
AcDbCircle
 62
7
  6
CONTINUOUS
 10
121.6632310279
 20
557.9265611765
 40
40.390829274
100
AcDbArc
 50
270.6071425823
 51
270.7301965438
  0
ARC
  5
2EF
100
AcDbEntity
  8
0
100
AcDbCircle
 62
7
  6
CONTINUOUS
 10
121.8042954281
 20
525.312548951
 40
8.6591544487
100
AcDbArc
 50
84.4696280865
 51
85.1688711484
  0
ARC
  5
2F0
100
AcDbEntity
  8
0
100
AcDbCircle
 62
7
  6
CONTINUOUS
 10
134.5514113156
 20
525.24666514
 40
8.3894896437
100
AcDbArc
 50
207.2386969605
 51
223.5894490322
  0
ARC
  5
2F1
100
AcDbEntity
  8
0
100
AcDbCircle
 62
7
  6
CONTINUOUS
 10
147.190248183
 20
527.2553742714
 40
7.9487009473
100
AcDbArc
 50
95.6126668115
 51
96.3860374769
  0
ARC
  5
2F2
100
AcDbEntity
  8
0
100
AcDbCircle
 62
7
  6
CONTINUOUS
 10
121.8829105605
 20
527.3553538228
 40
7.8481819134
100
AcDbArc
 50
83.6083848149
 51
84.3916546814
  0
ARC
  5
2F3
100
AcDbEntity
  8
0
100
AcDbCircle
 62
7
  6
CONTINUOUS
 10
135.5082671959
 20
525.6905706145
 40
7.2714341356
100
AcDbArc
 50
25.1148098415
 51
27.2879873385
  0
ARC
  5
2F4
100
AcDbEntity
  8
0
100
AcDbCircle
 62
7
  6
CONTINUOUS
 10
133.5540259479
 20
525.6915310182
 40
7.2665036713
100
AcDbArc
 50
152.7797390668
 51
154.9599005988
  0
ARC
  5
2F5
100
AcDbEntity
  8
0
100
AcDbCircle
 62
7
  6
CONTINUOUS
 10
134.5313707596
 20
525.218222074
 40
6.1000003276
100
AcDbArc
 50
146.9422959615
 51
33.0577067662
  0
ARC
  5
2F6
100
AcDbEntity
  8
0
100
AcDbCircle
 62
7
  6
CONTINUOUS
 10
134.533658326
 20
530.1109740462
 40
6.0034300864
100
AcDbArc
 50
8.9426657822
 51
171.0641218236
  0
ARC
  5
2F7
100
AcDbEntity
  8
0
100
AcDbCircle
 62
7
  6
CONTINUOUS
 10
88.5192389385
 20
928.1115721014
 40
5.818479819
100
AcDbArc
 50
233.7677440158
 51
235.7275271229
  0
ARC
  5
2F8
100
AcDbEntity
  8
0
100
AcDbCircle
 62
7
  6
CONTINUOUS
 10
134.533658326
 20
530.1109616087
 40
5.8034636223
100
AcDbArc
 50
14.3134661965
 51
165.6865338035
  0
ARC
  5
2F9
100
AcDbEntity
  8
0
100
AcDbCircle
 62
7
  6
CONTINUOUS
 10
134.5313707596
 20
525.218222074
 40
5.0000003276
100
AcDbArc
 50
35.0000037544
 51
144.9999962457
  0
ARC
  5
2FA
100
AcDbEntity
  8
0
100
AcDbCircle
 62
7
  6
CONTINUOUS
 10
126.387335482
 20
532.682774079
 40
4.5755985408
100
AcDbArc
 50
81.5753447622
 51
81.9654584191
  0
ARC
  5
2FB
100
AcDbEntity
  8
0
100
AcDbCircle
 62
7
  6
CONTINUOUS
 10
133.7297220817
 20
531.8923388292
 40
4.1292408651
100
AcDbArc
 50
113.3629516315
 51
115.2166991217
  0
ARC
  5
2FC
100
AcDbEntity
  8
0
100
AcDbCircle
 62
7
  6
CONTINUOUS
 10
135.3368139193
 20
531.8945321766
 40
4.1275622283
100
AcDbArc
 50
64.8305389559
 51
66.6843507436
  0
ARC
  5
2FD
100
AcDbEntity
  8
0
100
AcDbCircle
 62
7
  6
CONTINUOUS
 10
131.4206882049
 20
534.8436497303
 40
3.8476866476
100
AcDbArc
 50
79.9482607215
 51
80.8894718058
  0
ARC
  5
2FE
100
AcDbEntity
  8
0
100
AcDbCircle
 62
7
  6
CONTINUOUS
 10
136.4358985203
 20
535.1006216189
 40
3.5921292186
100
AcDbArc
 50
79.4717483417
 51
80.4306323959
  0
ARC
  5
2FF
100
AcDbEntity
  8
0
100
AcDbCircle
 62
7
  6
CONTINUOUS
 10
132.6254972588
 20
535.1045632901
 40
3.5880076182
100
AcDbArc
 50
99.5546645731
 51
100.5186248753
  0
ARC
  5
300
100
AcDbEntity
  8
0
100
AcDbCircle
 62
7
  6
CONTINUOUS
 10
137.5601909259
 20
535.3124453288
 40
3.3717934653
100
AcDbArc
 50
98.994295871
 51
100.0724127421
  0
ARC
  5
301
100
AcDbEntity
  8
0
100
AcDbCircle
 62
7
  6
CONTINUOUS
 10
127.4775234697
 20
534.4460128452
 40
2.8038984296
100
AcDbArc
 50
99.2489734938
 51
100.4182449283
  0
ARC
  5
302
100
AcDbEntity
  8
0
100
AcDbCircle
 62
7
  6
CONTINUOUS
 10
121.9016524709
 20
535.5317067723
 40
2.4692282724
100
AcDbArc
 50
47.6765359745
 51
49.449945751
  0
ARC
  5
303
100
AcDbEntity
  8
0
100
AcDbCircle
 62
7
  6
CONTINUOUS
 10
82.8054796454
 20
923.1301674342
 40
2.2800256822
100
AcDbArc
 50
49.0643616501
 51
51.2842226463
  0
ARC
  5
304
100
AcDbEntity
  8
0
100
AcDbCircle
 62
7
  6
CONTINUOUS
 10
140.1882250091
 20
530.8750763235
 40
0.6000006555
100
AcDbArc
 50
166.7445344146
 51
283.3520050584
  0
ARC
  5
305
100
AcDbEntity
  8
0
100
AcDbCircle
 62
7
  6
CONTINUOUS
 10
128.8745165102
 20
530.8750763235
 40
0.6000006555
100
AcDbArc
 50
257.0203168896
 51
12.9294830994
  0
ARC
  5
306
100
AcDbEntity
  8
0
100
AcDbCircle
 62
7
  6
CONTINUOUS
 10
126.7843397592
 20
525.6711005187
 40
0.302312361
100
AcDbArc
 50
87.0537205797
 51
89.0039997868
  0
ARC
  5
307
100
AcDbEntity
  8
0
100
AcDbCircle
 62
7
  6
CONTINUOUS
 10
126.7843606925
 20
525.6720877961
 40
0.3013253142
100
AcDbArc
 50
74.4396259614
 51
87.0480466117
  0
ARC
  5
308
100
AcDbEntity
  8
0
100
AcDbCircle
 62
7
  6
CONTINUOUS
 10
128.4020859222
 20
531.0749000465
 40
0.200066568
100
AcDbArc
 50
316.489047113
 51
351.1180081639
  0
ARC
  5
309
100
AcDbEntity
  8
0
100
AcDbCircle
 62
7
  6
CONTINUOUS
 10
140.6605865875
 20
531.0748851673
 40
0.199998062
100
AcDbArc
 50
188.880835967
 51
223.7018062094
  0
ARC
  5
30A
100
AcDbEntity
  8
0
100
AcDbCircle
 62
7
  6
CONTINUOUS
 10
401.3796684433
 20
520.416656031
 40
279.303273385
100
AcDbArc
 50
179.7473227322
 51
180.5905330074
  0
ARC
  5
30B
100
AcDbEntity
  8
0
100
AcDbCircle
 62
7
  6
CONTINUOUS
 10
399.9734287926
 20
520.4614433105
 40
277.8107960732
100
AcDbArc
 50
179.7552842868
 51
180.6027341011
  0
ARC
  5
30C
100
AcDbEntity
  8
0
100
AcDbCircle
 62
7
  6
CONTINUOUS
 10
379.8317355786
 20
520.6303345026
 40
257.7548987361
100
AcDbArc
 50
178.8649116345
 51
179.7736970249
  0
ARC
  5
30D
100
AcDbEntity
  8
0
100
AcDbCircle
 62
7
  6
CONTINUOUS
 10
347.0009579529
 20
520.818273422
 40
224.8373233888
100
AcDbArc
 50
178.7471358261
 51
179.7885595306
  0
ARC
  5
30E
100
AcDbEntity
  8
0
100
AcDbCircle
 62
7
  6
CONTINUOUS
 10
333.3082687858
 20
519.4953253665
 40
211.2262532643
100
AcDbArc
 50
180.5309387828
 51
181.6377574077
  0
ARC
  5
30F
100
AcDbEntity
  8
0
100
AcDbCircle
 62
7
  6
CONTINUOUS
 10
312.253239815
 20
519.3760601968
 40
190.0842772042
100
AcDbArc
 50
180.5537376855
 51
181.7830751845
  0
ARC
  5
310
100
AcDbEntity
  8
0
100
AcDbCircle
 62
7
  6
CONTINUOUS
 10
750.2217742007
 20
163.8703804382
 40
86.6505058727
100
AcDbArc
 50
203.2121531445
 51
203.6493402135
  0
ARC
  5
311
100
AcDbEntity
  8
0
100
AcDbCircle
 62
7
  6
CONTINUOUS
 10
659.5670335648
 20
64.6245827736
 40
66.4417125983
100
AcDbArc
 50
70.4847842072
 51
70.9253561526
  0
ARC
  5
312
100
AcDbEntity
  8
0
100
AcDbCircle
 62
7
  6
CONTINUOUS
 10
688.2742232551
 20
130.9165949911
 40
7.7680078321
100
AcDbArc
 50
216.2954651662
 51
217.3931661935
  0
ARC
  5
313
100
AcDbEntity
  8
0
100
AcDbCircle
 62
7
  6
CONTINUOUS
 10
685.4042996441
 20
128.5841972691
 40
4.0685146493
100
AcDbArc
 50
221.6881040056
 51
223.102667816
  0
ARC
  5
314
100
AcDbEntity
  8
0
100
AcDbCircle
 62
7
  6
CONTINUOUS
 10
659.5670860698
 20
985.8117100582
 40
66.4415524316
100
AcDbArc
 50
289.074643699
 51
289.5152175176
  0
ARC
  5
315
100
AcDbEntity
  8
0
100
AcDbCircle
 62
7
  6
CONTINUOUS
 10
686.4194897932
 20
914.7327981341
 40
16.9056901308
100
AcDbArc
 50
154.3967161743
 51
154.8914706501
  0
ARC
  5
316
100
AcDbEntity
  8
0
100
AcDbCircle
 62
7
  6
CONTINUOUS
 10
664.4327414667
 20
926.3651392126
 40
8.3143953775
100
AcDbArc
 50
325.4153942101
 51
327.5103599137
  0
ARC
  5
317
100
AcDbEntity
  8
0
100
AcDbCircle
 62
7
  6
CONTINUOUS
 10
688.274115266
 20
919.5199308695
 40
7.7678724069
100
AcDbArc
 50
142.6068647626
 51
143.7043197419
  0
ARC
  5
318
100
AcDbEntity
  8
0
100
AcDbCircle
 62
7
  6
CONTINUOUS
 10
685.4042999323
 20
921.8522465598
 40
4.0685150442
100
AcDbArc
 50
136.8974122105
 51
138.3117878777
  0
SPLINE
  5
319
100
AcDbEntity
  8
0
100
AcDbSpline
 62
7
  6
CONTINUOUS
 70
0
 71
3
 72
15
 73
11
 74
0
 42
0.0000001
 43
0.0000001
 44
0.0000000001
 40
0.0
 40
0.0
 40
0.0
 40
0.0
 40
0.3818350161
 40
0.5544693432
 40
0.7057599617
 40
0.8300885379
 40
0.9228245639
 40
0.9560424301
 40
0.9800885525
 40
1.0
 40
1.0
 40
1.0
 40
1.0
 10
126.5289649916
 20
524.7587842693
 30
0.0
 10
126.5311259015
 20
524.7205316994
 30
0.0
 10
126.5348498316
 20
524.6650306658
 30
0.0
 10
126.54070344
 20
524.5944178553
 30
0.0
 10
126.5449781584
 20
524.549731582
 30
0.0
 10
126.5487069081
 20
524.512711516
 30
0.0
 10
126.5520537363
 20
524.4883519202
 30
0.0
 10
126.5536184653
 20
524.4726418491
 30
0.0
 10
126.5557492023
 20
524.4664449545
 30
0.0
 10
126.5547845185
 20
524.4592239266
 30
0.0
 10
126.5567824452
 20
524.4592240802
 30
0.0
  0
SPLINE
  5
31A
100
AcDbEntity
  8
0
100
AcDbSpline
 62
7
  6
CONTINUOUS
 70
0
 71
3
 72
15
 73
11
 74
0
 42
0.0000001
 43
0.0000001
 44
0.0000000001
 40
0.0
 40
0.0
 40
0.0
 40
0.0
 40
0.0199216624
 40
0.0439745589
 40
0.0771989315
 40
0.1699481204
 40
0.2942859389
 40
0.4455768802
 40
0.6182007152
 40
1.0
 40
1.0
 40
1.0
 40
1.0
 10
126.5581599228
 20
525.9771960276
 30
0.0
 10
126.5561606955
 20
525.9771961873
 30
0.0
 10
126.5571135445
 20
525.9699749633
 30
0.0
 10
126.5549704461
 20
525.9637763354
 30
0.0
 10
126.553376893
 20
525.9480657952
 30
0.0
 10
126.5499851069
 20
525.9237049528
 30
0.0
 10
126.5461886938
 20
525.8866848422
 30
0.0
 10
126.5418327698
 20
525.8420000885
 30
0.0
 10
126.5358510341
 20
525.7713929236
 30
0.0
 10
126.532026418
 20
525.7158956635
 30
0.0
 10
126.5297962054
 20
525.6776453721
 30
0.0
  0
LINE
  5
31B
100
AcDbEntity
  8
0
100
AcDbLine
 62
7
  6
CONTINUOUS
 10
128.4672646348
 20
519.9878715098
 11
128.4673269944
 21
519.9885379476
  0
SPLINE
  5
31C
100
AcDbEntity
  8
0
100
AcDbSpline
 62
7
  6
CONTINUOUS
 70
0
 71
3
 72
10
 73
6
 74
0
 42
0.0000001
 43
0.0000001
 44
0.0000000001
 40
0.0
 40
0.0
 40
0.0
 40
0.0
 40
0.0955577858
 40
0.2986812828
 40
1.0
 40
1.0
 40
1.0
 40
1.0
 10
128.4673269944
 20
519.9885379476
 30
0.0
 10
128.4681741284
 20
519.9914036021
 30
0.0
 10
128.4747748666
 20
519.9985803579
 30
0.0
 10
128.4952823453
 20
520.0215684843
 30
0.0
 10
128.5176049226
 20
520.0397300346
 30
0.0
 10
128.5352445174
 20
520.0527618959
 30
0.0
  0
SPLINE
  5
31D
100
AcDbEntity
  8
0
100
AcDbSpline
 62
7
  6
CONTINUOUS
 70
0
 71
3
 72
9
 73
5
 74
0
 42
0.0000001
 43
0.0000001
 44
0.0000000001
 40
0.0
 40
0.0
 40
0.0
 40
0.0
 40
0.2176434237
 40
1.0
 40
1.0
 40
1.0
 40
1.0
 10
128.5352445174
 20
520.0527618959
 30
0.0
 10
128.5477848238
 20
520.0620264814
 30
0.0
 10
128.6072948101
 20
520.101960738
 30
0.0
 10
128.6748925242
 20
520.1299557256
 30
0.0
 10
128.7292715511
 20
520.1435230344
 30
0.0
  0
LINE
  5
31E
100
AcDbEntity
  8
0
100
AcDbLine
 62
7
  6
CONTINUOUS
 10
128.4741690129
 20
530.442083758
 11
128.474308954
 21
530.4412161973
  0
SPLINE
  5
31F
100
AcDbEntity
  8
0
100
AcDbSpline
 62
7
  6
CONTINUOUS
 70
0
 71
3
 72
9
 73
5
 74
0
 42
0.0000001
 43
0.0000001
 44
0.0000000001
 40
0.0
 40
0.0
 40
0.0
 40
0.0
 40
0.3079901068
 40
1.0
 40
1.0
 40
1.0
 40
1.0
 10
128.474308954
 20
530.4412161973
 30
0.0
 10
128.4766253928
 20
530.4351298837
 30
0.0
 10
128.4932904512
 20
530.4204745732
 30
0.0
 10
128.5078382929
 20
530.4058296498
 30
0.0
 10
128.5191897141
 20
530.3965969888
 30
0.0
  0
SPLINE
  5
320
100
AcDbEntity
  8
0
100
AcDbSpline
 62
7
  6
CONTINUOUS
 70
0
 71
3
 72
9
 73
5
 74
0
 42
0.0000001
 43
0.0000001
 44
0.0000000001
 40
0.0
 40
0.0
 40
0.0
 40
0.0
 40
0.2022075637
 40
1.0
 40
1.0
 40
1.0
 40
1.0
 10
128.5191897141
 20
530.3965969888
 30
0.0
 10
128.5320446908
 20
530.3861414132
 30
0.0
 10
128.5982580106
 20
530.3377868925
 30
0.0
 10
128.6760473701
 20
530.3050896443
 30
0.0
 10
128.7397530438
 20
530.2904058226
 30
0.0
  0
SPLINE
  5
321
100
AcDbEntity
  8
0
100
AcDbSpline
 62
7
  6
CONTINUOUS
 70
0
 71
3
 72
12
 73
8
 74
0
 42
0.0000001
 43
0.0000001
 44
0.0000000001
 40
0.0
 40
0.0
 40
0.0
 40
0.0
 40
0.3632564707
 40
0.6799218976
 40
0.9023836278
 40
0.9679821382
 40
1.0
 40
1.0
 40
1.0
 40
1.0
 10
129.4593048604
 20
531.0093274759
 30
0.0
 10
129.4509091801
 20
531.0458984547
 30
0.0
 10
129.428368328
 20
531.1130975704
 30
0.0
 10
129.3821202212
 20
531.1942971222
 30
0.0
 10
129.3432450544
 20
531.2439942507
 30
0.0
 10
129.319458529
 20
531.266523891
 30
0.0
 10
129.311888884
 20
531.2736122288
 30
0.0
 10
129.3088277022
 20
531.2748640859
 30
0.0
  0
LINE
  5
322
100
AcDbEntity
  8
0
100
AcDbLine
 62
7
  6
CONTINUOUS
 10
129.3088277022
 20
531.2748640859
 11
129.3078595258
 21
531.275044285
  0
SPLINE
  5
323
100
AcDbEntity
  8
0
100
AcDbSpline
 62
7
  6
CONTINUOUS
 70
0
 71
3
 72
9
 73
5
 74
0
 42
0.0000001
 43
0.0000001
 44
0.0000000001
 40
0.0
 40
0.0
 40
0.0
 40
0.0
 40
0.2728833678
 40
1.0
 40
1.0
 40
1.0
 40
1.0
 10
139.6042099371
 20
531.0126524196
 30
0.0
 10
139.6087136024
 20
531.0317706277
 30
0.0
 10
139.6289515956
 20
531.1008975344
 30
0.0
 10
139.6623311184
 20
531.1661813075
 30
0.0
 10
139.6929391335
 20
531.208633907
 30
0.0
  0
SPLINE
  5
324
100
AcDbEntity
  8
0
100
AcDbSpline
 62
7
  6
CONTINUOUS
 70
0
 71
3
 72
10
 73
6
 74
0
 42
0.0000001
 43
0.0000001
 44
0.0000000001
 40
0.0
 40
0.0
 40
0.0
 40
0.0
 40
0.7016609159
 40
0.9046516714
 40
1.0
 40
1.0
 40
1.0
 40
1.0
 10
139.6929391335
 20
531.208633907
 30
0.0
 10
139.7057482701
 20
531.2263998792
 30
0.0
 10
139.7236201308
 20
531.2489029035
 30
0.0
 10
139.7463275176
 20
531.2696275178
 30
0.0
 10
139.7534063852
 20
531.2762995201
 30
0.0
 10
139.7562529868
 20
531.2771684526
 30
0.0
  0
LINE
  5
325
100
AcDbEntity
  8
0
100
AcDbLine
 62
7
  6
CONTINUOUS
 10
139.7562529868
 20
531.2771684526
 11
139.7569154026
 21
531.2772348518
  0
LINE
  5
326
100
AcDbEntity
  8
0
100
AcDbLine
 62
7
  6
CONTINUOUS
 10
140.5911097102
 20
530.4444449569
 11
140.5910446182
 21
530.4437830184
  0
SPLINE
  5
327
100
AcDbEntity
  8
0
100
AcDbSpline
 62
7
  6
CONTINUOUS
 70
0
 71
3
 72
10
 73
6
 74
0
 42
0.0000001
 43
0.0000001
 44
0.0000000001
 40
0.0
 40
0.0
 40
0.0
 40
0.0
 40
0.095318071
 40
0.2983076161
 40
1.0
 40
1.0
 40
1.0
 40
1.0
 10
140.5910446182
 20
530.4437830184
 30
0.0
 10
140.5901803913
 20
530.440932361
 30
0.0
 10
140.5835113927
 20
530.4338355892
 30
0.0
 10
140.5628010036
 20
530.4110681114
 30
0.0
 10
140.5402973933
 20
530.3931403592
 30
0.0
 10
140.5225288578
 20
530.3802896457
 30
0.0
  0
SPLINE
  5
328
100
AcDbEntity
  8
0
100
AcDbSpline
 62
7
  6
CONTINUOUS
 70
0
 71
3
 72
9
 73
5
 74
0
 42
0.0000001
 43
0.0000001
 44
0.0000000001
 40
0.0
 40
0.0
 40
0.0
 40
0.0
 40
0.2177025532
 40
1.0
 40
1.0
 40
1.0
 40
1.0
 10
140.5225288578
 20
530.3802896457
 30
0.0
 10
140.5098431878
 20
530.3711150061
 30
0.0
 10
140.4496932928
 20
530.3316455351
 30
0.0
 10
140.3815217539
 20
530.3042855923
 30
0.0
 10
140.3267849349
 20
530.2912938867
 30
0.0
  0
SPLINE
  5
329
100
AcDbEntity
  8
0
100
AcDbSpline
 62
7
  6
CONTINUOUS
 70
0
 71
3
 72
8
 73
4
 74
0
 42
0.0000001
 43
0.0000001
 44
0.0000000001
 40
0.0
 40
0.0
 40
0.0
 40
0.0
 40
1.0
 40
1.0
 40
1.0
 40
1.0
 10
142.2031148898
 20
525.9521903471
 30
0.0
 10
142.2365852868
 20
525.965494635
 30
0.0
 10
142.2730601111
 20
525.9727429015
 30
0.0
 10
142.3090723562
 20
525.9733672036
 30
0.0
  0
SPLINE
  5
32A
100
AcDbEntity
  8
0
100
AcDbSpline
 62
7
  6
CONTINUOUS
 70
0
 71
3
 72
8
 73
4
 74
0
 42
0.0000001
 43
0.0000001
 44
0.0000000001
 40
0.0
 40
0.0
 40
0.0
 40
0.0
 40
1.0
 40
1.0
 40
1.0
 40
1.0
 10
142.3090629757
 20
524.4630769444
 30
0.0
 10
142.273525172
 20
524.4636930833
 30
0.0
 10
142.2375439792
 20
524.4707553745
 30
0.0
 10
142.2044520187
 20
524.4837260054
 30
0.0
  0
SPLINE
  5
32B
100
AcDbEntity
  8
0
100
AcDbSpline
 62
7
  6
CONTINUOUS
 70
0
 71
3
 72
12
 73
8
 74
0
 42
0.0000001
 43
0.0000001
 44
0.0000000001
 40
0.0
 40
0.0
 40
0.0
 40
0.0
 40
0.3629552024
 40
0.6788822996
 40
0.9011952904
 40
0.9672441289
 40
1.0
 40
1.0
 40
1.0
 40
1.0
 10
140.3372174812
 20
520.1425752142
 30
0.0
 10
140.3733492572
 20
520.1333128361
 30
0.0
 10
140.4395122211
 20
520.1092736445
 30
0.0
 10
140.5191133775
 20
520.0614318814
 30
0.0
 10
140.5675474434
 20
520.021655653
 30
0.0
 10
140.5895957515
 20
519.9974411077
 30
0.0
 10
140.5964964413
 20
519.9896579953
 30
0.0
 10
140.5977751778
 20
519.9865440822
 30
0.0
  0
LINE
  5
32C
100
AcDbEntity
  8
0
100
AcDbLine
 62
7
  6
CONTINUOUS
 10
140.5977751778
 20
519.9865440822
 11
140.5979819736
 21
519.9854662573
  0
LINE
  5
32D
100
AcDbEntity
  8
0
100
AcDbLine
 62
7
  6
CONTINUOUS
 10
139.7644864215
 20
519.1512398273
 11
139.7638181153
 21
519.1512994318
  0
SPLINE
  5
32E
100
AcDbEntity
  8
0
100
AcDbSpline
 62
7
  6
CONTINUOUS
 70
0
 71
3
 72
10
 73
6
 74
0
 42
0.0000001
 43
0.0000001
 44
0.0000000001
 40
0.0
 40
0.0
 40
0.0
 40
0.0
 40
0.0956638763
 40
0.2988555476
 40
1.0
 40
1.0
 40
1.0
 40
1.0
 10
139.7638181153
 20
519.1512994318
 30
0.0
 10
139.7609405273
 20
519.1521332186
 30
0.0
 10
139.7537055259
 20
519.1586960614
 30
0.0
 10
139.7305498667
 20
519.1790871866
 30
0.0
 10
139.7122170274
 20
519.2013168183
 30
0.0
 10
139.6990538954
 20
519.2188920409
 30
0.0
  0
SPLINE
  5
32F
100
AcDbEntity
  8
0
100
AcDbSpline
 62
7
  6
CONTINUOUS
 70
0
 71
3
 72
9
 73
5
 74
0
 42
0.0000001
 43
0.0000001
 44
0.0000000001
 40
0.0
 40
0.0
 40
0.0
 40
0.0
 40
0.2176501515
 40
1.0
 40
1.0
 40
1.0
 40
1.0
 10
139.6990538954
 20
519.2188920409
 30
0.0
 10
139.6897274633
 20
519.2313445576
 30
0.0
 10
139.6494864267
 20
519.2904584099
 30
0.0
 10
139.6210830297
 20
519.3577059216
 30
0.0
 10
139.6071486041
 20
519.4118653227
 30
0.0
  0
SPLINE
  5
330
100
AcDbEntity
  8
0
100
AcDbSpline
 62
7
  6
CONTINUOUS
 70
0
 71
3
 72
9
 73
5
 74
0
 42
0.0000001
 43
0.0000001
 44
0.0000000001
 40
0.0
 40
0.0
 40
0.0
 40
0.0
 40
0.2729933542
 40
1.0
 40
1.0
 40
1.0
 40
1.0
 10
129.4564259498
 20
519.4151413202
 30
0.0
 10
129.4516553298
 20
519.3961566032
 30
0.0
 10
129.4304819516
 20
519.3275964185
 30
0.0
 10
129.3963243047
 20
519.2630415639
 30
0.0
 10
129.3652673239
 20
519.2211728557
 30
0.0
  0
SPLINE
  5
331
100
AcDbEntity
  8
0
100
AcDbSpline
 62
7
  6
CONTINUOUS
 70
0
 71
3
 72
10
 73
6
 74
0
 42
0.0000001
 43
0.0000001
 44
0.0000000001
 40
0.0
 40
0.0
 40
0.0
 40
0.0
 40
0.7012864441
 40
0.9044102493
 40
1.0
 40
1.0
 40
1.0
 40
1.0
 10
129.3652673239
 20
519.2211728557
 30
0.0
 10
129.3522184112
 20
519.2035812836
 30
0.0
 10
129.3340390861
 20
519.1813223629
 30
0.0
 10
129.3110440107
 20
519.1608790924
 30
0.0
 10
129.3038634017
 20
519.1543003055
 30
0.0
 10
129.3009991827
 20
519.1534579952
 30
0.0
  0
LINE
  5
332
100
AcDbEntity
  8
0
100
AcDbLine
 62
7
  6
CONTINUOUS
 10
129.3009991827
 20
519.1534579952
 11
129.300331813
 21
519.1533965204
  0
SPLINE
  5
333
100
AcDbEntity
  8
0
100
AcDbSpline
 62
7
  6
CONTINUOUS
 70
0
 71
3
 72
9
 73
5
 74
0
 42
0.0000001
 43
0.0000001
 44
0.0000000001
 40
0.0
 40
0.0
 40
0.0
 40
0.0
 40
0.5008524725
 40
1.0
 40
1.0
 40
1.0
 40
1.0
 10
139.3616158599
 20
528.6003965071
 30
0.0
 10
139.4043381357
 20
528.6302909105
 30
0.0
 10
139.518990379
 20
528.6559478861
 30
0.0
 10
139.6155527981
 20
528.589215508
 30
0.0
 10
139.643912777
 20
528.5456712686
 30
0.0
  0
SPLINE
  5
334
100
AcDbEntity
  8
0
100
AcDbSpline
 62
7
  6
CONTINUOUS
 70
0
 71
3
 72
9
 73
5
 74
0
 42
0.0000001
 43
0.0000001
 44
0.0000000001
 40
0.0
 40
0.0
 40
0.0
 40
0.0
 40
0.499415949
 40
1.0
 40
1.0
 40
1.0
 40
1.0
 10
129.4188285801
 20
528.5456710277
 30
0.0
 10
129.4472040798
 20
528.5892392384
 30
0.0
 10
129.5437957041
 20
528.655964966
 30
0.0
 10
129.65842578
 20
528.6302752457
 30
0.0
 10
129.701125662
 20
528.6003965108
 30
0.0
  0
SPLINE
  5
335
100
AcDbEntity
  8
0
100
AcDbSpline
 62
7
  6
CONTINUOUS
 70
0
 71
3
 72
9
 73
5
 74
0
 42
0.0000001
 43
0.0000001
 44
0.0000000001
 40
0.0
 40
0.0
 40
0.0
 40
0.0
 40
0.4969856459
 40
1.0
 40
1.0
 40
1.0
 40
1.0
 10
128.4749136817
 20
519.4622280033
 30
0.0
 10
128.4919141038
 20
519.4521692833
 30
0.0
 10
128.5132898506
 20
519.4152803118
 30
0.0
 10
128.5275280606
 20
519.378505436
 30
0.0
 10
128.5308292703
 20
519.3587869643
 30
0.0
  0
SPLINE
  5
336
100
AcDbEntity
  8
0
100
AcDbSpline
 62
7
  6
CONTINUOUS
 70
0
 71
3
 72
9
 73
5
 74
0
 42
0.0000001
 43
0.0000001
 44
0.0000000001
 40
0.0
 40
0.0
 40
0.0
 40
0.0
 40
0.1801465418
 40
1.0
 40
1.0
 40
1.0
 40
1.0
 10
147.7786442315
 20
499.5183960169
 30
0.0
 10
147.7308336256
 20
499.4742660535
 30
0.0
 10
147.4570920647
 20
499.2382760532
 30
0.0
 10
147.1500441832
 20
499.0434322611
 30
0.0
 10
146.8934652099
 20
498.8956242409
 30
0.0
  0
SPLINE
  5
337
100
AcDbEntity
  8
0
100
AcDbSpline
 62
7
  6
CONTINUOUS
 70
0
 71
3
 72
9
 73
5
 74
0
 42
0.0000001
 43
0.0000001
 44
0.0000000001
 40
0.0
 40
0.0
 40
0.0
 40
0.0
 40
0.2349205133
 40
1.0
 40
1.0
 40
1.0
 40
1.0
 10
146.8934652099
 20
498.8956242409
 30
0.0
 10
146.83065257
 20
498.8594396236
 30
0.0
 10
146.5614139255
 20
498.7086481533
 30
0.0
 10
146.2858639905
 20
498.5692522267
 30
0.0
 10
146.0726541645
 20
498.4678815679
 30
0.0
  0
SPLINE
  5
338
100
AcDbEntity
  8
0
100
AcDbSpline
 62
7
  6
CONTINUOUS
 70
0
 71
3
 72
15
 73
11
 74
0
 42
0.0000001
 43
0.0000001
 44
0.0000000001
 40
0.0
 40
0.0
 40
0.0
 40
0.0
 40
0.1250688084
 40
0.249993247
 40
0.3749384733
 40
0.4999990335
 40
0.6250576121
 40
0.7500051558
 40
0.8749272301
 40
1.0
 40
1.0
 40
1.0
 40
1.0
 10
135.3938670169
 20
502.718222074
 30
0.0
 10
135.3938670169
 20
502.8303005504
 30
0.0
 10
135.3487747335
 20
503.0568004097
 30
0.0
 10
135.1565848693
 20
503.3425973525
 30
0.0
 10
134.8695994984
 20
503.5336475363
 30
0.0
 10
134.5313750276
 20
503.6005801363
 30
0.0
 10
134.1931475434
 20
503.5336508875
 30
0.0
 10
133.9061635696
 20
503.3426021052
 30
0.0
 10
133.7139657167
 20
503.0568065469
 30
0.0
 10
133.6688745024
 20
502.8303041003
 30
0.0
 10
133.6688745024
 20
502.718222074
 30
0.0
  0
SPLINE
  5
339
100
AcDbEntity
  8
0
100
AcDbSpline
 62
7
  6
CONTINUOUS
 70
0
 71
3
 72
15
 73
11
 74
0
 42
0.0000001
 43
0.0000001
 44
0.0000000001
 40
0.0
 40
0.0
 40
0.0
 40
0.0
 40
0.1250688185
 40
0.2499932575
 40
0.3749385059
 40
0.4999990666
 40
0.6250576326
 40
0.7500051776
 40
0.8749272417
 40
1.0
 40
1.0
 40
1.0
 40
1.0
 10
133.6688745024
 20
502.718222074
 30
0.0
 10
133.6688745024
 20
502.6061435881
 30
0.0
 10
133.7139667721
 20
502.3796437116
 30
0.0
 10
133.9061566834
 20
502.0938467628
 30
0.0
 10
134.1931420786
 20
501.9027965659
 30
0.0
 10
134.5313665735
 20
501.835864033
 30
0.0
 10
134.8695940445
 20
501.9027932797
 30
0.0
 10
135.1565779883
 20
502.0938420792
 30
0.0
 10
135.3487758252
 20
502.3796376264
 30
0.0
 10
135.3938670169
 20
502.6061400576
 30
0.0
 10
135.3938670169
 20
502.718222074
 30
0.0
  0
SPLINE
  5
33A
100
AcDbEntity
  8
0
100
AcDbSpline
 62
7
  6
CONTINUOUS
 70
0
 71
3
 72
9
 73
5
 74
0
 42
0.0000001
 43
0.0000001
 44
0.0000000001
 40
0.0
 40
0.0
 40
0.0
 40
0.0
 40
0.4999994545
 40
1.0
 40
1.0
 40
1.0
 40
1.0
 10
136.970487959
 20
514.7369828855
 30
0.0
 10
136.2080621914
 20
514.4084638216
 30
0.0
 10
134.5310936798
 20
514.0594836729
 30
0.0
 10
132.8544103172
 20
514.4098379817
 30
0.0
 10
132.0922535603
 20
514.7389852317
 30
0.0
  0
SPLINE
  5
33B
100
AcDbEntity
  8
0
100
AcDbSpline
 62
7
  6
CONTINUOUS
 70
0
 71
3
 72
9
 73
5
 74
0
 42
0.0000001
 43
0.0000001
 44
0.0000000001
 40
0.0
 40
0.0
 40
0.0
 40
0.0
 40
0.3508907463
 40
1.0
 40
1.0
 40
1.0
 40
1.0
 10
147.015430087
 20
498.7583914489
 30
0.0
 10
146.9112893809
 20
498.7134316557
 30
0.0
 10
146.6238794546
 20
498.5646434849
 30
0.0
 10
146.3380548059
 20
498.4140050211
 30
0.0
 10
146.152302022
 20
498.3163994899
 30
0.0
  0
SPLINE
  5
33C
100
AcDbEntity
  8
0
100
AcDbSpline
 62
7
  6
CONTINUOUS
 70
0
 71
3
 72
9
 73
5
 74
0
 42
0.0000001
 43
0.0000001
 44
0.0000000001
 40
0.0
 40
0.0
 40
0.0
 40
0.0
 40
0.6487376245
 40
1.0
 40
1.0
 40
1.0
 40
1.0
 10
122.9104394973
 20
498.3163994899
 30
0.0
 10
122.7248232325
 20
498.414006209
 30
0.0
 10
122.4388679303
 20
498.5643659426
 30
0.0
 10
122.1516347736
 20
498.7135522551
 30
0.0
 10
122.0473114066
 20
498.7583914637
 30
0.0
  0
SPLINE
  5
33D
100
AcDbEntity
  8
0
100
AcDbSpline
 62
7
  6
CONTINUOUS
 70
0
 71
3
 72
17
 73
13
 74
0
 42
0.0000001
 43
0.0000001
 44
0.0000000001
 40
0.0
 40
0.0
 40
0.0
 40
0.0
 40
0.0629218812
 40
0.1256041991
 40
0.2499779895
 40
0.3745288645
 40
0.4999312831
 40
0.6253556091
 40
0.6879927066
 40
0.7504263132
 40
0.8748008154
 40
1.0
 40
1.0
 40
1.0
 40
1.0
 10
132.0922535603
 20
502.2041670555
 30
0.0
 10
132.1164295019
 20
502.0580556842
 30
0.0
 10
132.1863570923
 20
501.7691745794
 30
0.0
 10
132.4203470208
 20
501.2269721976
 30
0.0
 10
132.8784349026
 20
500.6340767833
 30
0.0
 10
133.6428882039
 20
500.1587101315
 30
0.0
 10
134.5309766236
 20
499.9881107634
 30
0.0
 10
135.2737811444
 20
500.1311302124
 30
0.0
 10
135.8037350505
 20
500.3959699268
 30
0.0
 10
136.2736415594
 20
500.7526215713
 30
0.0
 10
136.7354308132
 20
501.3437240818
 30
0.0
 10
136.9211708737
 20
501.9136443761
 30
0.0
 10
136.970487959
 20
502.2041670555
 30
0.0
  0
LINE
  5
33E
100
AcDbEntity
  8
0
100
AcDbLine
 62
7
  6
CONTINUOUS
 10
140.5331461327
 20
519.3586006418
 11
140.462881603
 21
519.3924508283
  0
SPLINE
  5
33F
100
AcDbEntity
  8
0
100
AcDbSpline
 62
7
  6
CONTINUOUS
 70
0
 71
3
 72
11
 73
7
 74
0
 42
0.0000001
 43
0.0000001
 44
0.0000000001
 40
0.0
 40
0.0
 40
0.0
 40
0.0
 40
0.2464386322
 40
0.4973107936
 40
0.7486737861
 40
1.0
 40
1.0
 40
1.0
 40
1.0
 10
131.970487959
 20
514.7939008787
 30
0.0
 10
131.5295373308
 20
515.0015056266
 30
0.0
 10
130.6862668335
 20
515.528577937
 30
0.0
 10
129.644290203
 20
516.6005322234
 30
0.0
 10
128.8876185218
 20
517.9012628114
 30
0.0
 10
128.608867657
 20
518.8679074345
 30
0.0
 10
128.5308292703
 20
519.3587869643
 30
0.0
  0
SPLINE
  5
340
100
AcDbEntity
  8
0
100
AcDbSpline
 62
7
  6
CONTINUOUS
 70
0
 71
3
 72
8
 73
4
 74
0
 42
0.0000001
 43
0.0000001
 44
0.0000000001
 40
0.0
 40
0.0
 40
0.0
 40
0.0
 40
1.0
 40
1.0
 40
1.0
 40
1.0
 10
141.9841652993
 20
537.20368603
 30
0.0
 10
142.0012455588
 20
537.2102577414
 30
0.0
 10
142.0197931431
 20
537.212122019
 30
0.0
 10
142.0374048507
 20
537.217096997
 30
0.0
  0
SPLINE
  5
341
100
AcDbEntity
  8
0
100
AcDbSpline
 62
7
  6
CONTINUOUS
 70
0
 71
3
 72
19
 73
15
 74
0
 42
0.0000001
 43
0.0000001
 44
0.0000000001
 40
0.0
 40
0.0
 40
0.0
 40
0.0
 40
0.0627611976
 40
0.1251535305
 40
0.1872302624
 40
0.2492719776
 40
0.3115752925
 40
0.3742338209
 40
0.499544218
 40
0.6247683558
 40
0.7495101806
 40
0.81201103
 40
0.8745885181
 40
1.0
 40
1.0
 40
1.0
 40
1.0
 10
137.0922535603
 20
538.6322340561
 30
0.0
 10
137.118788985
 20
538.7829161201
 30
0.0
 10
137.1971686357
 20
539.0802555208
 30
0.0
 10
137.4129889896
 20
539.4874350468
 30
0.0
 10
137.7211170414
 20
539.8284045026
 30
0.0
 10
138.1061823877
 20
540.0795016416
 30
0.0
 10
138.5439318422
 20
540.223238519
 30
0.0
 10
139.1568044788
 20
540.2731215259
 30
0.0
 10
139.9187103664
 20
540.0900217093
 30
0.0
 10
140.7023470538
 20
539.5947003529
 30
0.0
 10
141.2200711114
 20
539.0240473343
 30
0.0
 10
141.543719439
 20
538.5070472497
 30
0.0
 10
141.8078042593
 20
537.9546046236
 30
0.0
 10
141.9187463295
 20
537.505006848
 30
0.0
 10
141.9704656903
 20
537.2036821794
 30
0.0
  0
SPLINE
  5
342
100
AcDbEntity
  8
0
100
AcDbSpline
 62
7
  6
CONTINUOUS
 70
0
 71
3
 72
15
 73
11
 74
0
 42
0.0000001
 43
0.0000001
 44
0.0000000001
 40
0.0
 40
0.0
 40
0.0
 40
0.0
 40
0.1253766278
 40
0.2492807238
 40
0.3724361585
 40
0.4966779969
 40
0.6221818288
 40
0.7482115915
 40
0.8742111189
 40
1.0
 40
1.0
 40
1.0
 40
1.0
 10
127.0270125182
 20
537.2134822052
 30
0.0
 10
126.9923644752
 20
537.4015685831
 30
0.0
 10
126.8892950085
 20
537.7735672532
 30
0.0
 10
126.5430490824
 20
538.2433204988
 30
0.0
 10
126.0321771802
 20
538.5297991119
 30
0.0
 10
125.4504696631
 20
538.5702131966
 30
0.0
 10
124.8874953761
 20
538.4329699426
 30
0.0
 10
124.3714415068
 20
538.1687753558
 30
0.0
 10
123.9078147535
 20
537.8229042754
 30
0.0
 10
123.6351563067
 20
537.5506631554
 30
0.0
 10
123.5069276517
 20
537.4079210145
 30
0.0
  0
SPLINE
  5
343
100
AcDbEntity
  8
0
100
AcDbSpline
 62
7
  6
CONTINUOUS
 70
0
 71
3
 72
11
 73
7
 74
0
 42
0.0000001
 43
0.0000001
 44
0.0000000001
 40
0.0
 40
0.0
 40
0.0
 40
0.0
 40
0.2505861163
 40
0.5008374717
 40
0.7506534195
 40
1.0
 40
1.0
 40
1.0
 40
1.0
 10
122.7563040599
 20
505.6816586235
 30
0.0
 10
122.7762342689
 20
505.4840623089
 30
0.0
 10
122.8377054495
 20
505.0911000757
 30
0.0
 10
122.9905805772
 20
504.5147401058
 30
0.0
 10
123.2169673098
 20
503.9639200244
 30
0.0
 10
123.433293795
 20
503.6271188723
 30
0.0
 10
123.5640596505
 20
503.4789548607
 30
0.0
  0
SPLINE
  5
344
100
AcDbEntity
  8
0
100
AcDbSpline
 62
7
  6
CONTINUOUS
 70
0
 71
3
 72
8
 73
4
 74
0
 42
0.0000001
 43
0.0000001
 44
0.0000000001
 40
0.0
 40
0.0
 40
0.0
 40
0.0
 40
1.0
 40
1.0
 40
1.0
 40
1.0
 10
142.0922535603
 20
537.20368603
 30
0.0
 10
142.0736764478
 20
537.2067091446
 30
0.0
 10
142.053509065
 20
537.2073551997
 30
0.0
 10
142.0374048507
 20
537.217096997
 30
0.0
  0
SPLINE
  5
345
100
AcDbEntity
  8
0
100
AcDbSpline
 62
7
  6
CONTINUOUS
 70
0
 71
3
 72
15
 73
11
 74
0
 42
0.0000001
 43
0.0000001
 44
0.0000000001
 40
0.0
 40
0.0
 40
0.0
 40
0.0
 40
0.1254326984
 40
0.2494255105
 40
0.3113457217
 40
0.3733400066
 40
0.4975663552
 40
0.6230591206
 40
0.748982232
 40
1.0
 40
1.0
 40
1.0
 40
1.0
 10
142.0922535603
 20
537.203728037
 30
0.0
 10
142.1261541097
 20
537.3867768602
 30
0.0
 10
142.2211056897
 20
537.7495239719
 30
0.0
 10
142.5003486132
 20
538.1361546754
 30
0.0
 10
142.803835243
 20
538.349286589
 30
0.0
 10
143.1483748142
 20
538.4879607821
 30
0.0
 10
143.6226340236
 20
538.514817759
 30
0.0
 10
144.1669812819
 20
538.3684898936
 30
0.0
 10
144.8296170692
 20
538.0180391514
 30
0.0
 10
145.2528238104
 20
537.6373912901
 30
0.0
 10
145.498519732
 20
537.3573440849
 30
0.0
  0
SPLINE
  5
346
100
AcDbEntity
  8
0
100
AcDbSpline
 62
7
  6
CONTINUOUS
 70
0
 71
3
 72
15
 73
11
 74
0
 42
0.0000001
 43
0.0000001
 44
0.0000000001
 40
0.0
 40
0.0
 40
0.0
 40
0.0
 40
0.1253996868
 40
0.2492883067
 40
0.372481125
 40
0.4967490939
 40
0.6222604107
 40
0.7482565123
 40
0.8742217094
 40
1.0
 40
1.0
 40
1.0
 40
1.0
 10
126.970487959
 20
537.20368603
 30
0.0
 10
126.9393993423
 20
537.3871315891
 30
0.0
 10
126.8416064242
 20
537.7497192232
 30
0.0
 10
126.5080126375
 20
538.2097785834
 30
0.0
 10
126.00736994
 20
538.4847362797
 30
0.0
 10
125.4405258377
 20
538.5135041127
 30
0.0
 10
124.8956211718
 20
538.3699526527
 30
0.0
 10
124.3979502143
 20
538.1052832651
 30
0.0
 10
123.9509816324
 20
537.763814265
 30
0.0
 10
123.6886712524
 20
537.4964140626
 30
0.0
 10
123.5642217831
 20
537.3573440774
 30
0.0
  0
SPLINE
  5
347
100
AcDbEntity
  8
0
100
AcDbSpline
 62
7
  6
CONTINUOUS
 70
0
 71
3
 72
10
 73
6
 74
0
 42
0.0000001
 43
0.0000001
 44
0.0000000001
 40
0.0
 40
0.0
 40
0.0
 40
0.0
 40
0.4982787525
 40
0.7490163908
 40
1.0
 40
1.0
 40
1.0
 40
1.0
 10
123.5642217831
 20
537.3573440774
 30
0.0
 10
123.3054843553
 20
537.0602348517
 30
0.0
 10
123.0411754983
 20
536.5079890805
 30
0.0
 10
122.8363351932
 20
535.7457456957
 30
0.0
 10
122.7778605174
 20
535.3520581351
 30
0.0
 10
122.7566015075
 20
535.1547527488
 30
0.0
  0
SPLINE
  5
348
100
AcDbEntity
  8
0
100
AcDbSpline
 62
7
  6
CONTINUOUS
 70
0
 71
3
 72
8
 73
4
 74
0
 42
0.0000001
 43
0.0000001
 44
0.0000000001
 40
0.0
 40
0.0
 40
0.0
 40
0.0
 40
1.0
 40
1.0
 40
1.0
 40
1.0
 10
145.5557197131
 20
537.4080289846
 30
0.0
 10
145.5364242063
 20
537.3913958605
 30
0.0
 10
145.5172847788
 20
537.3745734302
 30
0.0
 10
145.4985198667
 20
537.3573439361
 30
0.0
  0
SPLINE
  5
349
100
AcDbEntity
  8
0
100
AcDbSpline
 62
7
  6
CONTINUOUS
 70
0
 71
3
 72
8
 73
4
 74
0
 42
0.0000001
 43
0.0000001
 44
0.0000000001
 40
0.0
 40
0.0
 40
0.0
 40
0.0
 40
1.0
 40
1.0
 40
1.0
 40
1.0
 10
122.2611279989
 20
513.4614953947
 30
0.0
 10
122.3442296436
 20
510.8643018393
 30
0.0
 10
122.4885552872
 20
508.2663508435
 30
0.0
 10
122.7565744178
 20
505.6816872304
 30
0.0
  0
SPLINE
  5
34A
100
AcDbEntity
  8
0
100
AcDbSpline
 62
7
  6
CONTINUOUS
 70
0
 71
3
 72
15
 73
11
 74
0
 42
0.0000001
 43
0.0000001
 44
0.0000000001
 40
0.0
 40
0.0
 40
0.0
 40
0.0
 40
0.1254327858
 40
0.2494275862
 40
0.3113498038
 40
0.3733460467
 40
0.4975752077
 40
0.6230664103
 40
0.7489873517
 40
1.0
 40
1.0
 40
1.0
 40
1.0
 10
126.970487959
 20
503.6327161217
 30
0.0
 10
126.9366431126
 20
503.449656688
 30
0.0
 10
126.8415978105
 20
503.0869247009
 30
0.0
 10
126.5623866558
 20
502.7002813376
 30
0.0
 10
126.258887724
 20
502.4871427679
 30
0.0
 10
125.9143339068
 20
502.3484829571
 30
0.0
 10
125.4400670301
 20
502.3215978181
 30
0.0
 10
124.8957402778
 20
502.4680046961
 30
0.0
 10
124.2330901646
 20
502.8183723187
 30
0.0
 10
123.8098455772
 20
503.1989992482
 30
0.0
 10
123.5642217873
 20
503.4791000631
 30
0.0
  0
SPLINE
  5
34B
100
AcDbEntity
  8
0
100
AcDbSpline
 62
7
  6
CONTINUOUS
 70
0
 71
3
 72
8
 73
4
 74
0
 42
0.0000001
 43
0.0000001
 44
0.0000000001
 40
0.0
 40
0.0
 40
0.0
 40
0.0
 40
1.0
 40
1.0
 40
1.0
 40
1.0
 10
123.5642224861
 20
503.4790992532
 30
0.0
 10
123.5454538136
 20
503.4618662904
 30
0.0
 10
123.5263104827
 20
503.4450405472
 30
0.0
 10
123.5070110395
 20
503.4284041543
 30
0.0
  0
SPLINE
  5
34C
100
AcDbEntity
  8
0
100
AcDbSpline
 62
7
  6
CONTINUOUS
 70
0
 71
3
 72
8
 73
4
 74
0
 42
0.0000001
 43
0.0000001
 44
0.0000000001
 40
0.0
 40
0.0
 40
0.0
 40
0.0
 40
1.0
 40
1.0
 40
1.0
 40
1.0
 10
126.970487959
 20
503.632758118
 30
0.0
 10
126.9890650715
 20
503.6297350034
 30
0.0
 10
127.0092324543
 20
503.6290889483
 30
0.0
 10
127.0253366686
 20
503.619347151
 30
0.0
  0
SPLINE
  5
34D
100
AcDbEntity
  8
0
100
AcDbSpline
 62
7
  6
CONTINUOUS
 70
0
 71
3
 72
19
 73
15
 74
0
 42
0.0000001
 43
0.0000001
 44
0.0000000001
 40
0.0
 40
0.0
 40
0.0
 40
0.0
 40
0.0627611976
 40
0.1251535305
 40
0.1872302624
 40
0.2492719776
 40
0.3115752925
 40
0.3742338209
 40
0.499544218
 40
0.6247683558
 40
0.7495101806
 40
0.81201103
 40
0.8745885181
 40
1.0
 40
1.0
 40
1.0
 40
1.0
 10
131.970487959
 20
502.2042100919
 30
0.0
 10
131.9439525323
 20
502.0535280283
 30
0.0
 10
131.8655728836
 20
501.7561886273
 30
0.0
 10
131.6497525298
 20
501.3490091007
 30
0.0
 10
131.3416244776
 20
501.0080396454
 30
0.0
 10
130.9565591314
 20
500.7569425063
 30
0.0
 10
130.5188096769
 20
500.613205629
 30
0.0
 10
129.9059370403
 20
500.5633226223
 30
0.0
 10
129.1440311528
 20
500.7464224388
 30
0.0
 10
128.3603944655
 20
501.2417437952
 30
0.0
 10
127.8426704078
 20
501.8123968138
 30
0.0
 10
127.5190220803
 20
502.3293968984
 30
0.0
 10
127.2549372601
 20
502.8818395245
 30
0.0
 10
127.1439951895
 20
503.3314373
 30
0.0
 10
127.092275829
 20
503.6327619687
 30
0.0
  0
SPLINE
  5
34E
100
AcDbEntity
  8
0
100
AcDbSpline
 62
7
  6
CONTINUOUS
 70
0
 71
3
 72
8
 73
4
 74
0
 42
0.0000001
 43
0.0000001
 44
0.0000000001
 40
0.0
 40
0.0
 40
0.0
 40
0.0
 40
1.0
 40
1.0
 40
1.0
 40
1.0
 10
127.07857622
 20
503.632758118
 30
0.0
 10
127.0614959605
 20
503.6261864067
 30
0.0
 10
127.0429483762
 20
503.6243221291
 30
0.0
 10
127.0253366686
 20
503.619347151
 30
0.0
  0
SPLINE
  5
34F
100
AcDbEntity
  8
0
100
AcDbSpline
 62
7
  6
CONTINUOUS
 70
0
 71
3
 72
9
 73
5
 74
0
 42
0.0000001
 43
0.0000001
 44
0.0000000001
 40
0.0
 40
0.0
 40
0.0
 40
0.0
 40
0.4986158392
 40
1.0
 40
1.0
 40
1.0
 40
1.0
 10
145.555719571
 20
537.4080291536
 30
0.0
 10
145.829800454
 20
537.1118922631
 30
0.0
 10
146.2084604449
 20
536.3654511614
 30
0.0
 10
146.3685121231
 20
535.569296018
 30
0.0
 10
146.4129959393
 20
535.1659952298
 30
0.0
  0
SPLINE
  5
350
100
AcDbEntity
  8
0
100
AcDbSpline
 62
7
  6
CONTINUOUS
 70
0
 71
3
 72
11
 73
7
 74
0
 42
0.0000001
 43
0.0000001
 44
0.0000000001
 40
0.0
 40
0.0
 40
0.0
 40
0.0
 40
0.1773983633
 40
0.4125092975
 40
0.691263684
 40
1.0
 40
1.0
 40
1.0
 40
1.0
 10
146.072643646
 20
542.3685681107
 30
0.0
 10
146.0451498076
 20
542.0749023479
 30
0.0
 10
145.9886907561
 20
541.3913550684
 30
0.0
 10
145.8847913356
 20
540.2467523408
 30
0.0
 10
145.7484249541
 20
538.8857291088
 30
0.0
 10
145.6199241508
 20
537.9173351762
 30
0.0
 10
145.5557226451
 20
537.4080479079
 30
0.0
  0
SPLINE
  5
351
100
AcDbEntity
  8
0
100
AcDbSpline
 62
7
  6
CONTINUOUS
 70
0
 71
3
 72
19
 73
15
 74
0
 42
0.0000001
 43
0.0000001
 44
0.0000000001
 40
0.0
 40
0.0
 40
0.0
 40
0.0
 40
0.0628382488
 40
0.1254163721
 40
0.2496134391
 40
0.3740891727
 40
0.4995593985
 40
0.5626301784
 40
0.6255273282
 40
0.7499790202
 40
0.8122473404
 40
0.8746145892
 40
0.9371821259
 40
1.0
 40
1.0
 40
1.0
 40
1.0
 10
132.0299228873
 20
502.1936718568
 30
0.0
 10
132.0529305308
 20
502.0436670219
 30
0.0
 10
132.128370926
 20
501.7485033426
 30
0.0
 10
132.3640446285
 20
501.1914989162
 30
0.0
 10
132.8372538366
 20
500.5862194614
 30
0.0
 10
133.6189131503
 20
500.0957288355
 30
0.0
 10
134.3813500951
 20
499.9547863469
 30
0.0
 10
134.9891139861
 20
500.0103450831
 30
0.0
 10
135.5728710002
 20
500.1792315969
 30
0.0
 10
136.0989829992
 20
500.5048858933
 30
0.0
 10
136.5072885329
 20
500.9495106638
 30
0.0
 10
136.7574670496
 20
501.3291310164
 30
0.0
 10
136.9338359205
 20
501.7488174257
 30
0.0
 10
137.0105294228
 20
502.0435734036
 30
0.0
 10
137.0328168381
 20
502.1936371922
 30
0.0
  0
SPLINE
  5
352
100
AcDbEntity
  8
0
100
AcDbSpline
 62
7
  6
CONTINUOUS
 70
0
 71
3
 72
10
 73
6
 74
0
 42
0.0000001
 43
0.0000001
 44
0.0000000001
 40
0.0
 40
0.0
 40
0.0
 40
0.0
 40
0.1643714517
 40
0.3920733207
 40
1.0
 40
1.0
 40
1.0
 40
1.0
 10
147.7786612374
 20
541.3180868337
 30
0.0
 10
147.6983692033
 20
541.3934111609
 30
0.0
 10
147.4935524363
 20
541.5586981378
 30
0.0
 10
146.9395909574
 20
541.9361431762
 30
0.0
 10
146.4393871779
 20
542.1917700481
 30
0.0
 10
146.0725945655
 20
542.3685710226
 30
0.0
  0
SPLINE
  5
353
100
AcDbEntity
  8
0
100
AcDbSpline
 62
7
  6
CONTINUOUS
 70
0
 71
3
 72
10
 73
6
 74
0
 42
0.0000001
 43
0.0000001
 44
0.0000000001
 40
0.0
 40
0.0
 40
0.0
 40
0.0
 40
0.4990234415
 40
0.7491921551
 40
1.0
 40
1.0
 40
1.0
 40
1.0
 10
141.970487959
 20
521.3978690185
 30
0.0
 10
141.7885489594
 20
521.045190829
 30
0.0
 10
141.4776905882
 20
520.5338078128
 30
0.0
 10
140.9924711323
 20
519.9030553805
 30
0.0
 10
140.7255215858
 20
519.6067793662
 30
0.0
 10
140.5879575845
 20
519.4623592501
 30
0.0
  0
SPLINE
  5
354
100
AcDbEntity
  8
0
100
AcDbSpline
 62
7
  6
CONTINUOUS
 70
0
 71
3
 72
9
 73
5
 74
0
 42
0.0000001
 43
0.0000001
 44
0.0000000001
 40
0.0
 40
0.0
 40
0.0
 40
0.0
 40
0.4984384814
 40
1.0
 40
1.0
 40
1.0
 40
1.0
 10
140.5879575845
 20
519.4623592501
 30
0.0
 10
140.5743074488
 20
519.447991707
 30
0.0
 10
140.5453477797
 20
519.4187168033
 30
0.0
 10
140.5378243718
 20
519.3780421492
 30
0.0
 10
140.5347025537
 20
519.3583458586
 30
0.0
  0
SPLINE
  5
355
100
AcDbEntity
  8
0
100
AcDbSpline
 62
7
  6
CONTINUOUS
 70
0
 71
3
 72
11
 73
7
 74
0
 42
0.0000001
 43
0.0000001
 44
0.0000000001
 40
0.0
 40
0.0
 40
0.0
 40
0.0
 40
0.2513144457
 40
0.5026882205
 40
0.7535625085
 40
1.0
 40
1.0
 40
1.0
 40
1.0
 10
140.5347025537
 20
519.3583458586
 30
0.0
 10
140.4565549678
 20
518.8671565458
 30
0.0
 10
140.1801615492
 20
517.8990635832
 30
0.0
 10
139.4209873575
 20
516.598230126
 30
0.0
 10
138.3780299485
 20
515.5259549726
 30
0.0
 10
137.5336806013
 20
514.9991632876
 30
0.0
 10
137.0922535603
 20
514.7917787708
 30
0.0
  0
SPLINE
  5
356
100
AcDbEntity
  8
0
100
AcDbSpline
 62
7
  6
CONTINUOUS
 70
0
 71
3
 72
18
 73
14
 74
0
 42
0.0000001
 43
0.0000001
 44
0.0000000001
 40
0.0
 40
0.0
 40
0.0
 40
0.0
 40
0.0627619545
 40
0.125157592
 40
0.1872228853
 40
0.2492647694
 40
0.3115748743
 40
0.3742603365
 40
0.499633949
 40
0.6249000101
 40
0.7496979436
 40
0.8745899578
 40
1.0
 40
1.0
 40
1.0
 40
1.0
 10
137.0922535603
 20
502.2041670555
 30
0.0
 10
137.1184504783
 20
502.0534687931
 30
0.0
 10
137.1969972949
 20
501.756282987
 30
0.0
 10
137.4121611238
 20
501.3487646452
 30
0.0
 10
137.7222173635
 20
501.0096594106
 30
0.0
 10
138.1065625033
 20
500.7584282189
 30
0.0
 10
138.5437266393
 20
500.6124049673
 30
0.0
 10
139.1569226752
 20
500.5649118181
 30
0.0
 10
139.9190875538
 20
500.7454710491
 30
0.0
 10
140.7027628878
 20
501.2422347934
 30
0.0
 10
141.322884606
 20
501.9261018349
 30
0.0
 10
141.7671531382
 20
502.7343049337
 30
0.0
 10
141.926122061
 20
503.3303561744
 30
0.0
 10
141.970487959
 20
503.632758118
 30
0.0
  0
SPLINE
  5
357
100
AcDbEntity
  8
0
100
AcDbSpline
 62
7
  6
CONTINUOUS
 70
0
 71
3
 72
8
 73
4
 74
0
 42
0.0000001
 43
0.0000001
 44
0.0000000001
 40
0.0
 40
0.0
 40
0.0
 40
0.0
 40
1.0
 40
1.0
 40
1.0
 40
1.0
 10
146.4130124419
 20
535.1659836
 30
0.0
 10
146.6783169575
 20
532.5786106835
 30
0.0
 10
146.8177436297
 20
529.9778421684
 30
0.0
 10
146.8945068571
 20
527.3780359252
 30
0.0
  0
SPLINE
  5
358
100
AcDbEntity
  8
0
100
AcDbSpline
 62
7
  6
CONTINUOUS
 70
0
 71
3
 72
15
 73
11
 74
0
 42
0.0000001
 43
0.0000001
 44
0.0000000001
 40
0.0
 40
0.0
 40
0.0
 40
0.0
 40
0.1253764814
 40
0.2492803401
 40
0.372435888
 40
0.4966777557
 40
0.6221816405
 40
0.7482114992
 40
0.8742110749
 40
1.0
 40
1.0
 40
1.0
 40
1.0
 10
142.0357290011
 20
503.6229619429
 30
0.0
 10
142.0703675404
 20
503.4348741086
 30
0.0
 10
142.1734567666
 20
503.0628811731
 30
0.0
 10
142.5196894383
 20
502.5931225638
 30
0.0
 10
143.0305648616
 20
502.3066465695
 30
0.0
 10
143.6122713194
 20
502.266230751
 30
0.0
 10
144.1752460584
 20
502.4034741231
 30
0.0
 10
144.691300048
 20
502.6676685108
 30
0.0
 10
145.1549266325
 20
503.0135400265
 30
0.0
 10
145.4275851587
 20
503.2857810396
 30
0.0
 10
145.5558138676
 20
503.4285231336
 30
0.0
  0
SPLINE
  5
359
100
AcDbEntity
  8
0
100
AcDbSpline
 62
7
  6
CONTINUOUS
 70
0
 71
3
 72
11
 73
7
 74
0
 42
0.0000001
 43
0.0000001
 44
0.0000000001
 40
0.0
 40
0.0
 40
0.0
 40
0.0
 40
0.2505511204
 40
0.5008272533
 40
0.7506389574
 40
1.0
 40
1.0
 40
1.0
 40
1.0
 10
146.3064235584
 20
535.1547840496
 30
0.0
 10
146.2864962446
 20
535.3523520407
 30
0.0
 10
146.2250435583
 20
535.7453070517
 30
0.0
 10
146.0721656897
 20
536.3216542215
 30
0.0
 10
145.845758404
 20
536.8724907972
 30
0.0
 10
145.6294467123
 20
537.209309973
 30
0.0
 10
145.4986742919
 20
537.3574825014
 30
0.0
  0
SPLINE
  5
35A
100
AcDbEntity
  8
0
100
AcDbSpline
 62
7
  6
CONTINUOUS
 70
0
 71
3
 72
15
 73
11
 74
0
 42
0.0000001
 43
0.0000001
 44
0.0000000001
 40
0.0
 40
0.0
 40
0.0
 40
0.0
 40
0.1253992202
 40
0.2492855468
 40
0.372471806
 40
0.4967444399
 40
0.6222559421
 40
0.7482546428
 40
0.8742208908
 40
1.0
 40
1.0
 40
1.0
 40
1.0
 10
142.0922535603
 20
503.632758118
 30
0.0
 10
142.1235490001
 20
503.4493533821
 30
0.0
 10
142.2217234161
 20
503.0870094002
 30
0.0
 10
142.5545580033
 20
502.6264052749
 30
0.0
 10
143.0554966147
 20
502.3518345919
 30
0.0
 10
143.6222312367
 20
502.3229192261
 30
0.0
 10
144.1671705402
 20
502.4664754065
 30
0.0
 10
144.664790956
 20
502.7311985525
 30
0.0
 10
145.1117879193
 20
503.072612751
 30
0.0
 10
145.3741000916
 20
503.3400083395
 30
0.0
 10
145.4985197362
 20
503.4791000706
 30
0.0
  0
SPLINE
  5
35B
100
AcDbEntity
  8
0
100
AcDbSpline
 62
7
  6
CONTINUOUS
 70
0
 71
3
 72
10
 73
6
 74
0
 42
0.0000001
 43
0.0000001
 44
0.0000000001
 40
0.0
 40
0.0
 40
0.0
 40
0.0
 40
0.2495527394
 40
0.4995561495
 40
1.0
 40
1.0
 40
1.0
 40
1.0
 10
145.4986241034
 20
503.4790066056
 30
0.0
 10
145.6293930265
 20
503.6271811537
 30
0.0
 10
145.8457110926
 20
503.9640954739
 30
0.0
 10
146.1471612513
 20
504.6981788994
 30
0.0
 10
146.2654651479
 20
505.2874704054
 30
0.0
 10
146.3063332076
 20
505.6816703589
 30
0.0
  0
SPLINE
  5
35C
100
AcDbEntity
  8
0
100
AcDbSpline
 62
7
  6
CONTINUOUS
 70
0
 71
3
 72
8
 73
4
 74
0
 42
0.0000001
 43
0.0000001
 44
0.0000000001
 40
0.0
 40
0.0
 40
0.0
 40
0.0
 40
1.0
 40
1.0
 40
1.0
 40
1.0
 10
146.8016195749
 20
527.3749635867
 30
0.0
 10
146.7185182605
 20
529.9721524615
 30
0.0
 10
146.5741932315
 20
532.5700987863
 30
0.0
 10
146.3061748691
 20
535.1547577652
 30
0.0
  0
LINE
  5
35D
100
AcDbEntity
  8
0
100
AcDbLine
 62
7
  6
CONTINUOUS
 10
146.8951407479
 20
527.3780555085
 11
146.8014294668
 21
527.3749572133
  0
SPLINE
  5
35E
100
AcDbEntity
  8
0
100
AcDbSpline
 62
7
  6
CONTINUOUS
 70
0
 71
3
 72
11
 73
7
 74
0
 42
0.0000001
 43
0.0000001
 44
0.0000000001
 40
0.0
 40
0.0
 40
0.0
 40
0.0
 40
0.246432838
 40
0.4973055018
 40
0.7486755597
 40
1.0
 40
1.0
 40
1.0
 40
1.0
 10
137.0922535603
 20
535.6301693238
 30
0.0
 10
137.5326211569
 20
535.4232822721
 30
0.0
 10
138.3749952197
 20
534.8979970955
 30
0.0
 10
139.416606668
 20
533.8293463194
 30
0.0
 10
140.1748718177
 20
532.5324216071
 30
0.0
 10
140.4544454876
 20
531.5678025575
 30
0.0
 10
140.5335665929
 20
531.0779486609
 30
0.0
  0
SPLINE
  5
35F
100
AcDbEntity
  8
0
100
AcDbSpline
 62
7
  6
CONTINUOUS
 70
0
 71
3
 72
8
 73
4
 74
0
 42
0.0000001
 43
0.0000001
 44
0.0000000001
 40
0.0
 40
0.0
 40
0.0
 40
0.0
 40
1.0
 40
1.0
 40
1.0
 40
1.0
 10
140.5335665929
 20
531.0779486609
 30
0.0
 10
140.5397671022
 20
531.0388166338
 30
0.0
 10
140.5571528349
 20
530.9992504011
 30
0.0
 10
140.5844417468
 20
530.970526245
 30
0.0
  0
LINE
  5
360
100
AcDbEntity
  8
0
100
AcDbLine
 62
7
  6
CONTINUOUS
 10
146.9352016367
 20
515.1000502498
 11
146.845413496
 21
515.1021212548
  0
SPLINE
  5
361
100
AcDbEntity
  8
0
100
AcDbSpline
 62
7
  6
CONTINUOUS
 70
0
 71
3
 72
9
 73
5
 74
0
 42
0.0000001
 43
0.0000001
 44
0.0000000001
 40
0.0
 40
0.0
 40
0.0
 40
0.0
 40
0.2510468107
 40
1.0
 40
1.0
 40
1.0
 40
1.0
 10
140.5844417468
 20
530.970526245
 30
0.0
 10
140.7227966406
 20
530.8256405106
 30
0.0
 10
141.250846659
 20
530.2269769941
 30
0.0
 10
141.6964811347
 20
529.5552224246
 30
0.0
 10
141.9704879595
 20
529.0240721615
 30
0.0
  0
LINE
  5
362
100
AcDbEntity
  8
0
100
AcDbLine
 62
7
  6
CONTINUOUS
 10
128.5295959224
 20
531.077846887
 11
128.5998618566
 21
531.0439923845
  0
LINE
  5
363
100
AcDbEntity
  8
0
100
AcDbLine
 62
7
  6
CONTINUOUS
 10
140.4628809613
 20
531.043993011
 11
140.5331414718
 21
531.0778508469
  0
SPLINE
  5
364
100
AcDbEntity
  8
0
100
AcDbSpline
 62
7
  6
CONTINUOUS
 70
0
 71
3
 72
9
 73
5
 74
0
 42
0.0000001
 43
0.0000001
 44
0.0000000001
 40
0.0
 40
0.0
 40
0.0
 40
0.0
 40
0.5000005441
 40
1.0
 40
1.0
 40
1.0
 40
1.0
 10
132.0922535603
 20
535.6829628608
 30
0.0
 10
132.8544103134
 20
536.0121101106
 30
0.0
 10
134.5310939863
 20
536.3624650994
 30
0.0
 10
136.2080615727
 20
536.0134828376
 30
0.0
 10
136.970487959
 20
535.684965207
 30
0.0
  0
SPLINE
  5
365
100
AcDbEntity
  8
0
100
AcDbSpline
 62
7
  6
CONTINUOUS
 70
0
 71
3
 72
11
 73
7
 74
0
 42
0.0000001
 43
0.0000001
 44
0.0000000001
 40
0.0
 40
0.0
 40
0.0
 40
0.0
 40
0.3087381246
 40
0.587492504
 40
0.8226030584
 40
1.0
 40
1.0
 40
1.0
 40
1.0
 10
145.5558138676
 20
503.4285231336
 30
0.0
 10
145.6200162953
 20
502.9192211844
 30
0.0
 10
145.7483498298
 20
501.9507811443
 30
0.0
 10
145.8848068572
 20
500.5897348604
 30
0.0
 10
145.9886834639
 20
499.4451063507
 30
0.0
 10
146.0451517424
 20
498.7615473208
 30
0.0
 10
146.0726459055
 20
498.4678772254
 30
0.0
  0
SPLINE
  5
366
100
AcDbEntity
  8
0
100
AcDbSpline
 62
7
  6
CONTINUOUS
 70
0
 71
3
 72
8
 73
4
 74
0
 42
0.0000001
 43
0.0000001
 44
0.0000000001
 40
0.0
 40
0.0
 40
0.0
 40
0.0
 40
1.0
 40
1.0
 40
1.0
 40
1.0
 10
136.9704653787
 20
538.632273092
 30
0.0
 10
136.9539525786
 20
538.7349954159
 30
0.0
 10
136.932105758
 20
538.8370848245
 30
0.0
 10
136.9036825572
 20
538.9371681401
 30
0.0
  0
SPLINE
  5
367
100
AcDbEntity
  8
0
100
AcDbSpline
 62
7
  6
CONTINUOUS
 70
0
 71
3
 72
15
 73
11
 74
0
 42
0.0000001
 43
0.0000001
 44
0.0000000001
 40
0.0
 40
0.0
 40
0.0
 40
0.0
 40
0.1250935202
 40
0.2496013515
 40
0.3745261386
 40
0.5001156111
 40
0.6255197494
 40
0.7501664775
 40
0.8748453746
 40
1.0
 40
1.0
 40
1.0
 40
1.0
 10
136.9037077627
 20
538.9371759862
 30
0.0
 10
136.8268476169
 20
539.2078159116
 30
0.0
 10
136.5870894994
 20
539.7277432545
 30
0.0
 10
135.9976071841
 20
540.3505194745
 30
0.0
 10
135.2296695657
 20
540.7401593938
 30
0.0
 10
134.3714076822
 20
540.8375929377
 30
0.0
 10
133.5341227472
 20
540.6283596309
 30
0.0
 10
132.8237689305
 20
540.143901494
 30
0.0
 10
132.3143178492
 20
539.4550066182
 30
0.0
 10
132.1369225548
 20
538.9101898608
 30
0.0
 10
132.0922506529
 20
538.6322776076
 30
0.0
  0
SPLINE
  5
368
100
AcDbEntity
  8
0
100
AcDbSpline
 62
7
  6
CONTINUOUS
 70
0
 71
3
 72
10
 73
6
 74
0
 42
0.0000001
 43
0.0000001
 44
0.0000000001
 40
0.0
 40
0.0
 40
0.0
 40
0.0
 40
0.4979736381
 40
0.7487558165
 40
1.0
 40
1.0
 40
1.0
 40
1.0
 10
146.4128988679
 20
505.6704510929
 30
0.0
 10
146.3712272168
 20
505.2686707649
 30
0.0
 10
146.2464264537
 20
504.6664938327
 30
0.0
 10
145.925777247
 20
503.919263543
 30
0.0
 10
145.694594646
 20
503.5777687912
 30
0.0
 10
145.5558457011
 20
503.4284948438
 30
0.0
  0
SPLINE
  5
369
100
AcDbEntity
  8
0
100
AcDbSpline
 62
7
  6
CONTINUOUS
 70
0
 71
3
 72
18
 73
14
 74
0
 42
0.0000001
 43
0.0000001
 44
0.0000000001
 40
0.0
 40
0.0
 40
0.0
 40
0.0
 40
0.0627781767
 40
0.1251736814
 40
0.1872431443
 40
0.2492701676
 40
0.3115712426
 40
0.3742627928
 40
0.4996706492
 40
0.6249647278
 40
0.7497383923
 40
0.8745956051
 40
1.0
 40
1.0
 40
1.0
 40
1.0
 10
137.0328168381
 20
502.1936371922
 30
0.0
 10
137.0606312638
 20
502.0393339506
 30
0.0
 10
137.1411081928
 20
501.7348130656
 30
0.0
 10
137.3627340051
 20
501.3176684792
 30
0.0
 10
137.6794643911
 20
500.9698082515
 30
0.0
 10
138.0706517275
 20
500.7083126659
 30
0.0
 10
138.5178905024
 20
500.5566553274
 30
0.0
 10
139.145342333
 20
500.4995468926
 30
0.0
 10
139.9291644275
 20
500.6744955503
 30
0.0
 10
140.7381362758
 20
501.1749739397
 30
0.0
 10
141.3779458482
 20
501.8723579841
 30
0.0
 10
141.8336461717
 20
502.7006453709
 30
0.0
 10
141.9930399449
 20
503.3126841657
 30
0.0
 10
142.0357290011
 20
503.6229619429
 30
0.0
  0
SPLINE
  5
36A
100
AcDbEntity
  8
0
100
AcDbSpline
 62
7
  6
CONTINUOUS
 70
0
 71
3
 72
11
 73
7
 74
0
 42
0.0000001
 43
0.0000001
 44
0.0000000001
 40
0.0
 40
0.0
 40
0.0
 40
0.0
 40
0.3067582775
 40
0.5906239849
 40
0.8308478937
 40
1.0
 40
1.0
 40
1.0
 40
1.0
 10
149.0992805786
 20
505.1877986734
 30
0.0
 10
149.0174111755
 20
504.7321587622
 30
0.0
 10
148.8554167706
 20
503.855665148
 30
0.0
 10
148.6169093041
 20
502.6246778231
 30
0.0
 10
148.4148723047
 20
501.5982415399
 30
0.0
 10
148.2971087144
 20
500.9916623913
 30
0.0
 10
148.2551575532
 20
500.739861397
 30
0.0
  0
SPLINE
  5
36B
100
AcDbEntity
  8
0
100
AcDbSpline
 62
7
  6
CONTINUOUS
 70
0
 71
3
 72
11
 73
7
 74
0
 42
0.0000001
 43
0.0000001
 44
0.0000000001
 40
0.0
 40
0.0
 40
0.0
 40
0.0
 40
0.169152121
 40
0.4093760584
 40
0.6932417934
 40
1.0
 40
1.0
 40
1.0
 40
1.0
 10
148.2551575551
 20
540.0965827433
 30
0.0
 10
148.2971087214
 20
539.8447817279
 30
0.0
 10
148.4148723215
 20
539.2382025157
 30
0.0
 10
148.616909343
 20
538.2117661297
 30
0.0
 10
148.8554168019
 20
536.9807788281
 30
0.0
 10
149.0174111968
 20
536.1042852802
 30
0.0
 10
149.0992805786
 20
535.6486454747
 30
0.0
  0
SPLINE
  5
36C
100
AcDbEntity
  8
0
100
AcDbSpline
 62
7
  6
CONTINUOUS
 70
0
 71
3
 72
18
 73
14
 74
0
 42
0.0000001
 43
0.0000001
 44
0.0000000001
 40
0.0
 40
0.0
 40
0.0
 40
0.0
 40
0.1254014686
 40
0.2502807678
 40
0.3750796405
 40
0.5003430767
 40
0.6257172674
 40
0.6884015903
 40
0.750720591
 40
0.8127639443
 40
0.8748381443
 40
0.9372366297
 40
1.0
 40
1.0
 40
1.0
 40
1.0
 10
127.0922535603
 20
537.20368603
 30
0.0
 10
127.1361750317
 20
537.5061399949
 30
0.0
 10
127.2954399811
 20
538.1021880927
 30
0.0
 10
127.7398386083
 20
538.9101462543
 30
0.0
 10
128.3596578165
 20
539.5944466351
 30
0.0
 10
129.1438266436
 20
540.0901975298
 30
0.0
 10
129.9056500835
 20
540.2722186795
 30
0.0
 10
130.5189734798
 20
540.2240463554
 30
0.0
 10
130.9558552852
 20
540.0776766984
 30
0.0
 10
131.341316164
 20
539.8278760094
 30
0.0
 10
131.6502522208
 20
539.4875200055
 30
0.0
 10
131.8654304201
 20
539.0801380084
 30
0.0
 10
131.9441729189
 20
538.7829624325
 30
0.0
 10
131.970487959
 20
538.6322770926
 30
0.0
  0
SPLINE
  5
36D
100
AcDbEntity
  8
0
100
AcDbSpline
 62
7
  6
CONTINUOUS
 70
0
 71
3
 72
15
 73
11
 74
0
 42
0.0000001
 43
0.0000001
 44
0.0000000001
 40
0.0
 40
0.0
 40
0.0
 40
0.0
 40
0.1253985557
 40
0.2493659891
 40
0.3725139392
 40
0.4967616445
 40
0.6222990451
 40
0.7482855171
 40
0.8742550802
 40
1.0
 40
1.0
 40
1.0
 40
1.0
 10
127.0246071658
 20
503.6088680142
 30
0.0
 10
126.9871228037
 20
503.4218819941
 30
0.0
 10
126.8825659671
 20
503.0520654064
 30
0.0
 10
126.536391819
 20
502.5832916248
 30
0.0
 10
126.0228511668
 20
502.3050417446
 30
0.0
 10
125.4433149212
 20
502.2662819285
 30
0.0
 10
124.8828306561
 20
502.4066654041
 30
0.0
 10
124.3683678191
 20
502.6696777891
 30
0.0
 10
123.9071515995
 20
503.0153573856
 30
0.0
 10
123.6336320169
 20
503.2850813844
 30
0.0
 10
123.5070188742
 20
503.4283962401
 30
0.0
  0
SPLINE
  5
36E
100
AcDbEntity
  8
0
100
AcDbSpline
 62
7
  6
CONTINUOUS
 70
0
 71
3
 72
17
 73
13
 74
0
 42
0.0000001
 43
0.0000001
 44
0.0000000001
 40
0.0
 40
0.0
 40
0.0
 40
0.0
 40
0.0628920446
 40
0.1254151726
 40
0.1876058805
 40
0.2497508928
 40
0.3121737859
 40
0.3749713095
 40
0.5006205484
 40
0.6261451778
 40
0.7511556487
 40
1.0
 40
1.0
 40
1.0
 40
1.0
 10
132.0299290985
 20
538.6427973855
 30
0.0
 10
132.0054160949
 20
538.7976570412
 30
0.0
 10
131.9201167136
 20
539.1016202716
 30
0.0
 10
131.6985966104
 20
539.5176279626
 30
0.0
 10
131.3854588887
 20
539.8695075485
 30
0.0
 10
130.9913079798
 20
540.1269383234
 30
0.0
 10
130.5451460093
 20
540.2804585398
 30
0.0
 10
129.9172969976
 20
540.3375209034
 30
0.0
 10
129.1340399924
 20
540.1614699279
 30
0.0
 10
128.3242493302
 20
539.6609692254
 30
0.0
 10
127.4752212251
 20
538.7380883284
 30
0.0
 10
127.1057197325
 20
537.8288296393
 30
0.0
 10
127.0270125182
 20
537.2134822052
 30
0.0
  0
SPLINE
  5
36F
100
AcDbEntity
  8
0
100
AcDbSpline
 62
7
  6
CONTINUOUS
 70
0
 71
3
 72
19
 73
15
 74
0
 42
0.0000001
 43
0.0000001
 44
0.0000000001
 40
0.0
 40
0.0
 40
0.0
 40
0.0
 40
0.0627859623
 40
0.1251702089
 40
0.1872391089
 40
0.2492571859
 40
0.3115437507
 40
0.3742037582
 40
0.4995565022
 40
0.6247974004
 40
0.7495216234
 40
0.8120081151
 40
0.8745728707
 40
1.0
 40
1.0
 40
1.0
 40
1.0
 10
132.0299228873
 20
502.1936718568
 30
0.0
 10
132.0009683388
 20
502.039786785
 30
0.0
 10
131.9214560072
 20
501.7356214804
 30
0.0
 10
131.7006266631
 20
501.3189447377
 30
0.0
 10
131.3866581612
 20
500.9694057838
 30
0.0
 10
130.9949738198
 20
500.7096538586
 30
0.0
 10
130.5490859432
 20
500.5575010523
 30
0.0
 10
129.9229091295
 20
500.4976864436
 30
0.0
 10
129.1404516589
 20
500.6727826029
 30
0.0
 10
128.3317916426
 20
501.1691971611
 30
0.0
 10
127.7968412038
 20
501.7486255788
 30
0.0
 10
127.4639211046
 20
502.2763670074
 30
0.0
 10
127.1929978939
 20
502.8410406279
 30
0.0
 10
127.0769651723
 20
503.3004713308
 30
0.0
 10
127.0246071658
 20
503.6088680142
 30
0.0
  0
SPLINE
  5
370
100
AcDbEntity
  8
0
100
AcDbSpline
 62
7
  6
CONTINUOUS
 70
0
 71
3
 72
9
 73
5
 74
0
 42
0.0000001
 43
0.0000001
 44
0.0000000001
 40
0.0
 40
0.0
 40
0.0
 40
0.0
 40
0.5001397594
 40
1.0
 40
1.0
 40
1.0
 40
1.0
 10
128.4794662607
 20
530.9693446625
 30
0.0
 10
128.4933164077
 20
530.9839229047
 30
0.0
 10
128.5108364882
 20
531.0209347998
 30
0.0
 10
128.5282579129
 20
531.0577027016
 30
0.0
 10
128.5314036475
 20
531.0775522414
 30
0.0
  0
SPLINE
  5
371
100
AcDbEntity
  8
0
100
AcDbSpline
 62
7
  6
CONTINUOUS
 70
0
 71
3
 72
11
 73
7
 74
0
 42
0.0000001
 43
0.0000001
 44
0.0000000001
 40
0.0
 40
0.0
 40
0.0
 40
0.0
 40
0.2513401511
 40
0.5026959598
 40
0.7535664466
 40
1.0
 40
1.0
 40
1.0
 40
1.0
 10
128.5314036475
 20
531.0775522414
 30
0.0
 10
128.6104164416
 20
531.5671128271
 30
0.0
 10
128.8932434541
 20
532.5300253227
 30
0.0
 10
129.6485390689
 20
533.8270535571
 30
0.0
 10
130.689308938
 20
534.8953512847
 30
0.0
 10
131.5305893811
 20
535.4209379166
 30
0.0
 10
131.970487959
 20
535.6280472167
 30
0.0
  0
SPLINE
  5
372
100
AcDbEntity
  8
0
100
AcDbSpline
 62
7
  6
CONTINUOUS
 70
0
 71
3
 72
10
 73
6
 74
0
 42
0.0000001
 43
0.0000001
 44
0.0000000001
 40
0.0
 40
0.0
 40
0.0
 40
0.0
 40
0.2498060699
 40
0.4998825246
 40
1.0
 40
1.0
 40
1.0
 40
1.0
 10
123.5070219483
 20
503.4284149944
 30
0.0
 10
123.3693596762
 20
503.5771510728
 30
0.0
 10
123.1375653679
 20
503.9159206211
 30
0.0
 10
122.8161528086
 20
504.6634797358
 30
0.0
 10
122.6942070951
 20
505.2671512846
 30
0.0
 10
122.64974558
 20
505.6704489182
 30
0.0
  0
SPLINE
  5
373
100
AcDbEntity
  8
0
100
AcDbSpline
 62
7
  6
CONTINUOUS
 70
0
 71
3
 72
10
 73
6
 74
0
 42
0.0000001
 43
0.0000001
 44
0.0000000001
 40
0.0
 40
0.0
 40
0.0
 40
0.0
 40
0.4989481717
 40
0.7491909639
 40
1.0
 40
1.0
 40
1.0
 40
1.0
 10
127.0922535603
 20
529.0151333456
 30
0.0
 10
127.2750623702
 20
529.3705540597
 30
0.0
 10
127.5893053492
 20
529.885067656
 30
0.0
 10
128.0764017701
 20
530.5213489186
 30
0.0
 10
128.340770096
 20
530.8239911262
 30
0.0
 10
128.4794662607
 20
530.9693446625
 30
0.0
  0
SPLINE
  5
374
100
AcDbEntity
  8
0
100
AcDbSpline
 62
7
  6
CONTINUOUS
 70
0
 71
3
 72
17
 73
13
 74
0
 42
0.0000001
 43
0.0000001
 44
0.0000000001
 40
0.0
 40
0.0
 40
0.0
 40
0.0
 40
0.0090478603
 40
0.0351106401
 40
0.0748811598
 40
0.1250163786
 40
0.1828962839
 40
0.2464330498
 40
0.3847943193
 40
0.53266877
 40
0.6859863195
 40
1.0
 40
1.0
 40
1.0
 40
1.0
 10
128.5517917108
 20
530.9323284972
 30
0.0
 10
128.5520275553
 20
530.9302969162
 30
0.0
 10
128.5617260625
 20
530.9427990174
 30
0.0
 10
128.5705096426
 20
530.9478933429
 30
0.0
 10
128.5910097276
 20
530.9696332482
 30
0.0
 10
128.6141008707
 20
530.9917933909
 30
0.0
 10
128.6419189226
 20
531.0194795103
 30
0.0
 10
128.6836833881
 20
531.0604986002
 30
0.0
 10
128.7403522515
 20
531.1157760803
 30
0.0
 10
128.8121004339
 20
531.1844631745
 30
0.0
 10
128.9135270501
 20
531.2796226174
 30
0.0
 10
128.9917390679
 20
531.3506423939
 30
0.0
 10
129.0448478245
 20
531.3977359115
 30
0.0
  0
SPLINE
  5
375
100
AcDbEntity
  8
0
100
AcDbSpline
 62
7
  6
CONTINUOUS
 70
0
 71
3
 72
11
 73
7
 74
0
 42
0.0000001
 43
0.0000001
 44
0.0000000001
 40
0.0
 40
0.0
 40
0.0
 40
0.0
 40
0.1773983633
 40
0.4125092975
 40
0.691263684
 40
1.0
 40
1.0
 40
1.0
 40
1.0
 10
122.9900978734
 20
498.4678760373
 30
0.0
 10
123.0175917115
 20
498.7615418002
 30
0.0
 10
123.0740507633
 20
499.4450890796
 30
0.0
 10
123.1779501836
 20
500.5896918072
 30
0.0
 10
123.3143165652
 20
501.9507150393
 30
0.0
 10
123.4428173685
 20
502.9191089719
 30
0.0
 10
123.5070188742
 20
503.4283962401
 30
0.0
  0
SPLINE
  5
376
100
AcDbEntity
  8
0
100
AcDbSpline
 62
7
  6
CONTINUOUS
 70
0
 71
3
 72
10
 73
6
 74
0
 42
0.0000001
 43
0.0000001
 44
0.0000000001
 40
0.0
 40
0.0
 40
0.0
 40
0.0
 40
0.1643715243
 40
0.3920732949
 40
1.0
 40
1.0
 40
1.0
 40
1.0
 10
121.284080151
 20
499.5183575182
 30
0.0
 10
121.3643718897
 20
499.4430327874
 30
0.0
 10
121.5691891592
 20
499.2777463223
 30
0.0
 10
122.1231503685
 20
498.900300888
 30
0.0
 10
122.6233545312
 20
498.6446746355
 30
0.0
 10
122.9901469538
 20
498.4678731255
 30
0.0
  0
SPLINE
  5
377
100
AcDbEntity
  8
0
100
AcDbSpline
 62
7
  6
CONTINUOUS
 70
0
 71
3
 72
8
 73
4
 74
0
 42
0.0000001
 43
0.0000001
 44
0.0000000001
 40
0.0
 40
0.0
 40
0.0
 40
0.0
 40
1.0
 40
1.0
 40
1.0
 40
1.0
 10
122.6496588614
 20
505.670453947
 30
0.0
 10
122.3843555893
 20
508.257825569
 30
0.0
 10
122.2451378423
 20
510.8585991302
 30
0.0
 10
122.168176062
 20
513.4583980879
 30
0.0
  0
SPLINE
  5
378
100
AcDbEntity
  8
0
100
AcDbSpline
 62
7
  6
CONTINUOUS
 70
0
 71
3
 72
8
 73
4
 74
0
 42
0.0000001
 43
0.0000001
 44
0.0000000001
 40
0.0
 40
0.0
 40
0.0
 40
0.0
 40
1.0
 40
1.0
 40
1.0
 40
1.0
 10
140.5156016057
 20
519.4991861985
 30
0.0
 10
140.5392558905
 20
519.4884109684
 30
0.0
 10
140.5623601132
 20
519.4764637427
 30
0.0
 10
140.5855927658
 20
519.4648072155
 30
0.0
  0
SPLINE
  5
379
100
AcDbEntity
  8
0
100
AcDbSpline
 62
7
  6
CONTINUOUS
 70
0
 71
3
 72
8
 73
4
 74
0
 42
0.0000001
 43
0.0000001
 44
0.0000000001
 40
0.0
 40
0.0
 40
0.0
 40
0.0
 40
1.0
 40
1.0
 40
1.0
 40
1.0
 10
140.5855788456
 20
530.9716328415
 30
0.0
 10
140.5626455591
 20
530.9595506123
 30
0.0
 10
140.5390018016
 20
530.9488503591
 30
0.0
 10
140.5160671818
 20
530.936770661
 30
0.0
  0
SPLINE
  5
37A
100
AcDbEntity
  8
0
100
AcDbSpline
 62
7
  6
CONTINUOUS
 70
0
 71
3
 72
8
 73
4
 74
0
 42
0.0000001
 43
0.0000001
 44
0.0000000001
 40
0.0
 40
0.0
 40
0.0
 40
0.0
 40
1.0
 40
1.0
 40
1.0
 40
1.0
 10
128.5471091009
 20
530.9372256011
 30
0.0
 10
128.5234932546
 20
530.9480524645
 30
0.0
 10
128.500393534
 20
530.9599742163
 30
0.0
 10
128.4771730749
 20
530.9716249437
 30
0.0
  0
LINE
  5
37B
100
AcDbEntity
  8
0
100
AcDbLine
 62
7
  6
CONTINUOUS
 10
122.1683018995
 20
513.4584013794
 11
122.2610023126
 21
513.4614909797
  0
LINE
  5
37C
100
AcDbEntity
  8
0
100
AcDbLine
 62
7
  6
CONTINUOUS
 10
122.1276189481
 20
525.7363863549
 11
122.2173414534
 21
525.734311567
  0
SPLINE
  5
37D
100
AcDbEntity
  8
0
100
AcDbSpline
 62
7
  6
CONTINUOUS
 70
0
 71
3
 72
11
 73
7
 74
0
 42
0.0000001
 43
0.0000001
 44
0.0000000001
 40
0.0
 40
0.0
 40
0.0
 40
0.0
 40
0.3087381246
 40
0.587492504
 40
0.8226030585
 40
1.0
 40
1.0
 40
1.0
 40
1.0
 10
123.5069276517
 20
537.4079210145
 30
0.0
 10
123.442725224
 20
537.9172229637
 30
0.0
 10
123.3143916897
 20
538.8856630037
 30
0.0
 10
123.1779346616
 20
540.2467092876
 30
0.0
 10
123.0740580568
 20
541.3913377974
 30
0.0
 10
123.0175897753
 20
542.0748968269
 30
0.0
 10
122.990095613
 20
542.3685669222
 30
0.0
  0
SPLINE
  5
37E
100
AcDbEntity
  8
0
100
AcDbSpline
 62
7
  6
CONTINUOUS
 70
0
 71
3
 72
10
 73
6
 74
0
 42
0.0000001
 43
0.0000001
 44
0.0000000001
 40
0.0
 40
0.0
 40
0.0
 40
0.0
 40
0.5001219844
 40
0.7501934695
 40
1.0
 40
1.0
 40
1.0
 40
1.0
 10
122.6497455173
 20
535.1659952411
 30
0.0
 10
122.6941922397
 20
535.5692697764
 30
0.0
 10
122.815228164
 20
536.1732041133
 30
0.0
 10
123.1381487242
 20
536.9200923787
 30
0.0
 10
123.369597909
 20
537.2588966007
 30
0.0
 10
123.5069276636
 20
537.4079210794
 30
0.0
  0
SPLINE
  5
37F
100
AcDbEntity
  8
0
100
AcDbSpline
 62
7
  6
CONTINUOUS
 70
0
 71
3
 72
9
 73
5
 74
0
 42
0.0000001
 43
0.0000001
 44
0.0000000001
 40
0.0
 40
0.0
 40
0.0
 40
0.0
 40
0.2631500095
 40
1.0
 40
1.0
 40
1.0
 40
1.0
 10
122.9901446882
 20
542.3685700233
 30
0.0
 10
122.913200255
 20
542.3314320933
 30
0.0
 10
122.6214157943
 20
542.1890955973
 30
0.0
 10
122.3340300752
 20
542.0373060887
 30
0.0
 10
122.1274981346
 20
541.916564058
 30
0.0
  0
SPLINE
  5
380
100
AcDbEntity
  8
0
100
AcDbSpline
 62
7
  6
CONTINUOUS
 70
0
 71
3
 72
9
 73
5
 74
0
 42
0.0000001
 43
0.0000001
 44
0.0000000001
 40
0.0
 40
0.0
 40
0.0
 40
0.0
 40
0.5911133728
 40
1.0
 40
1.0
 40
1.0
 40
1.0
 10
122.1274981346
 20
541.916564058
 30
0.0
 10
121.9513424605
 20
541.8135805013
 30
0.0
 10
121.6600893758
 20
541.6277037901
 30
0.0
 10
121.3867355339
 20
541.4149886896
 30
0.0
 10
121.2840924326
 20
541.3181041407
 30
0.0
  0
SPLINE
  5
381
100
AcDbEntity
  8
0
100
AcDbSpline
 62
7
  6
CONTINUOUS
 70
0
 71
3
 72
15
 73
11
 74
0
 42
0.0000001
 43
0.0000001
 44
0.0000000001
 40
0.0
 40
0.0
 40
0.0
 40
0.0
 40
0.1253985557
 40
0.2493659891
 40
0.3725139392
 40
0.4967616445
 40
0.6222990451
 40
0.7482855171
 40
0.8742550802
 40
1.0
 40
1.0
 40
1.0
 40
1.0
 10
142.0381343535
 20
537.2275761338
 30
0.0
 10
142.0756187156
 20
537.4145621539
 30
0.0
 10
142.1801755522
 20
537.7843787417
 30
0.0
 10
142.5263497003
 20
538.2531525233
 30
0.0
 10
143.0398903524
 20
538.5314024034
 30
0.0
 10
143.6194265981
 20
538.5701622195
 30
0.0
 10
144.1799108632
 20
538.429778744
 30
0.0
 10
144.6943737002
 20
538.166766359
 30
0.0
 10
145.1555899198
 20
537.8210867624
 30
0.0
 10
145.4291095024
 20
537.5513627637
 30
0.0
 10
145.5557226451
 20
537.4080479079
 30
0.0
  0
SPLINE
  5
382
100
AcDbEntity
  8
0
100
AcDbSpline
 62
7
  6
CONTINUOUS
 70
0
 71
3
 72
19
 73
15
 74
0
 42
0.0000001
 43
0.0000001
 44
0.0000000001
 40
0.0
 40
0.0
 40
0.0
 40
0.0
 40
0.0026409687
 40
0.0103578759
 40
0.0227186743
 40
0.03923435
 40
0.0823242525
 40
0.135163149
 40
0.1947598095
 40
0.2590240333
 40
0.3967982552
 40
0.5422942663
 40
0.6924192113
 40
1.0
 40
1.0
 40
1.0
 40
1.0
 10
128.5997546637
 20
531.0440084192
 30
0.0
 10
128.6001491564
 20
531.0436624126
 30
0.0
 10
128.6013469415
 20
531.0470267005
 30
0.0
 10
128.6036849593
 20
531.0493068452
 30
0.0
 10
128.6074192703
 20
531.0563995099
 30
0.0
 10
128.6146100713
 20
531.0682865025
 30
0.0
 10
128.6257522011
 20
531.0879664617
 30
0.0
 10
128.6411320122
 20
531.1146385053
 30
0.0
 10
128.6586489341
 20
531.1451068009
 30
0.0
 10
128.6847118391
 20
531.1900697256
 30
0.0
 10
128.7196621843
 20
531.2496323183
 30
0.0
 10
128.7639162827
 20
531.3235006485
 30
0.0
 10
128.8265242518
 20
531.4257003851
 30
0.0
 10
128.8752527287
 20
531.5024955425
 30
0.0
 10
128.9085518065
 20
531.5537399287
 30
0.0
  0
SPLINE
  5
383
100
AcDbEntity
  8
0
100
AcDbSpline
 62
7
  6
CONTINUOUS
 70
0
 71
3
 72
19
 73
15
 74
0
 42
0.0000001
 43
0.0000001
 44
0.0000000001
 40
0.0
 40
0.0
 40
0.0
 40
0.0
 40
0.0627859934
 40
0.1251702577
 40
0.187239174
 40
0.2492572394
 40
0.3115437828
 40
0.3742037752
 40
0.4995565082
 40
0.624797407
 40
0.749521637
 40
0.8120081246
 40
0.87457288
 40
1.0
 40
1.0
 40
1.0
 40
1.0
 10
137.0328143417
 20
538.64274671
 30
0.0
 10
137.0617680152
 20
538.7966325714
 30
0.0
 10
137.141276511
 20
539.1008000019
 30
0.0
 10
137.3621017857
 20
539.5174810433
 30
0.0
 10
137.6760675237
 20
539.8670246993
 30
0.0
 10
138.0677502601
 20
540.1267819307
 30
0.0
 10
138.5136381504
 20
540.2789395558
 30
0.0
 10
139.1398165856
 20
540.3387593444
 30
0.0
 10
139.9222779559
 20
540.1636669685
 30
0.0
 10
140.730942564
 20
539.6672534248
 30
0.0
 10
141.2658962118
 20
539.0878241658
 30
0.0
 10
141.5988181238
 20
538.5600813214
 30
0.0
 10
141.8697428117
 20
537.9954061038
 30
0.0
 10
141.9857767243
 20
537.5359739452
 30
0.0
 10
142.0381343535
 20
537.2275761338
 30
0.0
  0
SPLINE
  5
384
100
AcDbEntity
  8
0
100
AcDbSpline
 62
7
  6
CONTINUOUS
 70
0
 71
3
 72
8
 73
4
 74
0
 42
0.0000001
 43
0.0000001
 44
0.0000000001
 40
0.0
 40
0.0
 40
0.0
 40
0.0
 40
1.0
 40
1.0
 40
1.0
 40
1.0
 10
136.9646783653
 20
538.9555266031
 30
0.0
 10
136.9927760136
 20
538.8525873155
 30
0.0
 10
137.0172140878
 20
538.7483052569
 30
0.0
 10
137.0328143417
 20
538.64274671
 30
0.0
  0
SPLINE
  5
385
100
AcDbEntity
  8
0
100
AcDbSpline
 62
7
  6
CONTINUOUS
 70
0
 71
3
 72
21
 73
17
 74
0
 42
0.0000001
 43
0.0000001
 44
0.0000000001
 40
0.0
 40
0.0
 40
0.0
 40
0.0
 40
0.1249040599
 40
0.249196865
 40
0.3739784021
 40
0.4995161654
 40
0.5624902774
 40
0.6252335285
 40
0.6877066678
 40
0.7499877793
 40
0.8122154385
 40
0.8745571521
 40
0.9058310035
 40
0.9371757944
 40
0.9685728308
 40
1.0
 40
1.0
 40
1.0
 40
1.0
 10
136.9646783653
 20
538.9555266031
 30
0.0
 10
136.8837403221
 20
539.2324240282
 30
0.0
 10
136.6414008361
 20
539.7668072596
 30
0.0
 10
136.0336176574
 20
540.4030114795
 30
0.0
 10
135.2466398038
 20
540.8034816836
 30
0.0
 10
134.5104488648
 20
540.8827780727
 30
0.0
 10
133.9344234188
 20
540.7944034159
 30
0.0
 10
133.5215708862
 20
540.6505848249
 30
0.0
 10
133.1420952557
 20
540.4376881222
 30
0.0
 10
132.8046176056
 20
540.1648405402
 30
0.0
 10
132.5188668624
 20
539.8388148588
 30
0.0
 10
132.3280048273
 20
539.531527534
 30
0.0
 10
132.2064935624
 20
539.2696384931
 30
0.0
 10
132.127493119
 20
539.0668647001
 30
0.0
 10
132.072935582
 20
538.8564191194
 30
0.0
 10
132.0369139608
 20
538.7150461824
 30
0.0
 10
132.0299290985
 20
538.6427973855
 30
0.0
  0
SPLINE
  5
386
100
AcDbEntity
  8
0
100
AcDbSpline
 62
7
  6
CONTINUOUS
 70
0
 71
3
 72
19
 73
15
 74
0
 42
0.0000001
 43
0.0000001
 44
0.0000000001
 40
0.0
 40
0.0
 40
0.0
 40
0.0
 40
0.3135297977
 40
0.4666316358
 40
0.6143233773
 40
0.7525733226
 40
0.8161157385
 40
0.8740134412
 40
0.9243411769
 40
0.9642148046
 40
0.9792231233
 40
0.9904279102
 40
0.997462014
 40
1.0
 40
1.0
 40
1.0
 40
1.0
 10
140.0215890335
 20
531.3985163409
 30
0.0
 10
140.0744762384
 20
531.3515960282
 30
0.0
 10
140.1524246083
 20
531.2808947234
 30
0.0
 10
140.2534762688
 20
531.1861341162
 30
0.0
 10
140.325007696
 20
531.1176876797
 30
0.0
 10
140.3814671292
 20
531.0626953052
 30
0.0
 10
140.423215672
 20
531.0216467547
 30
0.0
 10
140.4507945049
 20
530.9944079723
 30
0.0
 10
140.4745441162
 20
530.9710540686
 30
0.0
 10
140.4915526537
 20
530.9542198188
 30
0.0
 10
140.5022282888
 20
530.9442537471
 30
0.0
 10
140.5078726721
 20
530.93853387
 30
0.0
 10
140.5110888494
 20
530.9365709542
 30
0.0
 10
140.5131291498
 20
530.9340045028
 30
0.0
 10
140.5135648706
 20
530.9343755678
 30
0.0
  0
SPLINE
  5
387
100
AcDbEntity
  8
0
100
AcDbSpline
 62
7
  6
CONTINUOUS
 70
0
 71
3
 72
15
 73
11
 74
0
 42
0.0000001
 43
0.0000001
 44
0.0000000001
 40
0.0
 40
0.0
 40
0.0
 40
0.0
 40
0.0195744942
 40
0.0646491201
 40
0.1209260916
 40
0.1822129265
 40
0.312216248
 40
0.4469115216
 40
0.722067888
 40
1.0
 40
1.0
 40
1.0
 40
1.0
 10
140.4641130773
 20
531.044183157
 30
0.0
 10
140.462767382
 20
531.0478190012
 30
0.0
 10
140.4541486999
 20
531.0577295574
 30
0.0
 10
140.4435631212
 20
531.0791951541
 30
0.0
 10
140.4268493822
 20
531.1067722494
 30
0.0
 10
140.4024439216
 20
531.1492871888
 30
0.0
 10
140.369774712
 20
531.2049838715
 30
0.0
 10
140.315221028
 20
531.2969397213
 30
0.0
 10
140.2442392873
 20
531.4132170255
 30
0.0
 10
140.1853748446
 20
531.5056087743
 30
0.0
 10
140.1554196148
 20
531.5517912924
 30
0.0
  0
SPLINE
  5
388
100
AcDbEntity
  8
0
100
AcDbSpline
 62
7
  6
CONTINUOUS
 70
0
 71
3
 72
10
 73
6
 74
0
 42
0.0000001
 43
0.0000001
 44
0.0000000001
 40
0.0
 40
0.0
 40
0.0
 40
0.0
 40
0.7010151324
 40
0.9189186463
 40
1.0
 40
1.0
 40
1.0
 40
1.0
 10
140.1569688143
 20
531.545733077
 30
0.0
 10
140.1253433983
 20
531.5113344353
 30
0.0
 10
140.0844219544
 20
531.4656374507
 30
0.0
 10
140.0417585376
 20
531.4145712416
 30
0.0
 10
140.0272307783
 20
531.4006709484
 30
0.0
 10
140.0242163607
 20
531.3961850828
 30
0.0
  0
SPLINE
  5
389
100
AcDbEntity
  8
0
100
AcDbSpline
 62
7
  6
CONTINUOUS
 70
0
 71
3
 72
17
 73
13
 74
0
 42
0.0000001
 43
0.0000001
 44
0.0000000001
 40
0.0
 40
0.0
 40
0.0
 40
0.0
 40
0.0090048682
 40
0.0350642099
 40
0.0748414583
 40
0.1249437201
 40
0.1827974115
 40
0.2463193929
 40
0.3846644643
 40
0.5325267254
 40
0.6858639788
 40
1.0
 40
1.0
 40
1.0
 40
1.0
 10
140.5205787557
 20
519.494914041
 30
0.0
 10
140.5199655555
 20
519.4968438658
 30
0.0
 10
140.5112368957
 20
519.48462421
 30
0.0
 10
140.501691438
 20
519.4793714354
 30
0.0
 10
140.4817418403
 20
519.4578242257
 30
0.0
 10
140.458635949
 20
519.4357318668
 30
0.0
 10
140.4310535142
 20
519.4081888588
 30
0.0
 10
140.3895329253
 20
519.3673489071
 30
0.0
 10
140.3332325544
 20
519.3123123567
 30
0.0
 10
140.2619254811
 20
519.2439106037
 30
0.0
 10
140.1611186309
 20
519.1491082883
 30
0.0
 10
140.0833498856
 20
519.0783715093
 30
0.0
 10
140.0305767072
 20
519.0314154789
 30
0.0
  0
SPLINE
  5
38A
100
AcDbEntity
  8
0
100
AcDbSpline
 62
7
  6
CONTINUOUS
 70
0
 71
3
 72
9
 73
5
 74
0
 42
0.0000001
 43
0.0000001
 44
0.0000000001
 40
0.0
 40
0.0
 40
0.0
 40
0.0
 40
0.2988411278
 40
1.0
 40
1.0
 40
1.0
 40
1.0
 10
140.0242163607
 20
519.0257630097
 30
0.0
 10
140.0365498566
 20
519.0101207712
 30
0.0
 10
140.0826929339
 20
518.9618530363
 30
0.0
 10
140.1261314935
 20
518.9113346486
 30
0.0
 10
140.1569688143
 20
518.8762150154
 30
0.0
  0
SPLINE
  5
38B
100
AcDbEntity
  8
0
100
AcDbSpline
 62
7
  6
CONTINUOUS
 70
0
 71
3
 72
15
 73
11
 74
0
 42
0.0000001
 43
0.0000001
 44
0.0000000001
 40
0.0
 40
0.0
 40
0.0
 40
0.0
 40
0.1392228549
 40
0.2782462666
 40
0.5538193376
 40
0.6886800816
 40
0.8187185315
 40
0.9359872186
 40
0.9808598839
 40
1.0
 40
1.0
 40
1.0
 40
1.0
 10
140.1568331715
 20
518.8831486037
 30
0.0
 10
140.1692940138
 20
518.9078186581
 30
0.0
 10
140.2005552939
 20
518.9536070499
 30
0.0
 10
140.2585972248
 20
519.046887279
 30
0.0
 10
140.3159999331
 20
519.1396801136
 30
0.0
 10
140.3712988502
 20
519.2316266825
 30
0.0
 10
140.4094689839
 20
519.2971869391
 30
0.0
 10
140.4399538711
 20
519.3465713181
 30
0.0
 10
140.4565385474
 20
519.3785359555
 30
0.0
 10
140.4647940954
 20
519.3884532904
 30
0.0
 10
140.4663248959
 20
519.3919309719
 30
0.0
  0
SPLINE
  5
38C
100
AcDbEntity
  8
0
100
AcDbSpline
 62
7
  6
CONTINUOUS
 70
0
 71
3
 72
9
 73
5
 74
0
 42
0.0000001
 43
0.0000001
 44
0.0000000001
 40
0.0
 40
0.0
 40
0.0
 40
0.0
 40
0.3508528777
 40
1.0
 40
1.0
 40
1.0
 40
1.0
 10
122.0473114101
 20
542.0780526864
 30
0.0
 10
122.1514410279
 20
542.1230073071
 30
0.0
 10
122.4388532863
 20
542.2717908352
 30
0.0
 10
122.7246767473
 20
542.422431731
 30
0.0
 10
122.9104394973
 20
542.5200446582
 30
0.0
  0
SPLINE
  5
38D
100
AcDbEntity
  8
0
100
AcDbSpline
 62
7
  6
CONTINUOUS
 70
0
 71
3
 72
16
 73
12
 74
0
 42
0.0000001
 43
0.0000001
 44
0.0000000001
 40
0.0
 40
0.0
 40
0.0
 40
0.0
 40
0.3129696027
 40
0.4659055863
 40
0.6135448363
 40
0.7518537884
 40
0.8736663634
 40
0.9239375029
 40
0.963909544
 40
0.9907960656
 40
1.0
 40
1.0
 40
1.0
 40
1.0
 10
129.0427146029
 20
519.0261054034
 30
0.0
 10
128.9891879372
 20
519.073621078
 30
0.0
 10
128.9103238482
 20
519.1453139767
 30
0.0
 10
128.8080887739
 20
519.2413478702
 30
0.0
 10
128.735574085
 20
519.310946444
 30
0.0
 10
128.669118497
 20
519.3756991297
 30
0.0
 10
128.6179599514
 20
519.426681699
 30
0.0
 10
128.5846462726
 20
519.4590895969
 30
0.0
 10
128.5632110573
 20
519.4812890304
 30
0.0
 10
128.5553009693
 20
519.4864910517
 30
0.0
 10
128.5440803631
 20
519.4995267554
 30
0.0
 10
128.544329104
 20
519.4974366266
 30
0.0
  0
SPLINE
  5
38E
100
AcDbEntity
  8
0
100
AcDbSpline
 62
7
  6
CONTINUOUS
 70
0
 71
3
 72
8
 73
4
 74
0
 42
0.0000001
 43
0.0000001
 44
0.0000000001
 40
0.0
 40
0.0
 40
0.0
 40
0.0
 40
1.0
 40
1.0
 40
1.0
 40
1.0
 10
128.5467423543
 20
519.4997387378
 30
0.0
 10
128.5743054377
 20
519.4708976604
 30
0.0
 10
128.5935961348
 20
519.4318537439
 30
0.0
 10
128.5997549456
 20
519.3924380064
 30
0.0
  0
SPLINE
  5
38F
100
AcDbEntity
  8
0
100
AcDbSpline
 62
7
  6
CONTINUOUS
 70
0
 71
3
 72
9
 73
5
 74
0
 42
0.0000001
 43
0.0000001
 44
0.0000000001
 40
0.0
 40
0.0
 40
0.0
 40
0.0
 40
0.6489565383
 40
1.0
 40
1.0
 40
1.0
 40
1.0
 10
146.1523020221
 20
542.5200446581
 30
0.0
 10
146.3379990868
 20
542.4224392786
 30
0.0
 10
146.6238504576
 20
542.2718544574
 30
0.0
 10
146.9112380515
 20
542.1230179757
 30
0.0
 10
147.0154301344
 20
542.0780526719
 30
0.0
  0
SPLINE
  5
390
100
AcDbEntity
  8
0
100
AcDbSpline
 62
7
  6
CONTINUOUS
 70
0
 71
3
 72
11
 73
7
 74
0
 42
0.0000001
 43
0.0000001
 44
0.0000000001
 40
0.0
 40
0.0
 40
0.0
 40
0.0
 40
0.3067582775
 40
0.5906239849
 40
0.8308478936
 40
1.0
 40
1.0
 40
1.0
 40
1.0
 10
119.9634609407
 20
535.6486454747
 30
0.0
 10
120.0453303438
 20
536.1042853859
 30
0.0
 10
120.2073247487
 20
536.980779
 30
0.0
 10
120.4458322152
 20
538.2117663249
 30
0.0
 10
120.6478692146
 20
539.2382026081
 30
0.0
 10
120.7656328049
 20
539.8447817568
 30
0.0
 10
120.8075839661
 20
540.0965827511
 30
0.0
  0
SPLINE
  5
391
100
AcDbEntity
  8
0
100
AcDbSpline
 62
7
  6
CONTINUOUS
 70
0
 71
3
 72
11
 73
7
 74
0
 42
0.0000001
 43
0.0000001
 44
0.0000000001
 40
0.0
 40
0.0
 40
0.0
 40
0.0
 40
0.169152121
 40
0.4093760584
 40
0.6932417934
 40
1.0
 40
1.0
 40
1.0
 40
1.0
 10
120.8075839642
 20
500.7398614048
 30
0.0
 10
120.7656327979
 20
500.9916624202
 30
0.0
 10
120.6478691978
 20
501.5982416324
 30
0.0
 10
120.4458321763
 20
502.6246780184
 30
0.0
 10
120.2073247174
 20
503.8556653199
 30
0.0
 10
120.0453303225
 20
504.7321588678
 30
0.0
 10
119.9634609407
 20
505.1877986733
 30
0.0
  0
SPLINE
  5
392
100
AcDbEntity
  8
0
100
AcDbSpline
 62
7
  6
CONTINUOUS
 70
0
 71
3
 72
14
 73
10
 74
0
 42
0.0000001
 43
0.0000001
 44
0.0000000001
 40
0.0
 40
0.0
 40
0.0
 40
0.0
 40
0.0197069812
 40
0.0653157857
 40
0.1830139543
 40
0.3129392628
 40
0.4474929545
 40
0.7223442622
 40
1.0
 40
1.0
 40
1.0
 40
1.0
 10
128.6008860667
 20
519.3926134844
 30
0.0
 10
128.6022989482
 20
519.3889612934
 30
0.0
 10
128.610770361
 20
519.3787757565
 30
0.0
 10
128.6268318899
 20
519.3461488459
 30
0.0
 10
128.656983277
 20
519.2962126128
 30
0.0
 10
128.6944293976
 20
519.2301640261
 30
0.0
 10
128.7489683067
 20
519.1378978436
 30
0.0
 10
128.8197835534
 20
519.0211691096
 30
0.0
 10
128.8788208305
 20
518.9285940544
 30
0.0
 10
128.908804008
 20
518.8822794579
 30
0.0
  0
SPLINE
  5
393
100
AcDbEntity
  8
0
100
AcDbSpline
 62
7
  6
CONTINUOUS
 70
0
 71
3
 72
9
 73
5
 74
0
 42
0.0000001
 43
0.0000001
 44
0.0000000001
 40
0.0
 40
0.0
 40
0.0
 40
0.0
 40
0.7008709391
 40
1.0
 40
1.0
 40
1.0
 40
1.0
 10
128.9103478376
 20
518.8762150154
 30
0.0
 10
128.9410764817
 20
518.9114043005
 30
0.0
 10
128.9844009279
 20
518.9620008462
 30
0.0
 10
129.0309471401
 20
519.0099560284
 30
0.0
 10
129.0431002913
 20
519.0257630097
 30
0.0
  0
SPLINE
  5
394
100
AcDbEntity
  8
0
100
AcDbSpline
 62
7
  6
CONTINUOUS
 70
0
 71
3
 72
8
 73
4
 74
0
 42
0.0000001
 43
0.0000001
 44
0.0000000001
 40
0.0
 40
0.0
 40
0.0
 40
0.0
 40
1.0
 40
1.0
 40
1.0
 40
1.0
 10
85.0801785483
 20
127.018225991
 30
0.0
 10
84.9371259703
 20
126.9131012237
 30
0.0
 10
84.7969604519
 20
126.8002122956
 30
0.0
 10
84.6805498039
 20
126.666183128
 30
0.0
  0
SPLINE
  5
395
100
AcDbEntity
  8
0
100
AcDbSpline
 62
7
  6
CONTINUOUS
 70
0
 71
3
 72
9
 73
5
 74
0
 42
0.0000001
 43
0.0000001
 44
0.0000000001
 40
0.0
 40
0.0
 40
0.0
 40
0.0
 40
0.2850388589
 40
1.0
 40
1.0
 40
1.0
 40
1.0
 10
84.6805498039
 20
126.666183128
 30
0.0
 10
84.6496399321
 20
126.6305951088
 30
0.0
 10
84.5479871478
 20
126.5013346768
 30
0.0
 10
84.4801640715
 20
126.3364563207
 30
0.0
 10
84.4801640715
 20
126.218222074
 30
0.0
  0
SPLINE
  5
396
100
AcDbEntity
  8
0
100
AcDbSpline
 62
7
  6
CONTINUOUS
 70
0
 71
3
 72
9
 73
5
 74
0
 42
0.0000001
 43
0.0000001
 44
0.0000000001
 40
0.0
 40
0.0
 40
0.0
 40
0.0
 40
0.7149608278
 40
1.0
 40
1.0
 40
1.0
 40
1.0
 10
84.4801640715
 20
924.218222074
 30
0.0
 10
84.4801640715
 20
924.0999869953
 30
0.0
 10
84.5479880709
 20
923.9351074369
 30
0.0
 10
84.6496420432
 20
923.8058463953
 30
0.0
 10
84.680552287
 20
923.7702581638
 30
0.0
  0
SPLINE
  5
397
100
AcDbEntity
  8
0
100
AcDbSpline
 62
7
  6
CONTINUOUS
 70
0
 71
3
 72
8
 73
4
 74
0
 42
0.0000001
 43
0.0000001
 44
0.0000000001
 40
0.0
 40
0.0
 40
0.0
 40
0.0
 40
1.0
 40
1.0
 40
1.0
 40
1.0
 10
84.680552287
 20
923.7702581638
 30
0.0
 10
84.7969599398
 20
923.6362332586
 30
0.0
 10
84.9371208712
 20
923.5233472309
 30
0.0
 10
85.0801690074
 20
923.4182251706
 30
0.0
  0
SPLINE
  5
398
100
AcDbEntity
  8
0
100
AcDbSpline
 62
7
  6
CONTINUOUS
 70
0
 71
3
 72
8
 73
4
 74
0
 42
0.0000001
 43
0.0000001
 44
0.0000000001
 40
0.0
 40
0.0
 40
0.0
 40
0.0
 40
1.0
 40
1.0
 40
1.0
 40
1.0
 10
682.4801640715
 20
126.218222074
 30
0.0
 10
682.4801640715
 20
126.2758655613
 30
0.0
 10
682.4690245105
 20
126.334082376
 30
0.0
 10
682.450031921
 20
126.3885071238
 30
0.0
  0
SPLINE
  5
399
100
AcDbEntity
  8
0
100
AcDbSpline
 62
7
  6
CONTINUOUS
 70
0
 71
3
 72
8
 73
4
 74
0
 42
0.0000001
 43
0.0000001
 44
0.0000000001
 40
0.0
 40
0.0
 40
0.0
 40
0.0
 40
1.0
 40
1.0
 40
1.0
 40
1.0
 10
682.450031921
 20
126.3885071238
 30
0.0
 10
682.4142589192
 20
126.491017453
 30
0.0
 10
682.3509717972
 20
126.5842151772
 30
0.0
 10
682.2797758561
 20
126.6661859843
 30
0.0
  0
SPLINE
  5
39A
100
AcDbEntity
  8
0
100
AcDbSpline
 62
7
  6
CONTINUOUS
 70
0
 71
3
 72
8
 73
4
 74
0
 42
0.0000001
 43
0.0000001
 44
0.0000000001
 40
0.0
 40
0.0
 40
0.0
 40
0.0
 40
1.0
 40
1.0
 40
1.0
 40
1.0
 10
681.7416026265
 20
127.1166386904
 30
0.0
 10
681.5903169209
 20
127.2209309053
 30
0.0
 10
681.4351692709
 20
127.3195426993
 30
0.0
 10
681.2801640715
 20
127.418222074
 30
0.0
  0
SPLINE
  5
39B
100
AcDbEntity
  8
0
100
AcDbSpline
 62
7
  6
CONTINUOUS
 70
0
 71
3
 72
8
 73
4
 74
0
 42
0.0000001
 43
0.0000001
 44
0.0000000001
 40
0.0
 40
0.0
 40
0.0
 40
0.0
 40
1.0
 40
1.0
 40
1.0
 40
1.0
 10
681.2801640715
 20
923.018222074
 30
0.0
 10
681.43516901
 20
923.1169012827
 30
0.0
 10
681.5903164002
 20
923.2155129076
 30
0.0
 10
681.7416018648
 20
923.3198049271
 30
0.0
  0
SPLINE
  5
39C
100
AcDbEntity
  8
0
100
AcDbSpline
 62
7
  6
CONTINUOUS
 70
0
 71
3
 72
8
 73
4
 74
0
 42
0.0000001
 43
0.0000001
 44
0.0000000001
 40
0.0
 40
0.0
 40
0.0
 40
0.0
 40
1.0
 40
1.0
 40
1.0
 40
1.0
 10
682.2797783392
 20
923.77026102
 30
0.0
 10
682.35097441
 20
923.8522324742
 30
0.0
 10
682.4142614752
 20
923.9454311133
 30
0.0
 10
682.4500337357
 20
924.0479423086
 30
0.0
  0
SPLINE
  5
39D
100
AcDbEntity
  8
0
100
AcDbSpline
 62
7
  6
CONTINUOUS
 70
0
 71
3
 72
8
 73
4
 74
0
 42
0.0000001
 43
0.0000001
 44
0.0000000001
 40
0.0
 40
0.0
 40
0.0
 40
0.0
 40
1.0
 40
1.0
 40
1.0
 40
1.0
 10
682.4500337357
 20
924.0479423086
 30
0.0
 10
682.4690252252
 20
924.1023654916
 30
0.0
 10
682.4801640715
 20
924.1605804266
 30
0.0
 10
682.4801640715
 20
924.218222074
 30
0.0
  0
SPLINE
  5
39E
100
AcDbEntity
  8
0
100
AcDbSpline
 62
7
  6
CONTINUOUS
 70
0
 71
3
 72
8
 73
4
 74
0
 42
0.0000001
 43
0.0000001
 44
0.0000000001
 40
0.0
 40
0.0
 40
0.0
 40
0.0
 40
1.0
 40
1.0
 40
1.0
 40
1.0
 10
85.3847695233
 20
923.2693941745
 30
0.0
 10
85.2417012401
 20
923.3892383727
 30
0.0
 10
85.0967116507
 20
923.5070288063
 30
0.0
 10
84.9468307382
 20
923.6182352701
 30
0.0
  0
SPLINE
  5
39F
100
AcDbEntity
  8
0
100
AcDbSpline
 62
7
  6
CONTINUOUS
 70
0
 71
3
 72
8
 73
4
 74
0
 42
0.0000001
 43
0.0000001
 44
0.0000000001
 40
0.0
 40
0.0
 40
0.0
 40
0.0
 40
1.0
 40
1.0
 40
1.0
 40
1.0
 10
84.6957226954
 20
923.7938723747
 30
0.0
 10
84.6250273996
 20
923.8400738463
 30
0.0
 10
84.55293996
 20
923.8842574294
 30
0.0
 10
84.4792875423
 20
923.9255820251
 30
0.0
  0
SPLINE
  5
3A0
100
AcDbEntity
  8
0
100
AcDbSpline
 62
7
  6
CONTINUOUS
 70
0
 71
3
 72
8
 73
4
 74
0
 42
0.0000001
 43
0.0000001
 44
0.0000000001
 40
0.0
 40
0.0
 40
0.0
 40
0.0
 40
1.0
 40
1.0
 40
1.0
 40
1.0
 10
84.4792875423
 20
923.9255820251
 30
0.0
 10
84.3930356322
 20
923.9739758923
 30
0.0
 10
84.3044352117
 20
924.018564692
 30
0.0
 10
84.2134974049
 20
924.0574449397
 30
0.0
  0
SPLINE
  5
3A1
100
AcDbEntity
  8
0
100
AcDbSpline
 62
7
  6
CONTINUOUS
 70
0
 71
3
 72
8
 73
4
 74
0
 42
0.0000001
 43
0.0000001
 44
0.0000000001
 40
0.0
 40
0.0
 40
0.0
 40
0.0
 40
1.0
 40
1.0
 40
1.0
 40
1.0
 10
84.2134974049
 20
924.0574449397
 30
0.0
 10
83.9833958489
 20
924.1558243246
 30
0.0
 10
83.730414405
 20
924.218222074
 30
0.0
 10
83.4801640715
 20
924.218222074
 30
0.0
  0
SPLINE
  5
3A2
100
AcDbEntity
  8
0
100
AcDbSpline
 62
7
  6
CONTINUOUS
 70
0
 71
3
 72
8
 73
4
 74
0
 42
0.0000001
 43
0.0000001
 44
0.0000000001
 40
0.0
 40
0.0
 40
0.0
 40
0.0
 40
1.0
 40
1.0
 40
1.0
 40
1.0
 10
683.4801640715
 20
924.218222074
 30
0.0
 10
683.2299137381
 20
924.218222074
 30
0.0
 10
682.9769322942
 20
924.1558243246
 30
0.0
 10
682.7468307382
 20
924.0574449397
 30
0.0
  0
SPLINE
  5
3A3
100
AcDbEntity
  8
0
100
AcDbSpline
 62
7
  6
CONTINUOUS
 70
0
 71
3
 72
8
 73
4
 74
0
 42
0.0000001
 43
0.0000001
 44
0.0000000001
 40
0.0
 40
0.0
 40
0.0
 40
0.0
 40
1.0
 40
1.0
 40
1.0
 40
1.0
 10
682.7468307382
 20
924.0574449397
 30
0.0
 10
682.6558929314
 20
924.018564692
 30
0.0
 10
682.5672925109
 20
923.9739758923
 30
0.0
 10
682.4810406008
 20
923.9255820251
 30
0.0
  0
SPLINE
  5
3A4
100
AcDbEntity
  8
0
100
AcDbSpline
 62
7
  6
CONTINUOUS
 70
0
 71
3
 72
8
 73
4
 74
0
 42
0.0000001
 43
0.0000001
 44
0.0000000001
 40
0.0
 40
0.0
 40
0.0
 40
0.0
 40
1.0
 40
1.0
 40
1.0
 40
1.0
 10
682.4810406008
 20
923.9255820251
 30
0.0
 10
682.4073899177
 20
923.8842584027
 30
0.0
 10
682.3353041395
 20
923.8400759269
 30
0.0
 10
682.264610445
 20
923.7938756406
 30
0.0
  0
SPLINE
  5
3A5
100
AcDbEntity
  8
0
100
AcDbSpline
 62
7
  6
CONTINUOUS
 70
0
 71
3
 72
8
 73
4
 74
0
 42
0.0000001
 43
0.0000001
 44
0.0000000001
 40
0.0
 40
0.0
 40
0.0
 40
0.0
 40
1.0
 40
1.0
 40
1.0
 40
1.0
 10
681.7314968623
 20
923.3982150455
 30
0.0
 10
681.5788873681
 20
923.2741679993
 30
0.0
 10
681.429509113
 20
923.1461806063
 30
0.0
 10
681.2801640715
 20
923.018222074
 30
0.0
  0
SPLINE
  5
3A6
100
AcDbEntity
  8
0
100
AcDbSpline
 62
7
  6
CONTINUOUS
 70
0
 71
3
 72
8
 73
4
 74
0
 42
0.0000001
 43
0.0000001
 44
0.0000000001
 40
0.0
 40
0.0
 40
0.0
 40
0.0
 40
1.0
 40
1.0
 40
1.0
 40
1.0
 10
681.2801640715
 20
127.418222074
 30
0.0
 10
681.429509113
 20
127.2902635418
 30
0.0
 10
681.5788873681
 20
127.1622761487
 30
0.0
 10
681.7314968623
 20
127.0382291025
 30
0.0
  0
SPLINE
  5
3A7
100
AcDbEntity
  8
0
100
AcDbSpline
 62
7
  6
CONTINUOUS
 70
0
 71
3
 72
8
 73
4
 74
0
 42
0.0000001
 43
0.0000001
 44
0.0000000001
 40
0.0
 40
0.0
 40
0.0
 40
0.0
 40
1.0
 40
1.0
 40
1.0
 40
1.0
 10
682.2646054477
 20
126.6425717734
 30
0.0
 10
682.3353007435
 20
126.5963703017
 30
0.0
 10
682.4073881831
 20
126.5521867186
 30
0.0
 10
682.4810406008
 20
126.5108621229
 30
0.0
  0
SPLINE
  5
3A8
100
AcDbEntity
  8
0
100
AcDbSpline
 62
7
  6
CONTINUOUS
 70
0
 71
3
 72
8
 73
4
 74
0
 42
0.0000001
 43
0.0000001
 44
0.0000000001
 40
0.0
 40
0.0
 40
0.0
 40
0.0
 40
1.0
 40
1.0
 40
1.0
 40
1.0
 10
682.4810406008
 20
126.5108621229
 30
0.0
 10
682.5672925109
 20
126.4624682558
 30
0.0
 10
682.6558929314
 20
126.4178794561
 30
0.0
 10
682.7468307382
 20
126.3789992083
 30
0.0
  0
SPLINE
  5
3A9
100
AcDbEntity
  8
0
100
AcDbSpline
 62
7
  6
CONTINUOUS
 70
0
 71
3
 72
8
 73
4
 74
0
 42
0.0000001
 43
0.0000001
 44
0.0000000001
 40
0.0
 40
0.0
 40
0.0
 40
0.0
 40
1.0
 40
1.0
 40
1.0
 40
1.0
 10
682.7468307382
 20
126.3789992083
 30
0.0
 10
682.8726267165
 20
126.3252154305
 30
0.0
 10
683.003901315
 20
126.2820978652
 30
0.0
 10
683.1378514136
 20
126.25426454
 30
0.0
  0
SPLINE
  5
3AA
100
AcDbEntity
  8
0
100
AcDbSpline
 62
7
  6
CONTINUOUS
 70
0
 71
3
 72
8
 73
4
 74
0
 42
0.0000001
 43
0.0000001
 44
0.0000000001
 40
0.0
 40
0.0
 40
0.0
 40
0.0
 40
1.0
 40
1.0
 40
1.0
 40
1.0
 10
683.1378514136
 20
126.25426454
 30
0.0
 10
683.2501868996
 20
126.2309224883
 30
0.0
 10
683.3654291039
 20
126.218222074
 30
0.0
 10
683.4801640715
 20
126.218222074
 30
0.0
  0
SPLINE
  5
3AB
100
AcDbEntity
  8
0
100
AcDbSpline
 62
7
  6
CONTINUOUS
 70
0
 71
3
 72
9
 73
5
 74
0
 42
0.0000001
 43
0.0000001
 44
0.0000000001
 40
0.0
 40
0.0
 40
0.0
 40
0.0
 40
0.733264826
 40
1.0
 40
1.0
 40
1.0
 40
1.0
 10
83.4801640715
 20
126.218222074
 30
0.0
 10
83.7361142667
 20
126.218222074
 30
0.0
 10
84.0874628117
 20
126.3072620409
 30
0.0
 10
84.3980897844
 20
126.4653040187
 30
0.0
 10
84.4792875423
 20
126.5108621229
 30
0.0
  0
SPLINE
  5
3AC
100
AcDbEntity
  8
0
100
AcDbSpline
 62
7
  6
CONTINUOUS
 70
0
 71
3
 72
8
 73
4
 74
0
 42
0.0000001
 43
0.0000001
 44
0.0000000001
 40
0.0
 40
0.0
 40
0.0
 40
0.0
 40
1.0
 40
1.0
 40
1.0
 40
1.0
 10
84.4792875423
 20
126.5108621229
 30
0.0
 10
84.5529382254
 20
126.5521857454
 30
0.0
 10
84.6250240036
 20
126.5963682211
 30
0.0
 10
84.6957176981
 20
126.6425685075
 30
0.0
  0
SPLINE
  5
3AD
100
AcDbEntity
  8
0
100
AcDbSpline
 62
7
  6
CONTINUOUS
 70
0
 71
3
 72
8
 73
4
 74
0
 42
0.0000001
 43
0.0000001
 44
0.0000000001
 40
0.0
 40
0.0
 40
0.0
 40
0.0
 40
1.0
 40
1.0
 40
1.0
 40
1.0
 10
84.9468307382
 20
126.818208878
 30
0.0
 10
85.0967116507
 20
126.9294153418
 30
0.0
 10
85.2417012401
 20
127.0472057754
 30
0.0
 10
85.3847695233
 20
127.1670499736
 30
0.0
  0
SPLINE
  5
3AE
100
AcDbEntity
  8
0
100
AcDbSpline
 62
7
  6
CONTINUOUS
 70
0
 71
3
 72
9
 73
5
 74
0
 42
0.0000001
 43
0.0000001
 44
0.0000000001
 40
0.0
 40
0.0
 40
0.0
 40
0.0
 40
0.1835779683
 40
1.0
 40
1.0
 40
1.0
 40
1.0
 10
683.4801640715
 20
924.218222074
 30
0.0
 10
683.4801640715
 20
924.1750443869
 30
0.0
 10
683.4130645039
 20
923.940109043
 30
0.0
 10
683.1835352122
 20
923.8075649041
 30
0.0
 10
683.0163885871
 20
923.7130403781
 30
0.0
  0
SPLINE
  5
3AF
100
AcDbEntity
  8
0
100
AcDbSpline
 62
7
  6
CONTINUOUS
 70
0
 71
3
 72
8
 73
4
 74
0
 42
0.0000001
 43
0.0000001
 44
0.0000000001
 40
0.0
 40
0.0
 40
0.0
 40
0.0
 40
1.0
 40
1.0
 40
1.0
 40
1.0
 10
683.018591927
 20
126.7221564381
 30
0.0
 10
683.0956350142
 20
126.6784957353
 30
0.0
 10
683.1710989084
 20
126.6313188743
 30
0.0
 10
683.2413938287
 20
126.5774624128
 30
0.0
  0
SPLINE
  5
3B0
100
AcDbEntity
  8
0
100
AcDbSpline
 62
7
  6
CONTINUOUS
 70
0
 71
3
 72
9
 73
5
 74
0
 42
0.0000001
 43
0.0000001
 44
0.0000000001
 40
0.0
 40
0.0
 40
0.0
 40
0.0
 40
0.312517527
 40
1.0
 40
1.0
 40
1.0
 40
1.0
 10
683.2413938287
 20
126.5774624128
 30
0.0
 10
683.2776508648
 20
126.5496840803
 30
0.0
 10
683.3878632397
 20
126.4575701507
 30
0.0
 10
683.4801640715
 20
126.3186989443
 30
0.0
 10
683.4801640715
 20
126.218222074
 30
0.0
  0
SPLINE
  5
3B1
100
AcDbEntity
  8
0
100
AcDbSpline
 62
7
  6
CONTINUOUS
 70
0
 71
3
 72
8
 73
4
 74
0
 42
0.0000001
 43
0.0000001
 44
0.0000000001
 40
0.0
 40
0.0
 40
0.0
 40
0.0
 40
1.0
 40
1.0
 40
1.0
 40
1.0
 10
681.2801640715
 20
923.018222074
 30
0.0
 10
681.434122706
 20
923.2600597316
 30
0.0
 10
681.5880631022
 20
923.5019861969
 30
0.0
 10
681.7482555854
 20
923.7397404442
 30
0.0
  0
SPLINE
  5
3B2
100
AcDbEntity
  8
0
100
AcDbSpline
 62
7
  6
CONTINUOUS
 70
0
 71
3
 72
8
 73
4
 74
0
 42
0.0000001
 43
0.0000001
 44
0.0000000001
 40
0.0
 40
0.0
 40
0.0
 40
0.0
 40
1.0
 40
1.0
 40
1.0
 40
1.0
 10
681.7482555854
 20
923.7397404442
 30
0.0
 10
681.8343180288
 20
923.8674724768
 30
0.0
 10
681.9222146208
 20
923.9940300472
 30
0.0
 10
682.0134205064
 20
924.1181417016
 30
0.0
  0
SPLINE
  5
3B3
100
AcDbEntity
  8
0
100
AcDbSpline
 62
7
  6
CONTINUOUS
 70
0
 71
3
 72
8
 73
4
 74
0
 42
0.0000001
 43
0.0000001
 44
0.0000000001
 40
0.0
 40
0.0
 40
0.0
 40
0.0
 40
1.0
 40
1.0
 40
1.0
 40
1.0
 10
682.1026386213
 20
924.237209508
 30
0.0
 10
682.18670863
 20
924.3471346471
 30
0.0
 10
682.2739683593
 20
924.4548007183
 30
0.0
 10
682.3660344915
 20
924.5581212384
 30
0.0
  0
SPLINE
  5
3B4
100
AcDbEntity
  8
0
100
AcDbSpline
 62
7
  6
CONTINUOUS
 70
0
 71
3
 72
8
 73
4
 74
0
 42
0.0000001
 43
0.0000001
 44
0.0000000001
 40
0.0
 40
0.0
 40
0.0
 40
0.0
 40
1.0
 40
1.0
 40
1.0
 40
1.0
 10
682.4337492841
 20
924.6322903565
 30
0.0
 10
682.5311885372
 20
924.7363500028
 30
0.0
 10
682.6346766567
 20
924.835658851
 30
0.0
 10
682.7469260589
 20
924.9235388245
 30
0.0
  0
SPLINE
  5
3B5
100
AcDbEntity
  8
0
100
AcDbSpline
 62
7
  6
CONTINUOUS
 70
0
 71
3
 72
8
 73
4
 74
0
 42
0.0000001
 43
0.0000001
 44
0.0000000001
 40
0.0
 40
0.0
 40
0.0
 40
0.0
 40
1.0
 40
1.0
 40
1.0
 40
1.0
 10
682.7469260589
 20
924.9235388245
 30
0.0
 10
682.8648342249
 20
925.0158490401
 30
0.0
 10
682.9947457714
 20
925.0969113069
 30
0.0
 10
683.1345002874
 20
925.150690362
 30
0.0
  0
SPLINE
  5
3B6
100
AcDbEntity
  8
0
100
AcDbSpline
 62
7
  6
CONTINUOUS
 70
0
 71
3
 72
8
 73
4
 74
0
 42
0.0000001
 43
0.0000001
 44
0.0000000001
 40
0.0
 40
0.0
 40
0.0
 40
0.0
 40
1.0
 40
1.0
 40
1.0
 40
1.0
 10
683.1345002874
 20
925.150690362
 30
0.0
 10
683.2440675059
 20
925.1928530173
 30
0.0
 10
683.3627644767
 20
925.218222074
 30
0.0
 10
683.4801640715
 20
925.218222074
 30
0.0
  0
SPLINE
  5
3B7
100
AcDbEntity
  8
0
100
AcDbSpline
 62
7
  6
CONTINUOUS
 70
0
 71
3
 72
9
 73
5
 74
0
 42
0.0000001
 43
0.0000001
 44
0.0000000001
 40
0.0
 40
0.0
 40
0.0
 40
0.0
 40
0.228685913
 40
1.0
 40
1.0
 40
1.0
 40
1.0
 10
83.4801640715
 20
925.218222074
 30
0.0
 10
83.5428341684
 20
925.218222074
 30
0.0
 10
83.8174549633
 20
925.1876417348
 30
0.0
 10
84.066554058
 20
925.0413090935
 30
0.0
 10
84.2315388934
 20
924.9091761843
 30
0.0
  0
SPLINE
  5
3B8
100
AcDbEntity
  8
0
100
AcDbSpline
 62
7
  6
CONTINUOUS
 70
0
 71
3
 72
8
 73
4
 74
0
 42
0.0000001
 43
0.0000001
 44
0.0000000001
 40
0.0
 40
0.0
 40
0.0
 40
0.0
 40
1.0
 40
1.0
 40
1.0
 40
1.0
 10
84.2993771715
 20
924.8526038752
 30
0.0
 10
84.4580655235
 20
924.7150902823
 30
0.0
 10
84.5999930766
 20
924.5581150851
 30
0.0
 10
84.7327886484
 20
924.3954580305
 30
0.0
  0
SPLINE
  5
3B9
100
AcDbEntity
  8
0
100
AcDbSpline
 62
7
  6
CONTINUOUS
 70
0
 71
3
 72
8
 73
4
 74
0
 42
0.0000001
 43
0.0000001
 44
0.0000000001
 40
0.0
 40
0.0
 40
0.0
 40
0.0
 40
1.0
 40
1.0
 40
1.0
 40
1.0
 10
85.2120736252
 20
923.7397388873
 30
0.0
 10
85.2986062679
 20
923.6113089575
 30
0.0
 10
85.383279779
 20
923.4816251527
 30
0.0
 10
85.4671548369
 20
923.3514440489
 30
0.0
  0
SPLINE
  5
3BA
100
AcDbEntity
  8
0
100
AcDbSpline
 62
7
  6
CONTINUOUS
 70
0
 71
3
 72
9
 73
5
 74
0
 42
0.0000001
 43
0.0000001
 44
0.0000000001
 40
0.0
 40
0.0
 40
0.0
 40
0.0
 40
0.49031937
 40
1.0
 40
1.0
 40
1.0
 40
1.0
 10
83.4801640715
 20
126.218222074
 30
0.0
 10
83.4801640715
 20
126.235371237
 30
0.0
 10
83.4836897324
 20
126.2704238184
 30
0.0
 10
83.4937275241
 20
126.3041395873
 30
0.0
 10
83.5001700134
 20
126.3207610332
 30
0.0
  0
SPLINE
  5
3BB
100
AcDbEntity
  8
0
100
AcDbSpline
 62
7
  6
CONTINUOUS
 70
0
 71
3
 72
9
 73
5
 74
0
 42
0.0000001
 43
0.0000001
 44
0.0000000001
 40
0.0
 40
0.0
 40
0.0
 40
0.0
 40
0.191334112
 40
1.0
 40
1.0
 40
1.0
 40
1.0
 10
83.5001700134
 20
126.3207610332
 30
0.0
 10
83.5141426461
 20
126.3568100434
 30
0.0
 10
83.6211366294
 20
126.5317756027
 30
0.0
 10
83.8017042712
 20
126.6429670704
 30
0.0
 10
83.9439395558
 20
126.7234037698
 30
0.0
  0
SPLINE
  5
3BC
100
AcDbEntity
  8
0
100
AcDbSpline
 62
7
  6
CONTINUOUS
 70
0
 71
3
 72
8
 73
4
 74
0
 42
0.0000001
 43
0.0000001
 44
0.0000000001
 40
0.0
 40
0.0
 40
0.0
 40
0.0
 40
1.0
 40
1.0
 40
1.0
 40
1.0
 10
84.8885367934
 20
127.1370290422
 30
0.0
 10
85.1509775837
 20
127.2347058067
 30
0.0
 10
85.4156306366
 20
127.3263635931
 30
0.0
 10
85.6801640715
 20
127.418222074
 30
0.0
  0
SPLINE
  5
3BD
100
AcDbEntity
  8
0
100
AcDbSpline
 62
7
  6
CONTINUOUS
 70
0
 71
3
 72
8
 73
4
 74
0
 42
0.0000001
 43
0.0000001
 44
0.0000000001
 40
0.0
 40
0.0
 40
0.0
 40
0.0
 40
1.0
 40
1.0
 40
1.0
 40
1.0
 10
85.467155089
 20
127.0850004994
 30
0.0
 10
85.3832796038
 20
126.9548187349
 30
0.0
 10
85.2986056575
 20
126.8251342743
 30
0.0
 10
85.2120725577
 20
126.6967037037
 30
0.0
  0
SPLINE
  5
3BE
100
AcDbEntity
  8
0
100
AcDbSpline
 62
7
  6
CONTINUOUS
 70
0
 71
3
 72
9
 73
5
 74
0
 42
0.0000001
 43
0.0000001
 44
0.0000000001
 40
0.0
 40
0.0
 40
0.0
 40
0.0
 40
0.2704645052
 40
1.0
 40
1.0
 40
1.0
 40
1.0
 10
84.7327887778
 20
126.0409863019
 30
0.0
 10
84.6905156752
 20
125.989207331
 30
0.0
 10
84.5308710599
 20
125.800742104
 30
0.0
 10
84.3553694574
 20
125.6240514745
 30
0.0
 10
84.2134020842
 20
125.5129053235
 30
0.0
  0
SPLINE
  5
3BF
100
AcDbEntity
  8
0
100
AcDbSpline
 62
7
  6
CONTINUOUS
 70
0
 71
3
 72
8
 73
4
 74
0
 42
0.0000001
 43
0.0000001
 44
0.0000000001
 40
0.0
 40
0.0
 40
0.0
 40
0.0
 40
1.0
 40
1.0
 40
1.0
 40
1.0
 10
84.2134020842
 20
125.5129053235
 30
0.0
 10
84.0954939182
 20
125.420595108
 30
0.0
 10
83.9655823717
 20
125.3395328411
 30
0.0
 10
83.8258278557
 20
125.285753786
 30
0.0
  0
SPLINE
  5
3C0
100
AcDbEntity
  8
0
100
AcDbSpline
 62
7
  6
CONTINUOUS
 70
0
 71
3
 72
8
 73
4
 74
0
 42
0.0000001
 43
0.0000001
 44
0.0000000001
 40
0.0
 40
0.0
 40
0.0
 40
0.0
 40
1.0
 40
1.0
 40
1.0
 40
1.0
 10
83.8258278557
 20
125.285753786
 30
0.0
 10
83.7162606372
 20
125.2435911308
 30
0.0
 10
83.5975636664
 20
125.218222074
 30
0.0
 10
83.4801640715
 20
125.218222074
 30
0.0
  0
SPLINE
  5
3C1
100
AcDbEntity
  8
0
100
AcDbSpline
 62
7
  6
CONTINUOUS
 70
0
 71
3
 72
9
 73
5
 74
0
 42
0.0000001
 43
0.0000001
 44
0.0000000001
 40
0.0
 40
0.0
 40
0.0
 40
0.0
 40
0.228685913
 40
1.0
 40
1.0
 40
1.0
 40
1.0
 10
683.4801640715
 20
125.218222074
 30
0.0
 10
683.4174939747
 20
125.218222074
 30
0.0
 10
683.1428731798
 20
125.2488024132
 30
0.0
 10
682.8937740851
 20
125.3951350545
 30
0.0
 10
682.7287892497
 20
125.5272679638
 30
0.0
  0
SPLINE
  5
3C2
100
AcDbEntity
  8
0
100
AcDbSpline
 62
7
  6
CONTINUOUS
 70
0
 71
3
 72
8
 73
4
 74
0
 42
0.0000001
 43
0.0000001
 44
0.0000000001
 40
0.0
 40
0.0
 40
0.0
 40
0.0
 40
1.0
 40
1.0
 40
1.0
 40
1.0
 10
682.7287892497
 20
125.5272679638
 30
0.0
 10
682.6235184799
 20
125.611577125
 30
0.0
 10
682.5259378257
 20
125.7057018489
 30
0.0
 10
682.4337531672
 20
125.8041495933
 30
0.0
  0
SPLINE
  5
3C3
100
AcDbEntity
  8
0
100
AcDbSpline
 62
7
  6
CONTINUOUS
 70
0
 71
3
 72
8
 73
4
 74
0
 42
0.0000001
 43
0.0000001
 44
0.0000000001
 40
0.0
 40
0.0
 40
0.0
 40
0.0
 40
1.0
 40
1.0
 40
1.0
 40
1.0
 10
682.3660293923
 20
125.8783285863
 30
0.0
 10
682.2739662146
 20
125.9816461685
 30
0.0
 10
682.186709121
 20
126.0893089976
 30
0.0
 10
682.1026415655
 20
126.199230777
 30
0.0
  0
SPLINE
  5
3C4
100
AcDbEntity
  8
0
100
AcDbSpline
 62
7
  6
CONTINUOUS
 70
0
 71
3
 72
8
 73
4
 74
0
 42
0.0000001
 43
0.0000001
 44
0.0000000001
 40
0.0
 40
0.0
 40
0.0
 40
0.0
 40
1.0
 40
1.0
 40
1.0
 40
1.0
 10
682.0134020842
 20
126.3183274972
 30
0.0
 10
681.9204361614
 20
126.4448351465
 30
0.0
 10
681.8309061215
 20
126.5738818102
 30
0.0
 10
681.743255803
 20
126.7041287673
 30
0.0
  0
SPLINE
  5
3C5
100
AcDbEntity
  8
0
100
AcDbSpline
 62
7
  6
CONTINUOUS
 70
0
 71
3
 72
8
 73
4
 74
0
 42
0.0000001
 43
0.0000001
 44
0.0000000001
 40
0.0
 40
0.0
 40
0.0
 40
0.0
 40
1.0
 40
1.0
 40
1.0
 40
1.0
 10
681.743255803
 20
126.7041287673
 30
0.0
 10
681.5848628942
 20
126.9394980706
 30
0.0
 10
681.4325205372
 20
127.1789010974
 30
0.0
 10
681.2801640715
 20
127.418222074
 30
0.0
  0
SPLINE
  5
3C6
100
AcDbEntity
  8
0
100
AcDbSpline
 62
7
  6
CONTINUOUS
 70
0
 71
3
 72
8
 73
4
 74
0
 42
0.0000001
 43
0.0000001
 44
0.0000000001
 40
0.0
 40
0.0
 40
0.0
 40
0.0
 40
1.0
 40
1.0
 40
1.0
 40
1.0
 10
85.6801640715
 20
923.018222074
 30
0.0
 10
85.415630736
 20
923.1100805205
 30
0.0
 10
85.1509777809
 20
923.2017382678
 30
0.0
 10
84.888537089
 20
923.2994149951
 30
0.0
  0
SPLINE
  5
3C7
100
AcDbEntity
  8
0
100
AcDbSpline
 62
7
  6
CONTINUOUS
 70
0
 71
3
 72
9
 73
5
 74
0
 42
0.0000001
 43
0.0000001
 44
0.0000000001
 40
0.0
 40
0.0
 40
0.0
 40
0.0
 40
0.3160688813
 40
1.0
 40
1.0
 40
1.0
 40
1.0
 10
83.9417362161
 20
923.71428771
 30
0.0
 10
83.8866172023
 20
923.7455239307
 30
0.0
 10
83.7184476343
 20
923.8491312076
 30
0.0
 10
83.549712162
 20
923.9878613021
 30
0.0
 10
83.5001685854
 20
924.1156868492
 30
0.0
  0
SPLINE
  5
3C8
100
AcDbEntity
  8
0
100
AcDbSpline
 62
7
  6
CONTINUOUS
 70
0
 71
3
 72
9
 73
5
 74
0
 42
0.0000001
 43
0.0000001
 44
0.0000000001
 40
0.0
 40
0.0
 40
0.0
 40
0.0
 40
0.5096800348
 40
1.0
 40
1.0
 40
1.0
 40
1.0
 10
83.5001685854
 20
924.1156868492
 30
0.0
 10
83.4937265444
 20
924.1323077204
 30
0.0
 10
83.4836894704
 20
924.1660222965
 30
0.0
 10
83.4801640715
 20
924.2010735416
 30
0.0
 10
83.4801640715
 20
924.218222074
 30
0.0
  0
SPLINE
  5
3C9
100
AcDbEntity
  8
0
100
AcDbSpline
 62
7
  6
CONTINUOUS
 70
0
 71
3
 72
8
 73
4
 74
0
 42
0.0000001
 43
0.0000001
 44
0.0000000001
 40
0.0
 40
0.0
 40
0.0
 40
0.0
 40
1.0
 40
1.0
 40
1.0
 40
1.0
 10
671.4458390475
 20
128.5373126192
 30
0.0
 10
671.2733966423
 20
128.8086186708
 30
0.0
 10
671.0833002838
 20
129.0686298271
 30
0.0
 10
670.8888009144
 20
129.324585589
 30
0.0
  0
SPLINE
  5
3CA
100
AcDbEntity
  8
0
100
AcDbSpline
 62
7
  6
CONTINUOUS
 70
0
 71
3
 72
8
 73
4
 74
0
 42
0.0000001
 43
0.0000001
 44
0.0000000001
 40
0.0
 40
0.0
 40
0.0
 40
0.0
 40
1.0
 40
1.0
 40
1.0
 40
1.0
 10
670.585474393
 20
920.7182658177
 30
0.0
 10
670.822004199
 20
921.0230533874
 30
0.0
 10
671.05917589
 20
921.3278871059
 30
0.0
 10
671.2778909485
 20
921.6457007855
 30
0.0
  0
SPLINE
  5
3CB
100
AcDbEntity
  8
0
100
AcDbSpline
 62
7
  6
CONTINUOUS
 70
0
 71
3
 72
8
 73
4
 74
0
 42
0.0000001
 43
0.0000001
 44
0.0000000001
 40
0.0
 40
0.0
 40
0.0
 40
0.0
 40
1.0
 40
1.0
 40
1.0
 40
1.0
 10
672.0804739241
 20
128.4707539199
 30
0.0
 10
672.2456519844
 20
128.3984534505
 30
0.0
 10
672.4168153082
 20
128.3377291741
 30
0.0
 10
672.5918300043
 20
128.2943586126
 30
0.0
  0
SPLINE
  5
3CC
100
AcDbEntity
  8
0
100
AcDbSpline
 62
7
  6
CONTINUOUS
 70
0
 71
3
 72
8
 73
4
 74
0
 42
0.0000001
 43
0.0000001
 44
0.0000000001
 40
0.0
 40
0.0
 40
0.0
 40
0.0
 40
1.0
 40
1.0
 40
1.0
 40
1.0
 10
672.5918300043
 20
128.2943586126
 30
0.0
 10
672.7903443456
 20
128.2451645812
 30
0.0
 10
672.9961256474
 20
128.218222074
 30
0.0
 10
673.2006445864
 20
128.218222074
 30
0.0
  0
SPLINE
  5
3CD
100
AcDbEntity
  8
0
100
AcDbSpline
 62
7
  6
CONTINUOUS
 70
0
 71
3
 72
8
 73
4
 74
0
 42
0.0000001
 43
0.0000001
 44
0.0000000001
 40
0.0
 40
0.0
 40
0.0
 40
0.0
 40
1.0
 40
1.0
 40
1.0
 40
1.0
 10
92.8620969328
 20
128.218222074
 30
0.0
 10
93.2448580486
 20
128.218222074
 30
0.0
 10
93.6316255333
 20
128.317273575
 30
0.0
 10
93.9822675951
 20
128.4707539199
 30
0.0
  0
SPLINE
  5
3CE
100
AcDbEntity
  8
0
100
AcDbSpline
 62
7
  6
CONTINUOUS
 70
0
 71
3
 72
8
 73
4
 74
0
 42
0.0000001
 43
0.0000001
 44
0.0000000001
 40
0.0
 40
0.0
 40
0.0
 40
0.0
 40
1.0
 40
1.0
 40
1.0
 40
1.0
 10
94.6887126833
 20
128.8579685015
 30
0.0
 10
94.8736285353
 20
129.0339255693
 30
0.0
 10
95.0457944572
 20
129.2231513554
 30
0.0
 10
95.2142747675
 20
129.4149041833
 30
0.0
  0
SPLINE
  5
3CF
100
AcDbEntity
  8
0
100
AcDbSpline
 62
7
  6
CONTINUOUS
 70
0
 71
3
 72
9
 73
5
 74
0
 42
0.0000001
 43
0.0000001
 44
0.0000000001
 40
0.0
 40
0.0
 40
0.0
 40
0.0
 40
0.7613239723
 40
1.0
 40
1.0
 40
1.0
 40
1.0
 10
670.5855294362
 20
129.718222074
 30
0.0
 10
670.7788023629
 20
129.4937240008
 30
0.0
 10
671.0321357793
 20
129.1978914161
 30
0.0
 10
671.3067507956
 20
128.9219870628
 30
0.0
 10
671.374028838
 20
128.8579685002
 30
0.0
  0
SPLINE
  5
3D0
100
AcDbEntity
  8
0
100
AcDbSpline
 62
7
  6
CONTINUOUS
 70
0
 71
3
 72
8
 73
4
 74
0
 42
0.0000001
 43
0.0000001
 44
0.0000000001
 40
0.0
 40
0.0
 40
0.0
 40
0.0
 40
1.0
 40
1.0
 40
1.0
 40
1.0
 10
94.6169024717
 20
921.8991315289
 30
0.0
 10
94.7893448769
 20
921.6278254773
 30
0.0
 10
94.9794412354
 20
921.3678143209
 30
0.0
 10
95.1739406048
 20
921.111858559
 30
0.0
  0
SPLINE
  5
3D1
100
AcDbEntity
  8
0
100
AcDbSpline
 62
7
  6
CONTINUOUS
 70
0
 71
3
 72
8
 73
4
 74
0
 42
0.0000001
 43
0.0000001
 44
0.0000000001
 40
0.0
 40
0.0
 40
0.0
 40
0.0
 40
1.0
 40
1.0
 40
1.0
 40
1.0
 10
95.4772671262
 20
129.7181783303
 30
0.0
 10
95.2407373203
 20
129.4133907606
 30
0.0
 10
95.0035656292
 20
129.1085570422
 30
0.0
 10
94.7848505708
 20
128.7907433625
 30
0.0
  0
SPLINE
  5
3D2
100
AcDbEntity
  8
0
100
AcDbSpline
 62
7
  6
CONTINUOUS
 70
0
 71
3
 72
8
 73
4
 74
0
 42
0.0000001
 43
0.0000001
 44
0.0000000001
 40
0.0
 40
0.0
 40
0.0
 40
0.0
 40
1.0
 40
1.0
 40
1.0
 40
1.0
 10
93.9820217054
 20
921.9657909685
 30
0.0
 10
93.8166263455
 20
922.038180107
 30
0.0
 10
93.6452292283
 20
922.0989666301
 30
0.0
 10
93.4699720488
 20
922.1423340544
 30
0.0
  0
SPLINE
  5
3D3
100
AcDbEntity
  8
0
100
AcDbSpline
 62
7
  6
CONTINUOUS
 70
0
 71
3
 72
8
 73
4
 74
0
 42
0.0000001
 43
0.0000001
 44
0.0000000001
 40
0.0
 40
0.0
 40
0.0
 40
0.0
 40
1.0
 40
1.0
 40
1.0
 40
1.0
 10
93.4699720488
 20
922.1423340544
 30
0.0
 10
93.271769272
 20
922.1913793715
 30
0.0
 10
93.0663295944
 20
922.218222074
 30
0.0
 10
92.8621488316
 20
922.218222074
 30
0.0
  0
SPLINE
  5
3D4
100
AcDbEntity
  8
0
100
AcDbSpline
 62
7
  6
CONTINUOUS
 70
0
 71
3
 72
8
 73
4
 74
0
 42
0.0000001
 43
0.0000001
 44
0.0000000001
 40
0.0
 40
0.0
 40
0.0
 40
0.0
 40
1.0
 40
1.0
 40
1.0
 40
1.0
 10
673.2006445864
 20
922.218222074
 30
0.0
 10
672.8178834706
 20
922.218222074
 30
0.0
 10
672.4311159859
 20
922.119170573
 30
0.0
 10
672.0804739241
 20
921.9656902281
 30
0.0
  0
SPLINE
  5
3D5
100
AcDbEntity
  8
0
100
AcDbSpline
 62
7
  6
CONTINUOUS
 70
0
 71
3
 72
8
 73
4
 74
0
 42
0.0000001
 43
0.0000001
 44
0.0000000001
 40
0.0
 40
0.0
 40
0.0
 40
0.0
 40
1.0
 40
1.0
 40
1.0
 40
1.0
 10
671.3740288359
 20
921.5784756465
 30
0.0
 10
671.1891129839
 20
921.4025185788
 30
0.0
 10
671.0169470621
 20
921.2132927927
 30
0.0
 10
670.8484667517
 20
921.0215399647
 30
0.0
  0
SPLINE
  5
3D6
100
AcDbEntity
  8
0
100
AcDbSpline
 62
7
  6
CONTINUOUS
 70
0
 71
3
 72
9
 73
5
 74
0
 42
0.0000001
 43
0.0000001
 44
0.0000000001
 40
0.0
 40
0.0
 40
0.0
 40
0.0
 40
0.7613222283
 40
1.0
 40
1.0
 40
1.0
 40
1.0
 10
95.477212083
 20
920.718222074
 30
0.0
 10
95.2839616412
 20
920.9426940298
 30
0.0
 10
95.0306480165
 20
921.2384848205
 30
0.0
 10
94.7560720159
 20
921.5143644748
 30
0.0
 10
94.6888079621
 20
921.5783833571
 30
0.0
  0
SPLINE
  5
3D7
100
AcDbEntity
  8
0
100
AcDbSpline
 62
7
  6
CONTINUOUS
 70
0
 71
3
 72
8
 73
4
 74
0
 42
0.0000001
 43
0.0000001
 44
0.0000000001
 40
0.0
 40
0.0
 40
0.0
 40
0.0
 40
1.0
 40
1.0
 40
1.0
 40
1.0
 10
670.585474393
 20
129.718222074
 30
0.0
 10
670.7881050441
 20
129.5876485657
 30
0.0
 10
670.9907519242
 20
129.4570866274
 30
0.0
 10
671.1921274358
 20
129.3245855891
 30
0.0
  0
SPLINE
  5
3D8
100
AcDbEntity
  8
0
100
AcDbSpline
 62
7
  6
CONTINUOUS
 70
0
 71
3
 72
8
 73
4
 74
0
 42
0.0000001
 43
0.0000001
 44
0.0000000001
 40
0.0
 40
0.0
 40
0.0
 40
0.0
 40
1.0
 40
1.0
 40
1.0
 40
1.0
 10
671.1921274358
 20
129.3245855891
 30
0.0
 10
671.3876843077
 20
129.1959130987
 30
0.0
 10
671.5821020487
 20
129.0654265948
 30
0.0
 10
671.7737133857
 20
128.9309491041
 30
0.0
  0
SPLINE
  5
3D9
100
AcDbEntity
  8
0
100
AcDbSpline
 62
7
  6
CONTINUOUS
 70
0
 71
3
 72
8
 73
4
 74
0
 42
0.0000001
 43
0.0000001
 44
0.0000000001
 40
0.0
 40
0.0
 40
0.0
 40
0.0
 40
1.0
 40
1.0
 40
1.0
 40
1.0
 10
671.7737133857
 20
128.9309491041
 30
0.0
 10
671.9543874704
 20
128.8041476428
 30
0.0
 10
672.1327191319
 20
128.6737854714
 30
0.0
 10
672.3062037021
 20
128.5373126192
 30
0.0
  0
SPLINE
  5
3DA
100
AcDbEntity
  8
0
100
AcDbSpline
 62
7
  6
CONTINUOUS
 70
0
 71
3
 72
8
 73
4
 74
0
 42
0.0000001
 43
0.0000001
 44
0.0000000001
 40
0.0
 40
0.0
 40
0.0
 40
0.0
 40
1.0
 40
1.0
 40
1.0
 40
1.0
 10
670.585474393
 20
920.718222074
 30
0.0
 10
670.7567019689
 20
921.1160671221
 30
0.0
 10
670.927457811
 20
921.5142818386
 30
0.0
 10
671.1112920244
 20
921.9064610667
 30
0.0
  0
SPLINE
  5
3DB
100
AcDbEntity
  8
0
100
AcDbSpline
 62
7
  6
CONTINUOUS
 70
0
 71
3
 72
8
 73
4
 74
0
 42
0.0000001
 43
0.0000001
 44
0.0000000001
 40
0.0
 40
0.0
 40
0.0
 40
0.0
 40
1.0
 40
1.0
 40
1.0
 40
1.0
 10
671.1738072358
 20
922.0383797098
 30
0.0
 10
671.2383403708
 20
922.1730127636
 30
0.0
 10
671.3047589005
 20
922.3067833019
 30
0.0
 10
671.3742008401
 20
922.4389513831
 30
0.0
  0
SPLINE
  5
3DC
100
AcDbEntity
  8
0
100
AcDbSpline
 62
7
  6
CONTINUOUS
 70
0
 71
3
 72
9
 73
5
 74
0
 42
0.0000001
 43
0.0000001
 44
0.0000000001
 40
0.0
 40
0.0
 40
0.0
 40
0.0
 40
0.2354077178
 40
1.0
 40
1.0
 40
1.0
 40
1.0
 10
94.6885406791
 20
922.4389513831
 30
0.0
 10
94.7335086482
 20
922.3533643362
 30
0.0
 10
94.9190260983
 20
921.9868957644
 30
0.0
 10
95.0880217918
 20
921.6123554783
 30
0.0
 10
95.2143583105
 20
921.3248751168
 30
0.0
  0
SPLINE
  5
3DD
100
AcDbEntity
  8
0
100
AcDbSpline
 62
7
  6
CONTINUOUS
 70
0
 71
3
 72
9
 73
5
 74
0
 42
0.0000001
 43
0.0000001
 44
0.0000000001
 40
0.0
 40
0.0
 40
0.0
 40
0.0
 40
0.222854939
 40
1.0
 40
1.0
 40
1.0
 40
1.0
 10
92.8620969328
 20
923.718222074
 30
0.0
 10
92.964278726
 20
923.718222074
 30
0.0
 10
93.4245549032
 20
923.6574012783
 30
0.0
 10
93.8203459687
 20
923.3689162603
 30
0.0
 10
94.079726097
 20
923.1245935656
 30
0.0
  0
SPLINE
  5
3DE
100
AcDbEntity
  8
0
100
AcDbSpline
 62
7
  6
CONTINUOUS
 70
0
 71
3
 72
9
 73
5
 74
0
 42
0.0000001
 43
0.0000001
 44
0.0000000001
 40
0.0
 40
0.0
 40
0.0
 40
0.0
 40
0.2338465029
 40
1.0
 40
1.0
 40
1.0
 40
1.0
 10
94.079726097
 20
923.1245935656
 30
0.0
 10
94.1317851015
 20
923.07555667
 30
0.0
 10
94.3485775978
 20
922.8596621349
 30
0.0
 10
94.5450937947
 20
922.6242237069
 30
0.0
 10
94.6885406791
 20
922.4389513831
 30
0.0
  0
SPLINE
  5
3DF
100
AcDbEntity
  8
0
100
AcDbSpline
 62
7
  6
CONTINUOUS
 70
0
 71
3
 72
9
 73
5
 74
0
 42
0.0000001
 43
0.0000001
 44
0.0000000001
 40
0.0
 40
0.0
 40
0.0
 40
0.0
 40
0.2655836724
 40
1.0
 40
1.0
 40
1.0
 40
1.0
 10
671.3742008401
 20
922.4389513831
 30
0.0
 10
671.4239206004
 20
922.5031681678
 30
0.0
 10
671.6143906395
 20
922.7423091327
 30
0.0
 10
671.8195372772
 20
922.9706055981
 30
0.0
 10
671.9830154223
 20
923.1245935656
 30
0.0
  0
SPLINE
  5
3E0
100
AcDbEntity
  8
0
100
AcDbSpline
 62
7
  6
CONTINUOUS
 70
0
 71
3
 72
8
 73
4
 74
0
 42
0.0000001
 43
0.0000001
 44
0.0000000001
 40
0.0
 40
0.0
 40
0.0
 40
0.0
 40
1.0
 40
1.0
 40
1.0
 40
1.0
 10
671.9830154223
 20
923.1245935656
 30
0.0
 10
672.0980868671
 20
923.2329849221
 30
0.0
 10
672.220178244
 20
923.3349705711
 30
0.0
 10
672.3508334444
 20
923.4239612571
 30
0.0
  0
SPLINE
  5
3E1
100
AcDbEntity
  8
0
100
AcDbSpline
 62
7
  6
CONTINUOUS
 70
0
 71
3
 72
9
 73
5
 74
0
 42
0.0000001
 43
0.0000001
 44
0.0000000001
 40
0.0
 40
0.0
 40
0.0
 40
0.0
 40
0.2733173187
 40
1.0
 40
1.0
 40
1.0
 40
1.0
 10
672.3508334444
 20
923.4239612571
 30
0.0
 10
672.4190990043
 20
923.4704576766
 30
0.0
 10
672.6764025516
 20
923.6278491035
 30
0.0
 10
672.9810423206
 20
923.718222074
 30
0.0
 10
673.2006445864
 20
923.718222074
 30
0.0
  0
SPLINE
  5
3E2
100
AcDbEntity
  8
0
100
AcDbSpline
 62
7
  6
CONTINUOUS
 70
0
 71
3
 72
8
 73
4
 74
0
 42
0.0000001
 43
0.0000001
 44
0.0000000001
 40
0.0
 40
0.0
 40
0.0
 40
0.0
 40
1.0
 40
1.0
 40
1.0
 40
1.0
 10
95.4772671262
 20
129.718222074
 30
0.0
 10
95.3060395505
 20
129.3203770259
 30
0.0
 10
95.1352837082
 20
128.9221623095
 30
0.0
 10
94.9514494948
 20
128.5299830813
 30
0.0
  0
SPLINE
  5
3E3
100
AcDbEntity
  8
0
100
AcDbSpline
 62
7
  6
CONTINUOUS
 70
0
 71
3
 72
8
 73
4
 74
0
 42
0.0000001
 43
0.0000001
 44
0.0000000001
 40
0.0
 40
0.0
 40
0.0
 40
0.0
 40
1.0
 40
1.0
 40
1.0
 40
1.0
 10
94.8889342834
 20
128.3980644383
 30
0.0
 10
94.8244011484
 20
128.2634313845
 30
0.0
 10
94.7579826188
 20
128.1296608462
 30
0.0
 10
94.6885406791
 20
127.9974927649
 30
0.0
  0
SPLINE
  5
3E4
100
AcDbEntity
  8
0
100
AcDbSpline
 62
7
  6
CONTINUOUS
 70
0
 71
3
 72
9
 73
5
 74
0
 42
0.0000001
 43
0.0000001
 44
0.0000000001
 40
0.0
 40
0.0
 40
0.0
 40
0.0
 40
0.235407718
 40
1.0
 40
1.0
 40
1.0
 40
1.0
 10
671.3742008401
 20
127.9974927649
 30
0.0
 10
671.3292328688
 20
128.0830798108
 30
0.0
 10
671.1437154187
 20
128.4495483828
 30
0.0
 10
670.9747197278
 20
128.8240886699
 30
0.0
 10
670.8483832087
 20
129.1115690312
 30
0.0
  0
SPLINE
  5
3E5
100
AcDbEntity
  8
0
100
AcDbSpline
 62
7
  6
CONTINUOUS
 70
0
 71
3
 72
9
 73
5
 74
0
 42
0.0000001
 43
0.0000001
 44
0.0000000001
 40
0.0
 40
0.0
 40
0.0
 40
0.0
 40
0.2228549253
 40
1.0
 40
1.0
 40
1.0
 40
1.0
 10
673.2006445864
 20
126.718222074
 30
0.0
 10
673.0984627997
 20
126.718222074
 30
0.0
 10
672.6381866242
 20
126.7790428769
 30
0.0
 10
672.2423955613
 20
127.067527891
 30
0.0
 10
671.9830154223
 20
127.3118505824
 30
0.0
  0
SPLINE
  5
3E6
100
AcDbEntity
  8
0
100
AcDbSpline
 62
7
  6
CONTINUOUS
 70
0
 71
3
 72
9
 73
5
 74
0
 42
0.0000001
 43
0.0000001
 44
0.0000000001
 40
0.0
 40
0.0
 40
0.0
 40
0.0
 40
0.233846505
 40
1.0
 40
1.0
 40
1.0
 40
1.0
 10
671.9830154223
 20
127.3118505824
 30
0.0
 10
671.9309564159
 20
127.3608874771
 30
0.0
 10
671.7141639097
 20
127.5767820021
 30
0.0
 10
671.5176477032
 20
127.8122204252
 30
0.0
 10
671.3742008401
 20
127.9974927649
 30
0.0
  0
SPLINE
  5
3E7
100
AcDbEntity
  8
0
100
AcDbSpline
 62
7
  6
CONTINUOUS
 70
0
 71
3
 72
9
 73
5
 74
0
 42
0.0000001
 43
0.0000001
 44
0.0000000001
 40
0.0
 40
0.0
 40
0.0
 40
0.0
 40
0.2655836724
 40
1.0
 40
1.0
 40
1.0
 40
1.0
 10
94.6885406791
 20
127.9974927649
 30
0.0
 10
94.6388209188
 20
127.9332759802
 30
0.0
 10
94.4483508797
 20
127.6941350154
 30
0.0
 10
94.2432042421
 20
127.4658385499
 30
0.0
 10
94.079726097
 20
127.3118505824
 30
0.0
  0
SPLINE
  5
3E8
100
AcDbEntity
  8
0
100
AcDbSpline
 62
7
  6
CONTINUOUS
 70
0
 71
3
 72
8
 73
4
 74
0
 42
0.0000001
 43
0.0000001
 44
0.0000000001
 40
0.0
 40
0.0
 40
0.0
 40
0.0
 40
1.0
 40
1.0
 40
1.0
 40
1.0
 10
94.079726097
 20
127.3118505824
 30
0.0
 10
93.9646546522
 20
127.203459226
 30
0.0
 10
93.8425632752
 20
127.1014735769
 30
0.0
 10
93.7119080749
 20
127.012482891
 30
0.0
  0
SPLINE
  5
3E9
100
AcDbEntity
  8
0
100
AcDbSpline
 62
7
  6
CONTINUOUS
 70
0
 71
3
 72
9
 73
5
 74
0
 42
0.0000001
 43
0.0000001
 44
0.0000000001
 40
0.0
 40
0.0
 40
0.0
 40
0.0
 40
0.2733173187
 40
1.0
 40
1.0
 40
1.0
 40
1.0
 10
93.7119080749
 20
127.012482891
 30
0.0
 10
93.6436425149
 20
126.9659864715
 30
0.0
 10
93.3863389676
 20
126.8085950446
 30
0.0
 10
93.0816991986
 20
126.718222074
 30
0.0
 10
92.8620969328
 20
126.718222074
 30
0.0
  0
SPLINE
  5
3EA
100
AcDbEntity
  8
0
100
AcDbSpline
 62
7
  6
CONTINUOUS
 70
0
 71
3
 72
8
 73
4
 74
0
 42
0.0000001
 43
0.0000001
 44
0.0000000001
 40
0.0
 40
0.0
 40
0.0
 40
0.0
 40
1.0
 40
1.0
 40
1.0
 40
1.0
 10
95.4772671262
 20
920.718222074
 30
0.0
 10
95.2746364751
 20
920.8487955824
 30
0.0
 10
95.0719895951
 20
920.9793575206
 30
0.0
 10
94.8706140834
 20
921.111858559
 30
0.0
  0
SPLINE
  5
3EB
100
AcDbEntity
  8
0
100
AcDbSpline
 62
7
  6
CONTINUOUS
 70
0
 71
3
 72
8
 73
4
 74
0
 42
0.0000001
 43
0.0000001
 44
0.0000000001
 40
0.0
 40
0.0
 40
0.0
 40
0.0
 40
1.0
 40
1.0
 40
1.0
 40
1.0
 10
94.8706140834
 20
921.111858559
 30
0.0
 10
94.6750572115
 20
921.2405310494
 30
0.0
 10
94.4806394705
 20
921.3710175533
 30
0.0
 10
94.2890281336
 20
921.5054950439
 30
0.0
  0
SPLINE
  5
3EC
100
AcDbEntity
  8
0
100
AcDbSpline
 62
7
  6
CONTINUOUS
 70
0
 71
3
 72
8
 73
4
 74
0
 42
0.0000001
 43
0.0000001
 44
0.0000000001
 40
0.0
 40
0.0
 40
0.0
 40
0.0
 40
1.0
 40
1.0
 40
1.0
 40
1.0
 10
94.2890281336
 20
921.5054950439
 30
0.0
 10
94.1083540489
 20
921.6322965053
 30
0.0
 10
93.9300223874
 20
921.7626586767
 30
0.0
 10
93.7565378172
 20
921.8991315289
 30
0.0
  0
SPLINE
  5
3ED
100
AcDbEntity
  8
0
100
AcDbSpline
 62
7
  6
CONTINUOUS
 70
0
 71
3
 72
9
 73
5
 74
0
 42
0.0000001
 43
0.0000001
 44
0.0000000001
 40
0.0
 40
0.0
 40
0.0
 40
0.0
 40
0.2381409915
 40
1.0
 40
1.0
 40
1.0
 40
1.0
 10
93.7565378172
 20
128.5373126192
 30
0.0
 10
93.8416644847
 20
128.60427811
 30
0.0
 10
94.2041384981
 20
128.8791292364
 30
0.0
 10
94.5811511398
 20
129.1341247896
 30
0.0
 10
94.8706140834
 20
129.3245855891
 30
0.0
  0
SPLINE
  5
3EE
100
AcDbEntity
  8
0
100
AcDbSpline
 62
7
  6
CONTINUOUS
 70
0
 71
3
 72
8
 73
4
 74
0
 42
0.0000001
 43
0.0000001
 44
0.0000000001
 40
0.0
 40
0.0
 40
0.0
 40
0.0
 40
1.0
 40
1.0
 40
1.0
 40
1.0
 10
94.8706140834
 20
129.3245855891
 30
0.0
 10
95.0719895945
 20
129.4570866283
 30
0.0
 10
95.2746364734
 20
129.5876485683
 30
0.0
 10
95.4772671262
 20
129.718222074
 30
0.0
  0
SPLINE
  5
3EF
100
AcDbEntity
  8
0
100
AcDbSpline
 62
7
  6
CONTINUOUS
 70
0
 71
3
 72
9
 73
5
 74
0
 42
0.0000001
 43
0.0000001
 44
0.0000000001
 40
0.0
 40
0.0
 40
0.0
 40
0.0
 40
0.2381409915
 40
1.0
 40
1.0
 40
1.0
 40
1.0
 10
672.3062037021
 20
921.8991315289
 30
0.0
 10
672.2210770345
 20
921.8321660381
 30
0.0
 10
671.8586030211
 20
921.5573149117
 30
0.0
 10
671.4815903795
 20
921.3023193584
 30
0.0
 10
671.1921274358
 20
921.111858559
 30
0.0
  0
SPLINE
  5
3F0
100
AcDbEntity
  8
0
100
AcDbSpline
 62
7
  6
CONTINUOUS
 70
0
 71
3
 72
8
 73
4
 74
0
 42
0.0000001
 43
0.0000001
 44
0.0000000001
 40
0.0
 40
0.0
 40
0.0
 40
0.0
 40
1.0
 40
1.0
 40
1.0
 40
1.0
 10
671.1921274358
 20
921.111858559
 30
0.0
 10
670.9907519247
 20
920.9793575198
 30
0.0
 10
670.7881050457
 20
920.8487955799
 30
0.0
 10
670.585474393
 20
920.718222074
 30
0.0
  0
ELLIPSE
  5
3F1
100
AcDbEntity
  8
0
100
AcDbEllipse
 62
7
  6
CONTINUOUS
 10
126.78453046
 20
524.763031253
 30
0.0
 11
-0.3000456984
 21
0.0
 31
0.0
 40
0.9998476952
 41
8.1214237599
 42
9.4247779608
  0
ELLIPSE
  5
3F2
100
AcDbEntity
  8
0
100
AcDbEllipse
 62
7
  6
CONTINUOUS
 10
126.78453046
 20
525.6734128951
 30
0.0
 11
0.3000456984
 21
0.0
 31
0.0
 40
0.9998476952
 41
6.2831853072
 42
7.5818015991
  0
ELLIPSE
  5
3F3
100
AcDbEntity
  8
0
100
AcDbEllipse
 62
7
  6
CONTINUOUS
 10
142.3139610655
 20
525.6734128951
 30
0.0
 11
0.3000456984
 21
-0.0
 31
0.0
 40
0.9998476952
 41
1.9491929325
 42
3.1415926536
  0
ELLIPSE
  5
3F4
100
AcDbEntity
  8
0
100
AcDbEllipse
 62
7
  6
CONTINUOUS
 10
142.3139610655
 20
524.763031253
 30
0.0
 11
0.3000456984
 21
-0.0
 31
0.0
 40
0.9998476952
 41
3.1415926536
 42
4.3387835021
  0
ENDSEC
  0
SECTION
  2
OBJECTS
  0
DICTIONARY
  5
C
100
AcDbDictionary
280
0
281
1
  3
ACAD_GROUP
350
D
  3
ACAD_MLINESTYLE
350
17
  3
ACAD_LAYOUT
350
1A
  3
ACAD_PLOTSETTINGS
350
19
  3
ACAD_PLOTSTYLENAME
350
E
  0
DICTIONARY
  5
D
102
{ACAD_REACTORS
330
C
102
}
100
AcDbDictionary
280
0
281
1
  0
ACDBDICTIONARYWDFLT
  5
E
102
{ACAD_REACTORS
330
C
102
}
100
AcDbDictionary
281
1
  3
Normal
350
F
100
AcDbDictionaryWithDefault
340
F
  0
DICTIONARY
  5
17
102
{ACAD_REACTORS
330
C
102
}
100
AcDbDictionary
280
0
281
1
  3
Standard
350
18
  0
DICTIONARY
  5
19
102
{ACAD_REACTORS
330
C
102
}
100
AcDbDictionary
281
1
  0
DICTIONARY
  5
1A
102
{ACAD_REACTORS
330
C
102
}
100
AcDbDictionary
281
1
  3
Model
350
3F5
  3
Layout1
350
3F6
  0
ACDBPLACEHOLDER
  5
F
102
{ACAD_REACTORS
330
E
102
}
  0
MLINESTYLE
  5
18
102
{ACAD_REACTORS
330
17
102
}
100
AcDbMlineStyle
  2
STANDARD
 70
0
  3

 62
256
 51
90.0
 52
90.0
 71
2
 49
0.5
 62
256
  6
BYLAYER
 49
-0.5
 62
256
  6
BYLAYER
  0
LAYOUT
  5
3F5
102
{ACAD_REACTORS
330
1A
102
}
100
AcDbPlotSettings
  1

  2
none_device
  4

  6

 40
0.0
 41
0.0
 42
0.0
 43
0.0
 44
210.0
 45
297.0
 46
0.0
 47
0.0
 48
0.0
 49
0.0
140
0.0
141
0.0
142
1.0
143
1.0
 70
1024
 72
1
 73
0
 74
0
  7

 75
0
147
1.0
148
0.0
149
0.0
100
AcDbLayout
  1
Model
 70
0
 71
0
 10
0.0
 20
0.0
 11
210.0
 21
297.0
 12
0.0
 22
0.0
 32
0.0
 14
0.0
 24
0.0
 34
0.0
 15
0.0
 25
0.0
 35
0.0
146
0.0
 13
0.0
 23
0.0
 33
0.0
 16
1.0
 26
0.0
 36
0.0
 17
0.0
 27
1.0
 37
0.0
 76
0
330
210
345
0
346
0
  0
LAYOUT
  5
3F6
102
{ACAD_REACTORS
330
1A
102
}
100
AcDbPlotSettings
  1

  2
none_device
  4

  6

 40
0.0
 41
0.0
 42
0.0
 43
0.0
 44
210.0
 45
297.0
 46
0.0
 47
0.0
 48
0.0
 49
0.0
140
0.0
141
0.0
142
1.0
143
1.0
 70
0
 72
1
 73
0
 74
0
  7

 75
0
147
1.0
148
0.0
149
0.0
100
AcDbLayout
  1
Layout1
 70
0
 71
1
 10
0.0
 20
0.0
 11
210.0
 21
297.0
 12
0.0
 22
0.0
 32
0.0
 14
0.0
 24
0.0
 34
0.0
 15
0.0
 25
0.0
 35
0.0
146
0.0
 13
0.0
 23
0.0
 33
0.0
 16
1.0
 26
0.0
 36
0.0
 17
0.0
 27
1.0
 37
0.0
 76
0
330
211
345
0
346
0
  0
ENDSEC
  0
EOF
