999
DXF file: C:\Users\sesa63760\Dev\_Creo\CAD\MCADID0004243_3D-CAD\drw0001_4.dxf
999
Pro/ENGINEER 2019471 by Parametric Technology Corporation
  0
SECTION
  2
HEADER
  9
$ACADVER
  1
AC1024
  9
$DWGCODEPAGE
  3
ANSI_1252
  9
$EXTMAX
 10
826.2855763518
 20
1168.6038865547
 30
0.0
  9
$EXTMIN
 10
0.0
 20
0.0
 30
0.0
  9
$LIMMIN
 10
0.0
 20
0.0
  9
$LIMMAX
 10
826.2855763518
 20
1168.6038865547
  9
$VIEWCTR
 10
413.1427881759
 20
584.3019432774
  9
$VIEWSIZE
 40
1168.6038865547
  9
$CLAYER
  8
0
  9
$LTSCALE
 40
76.1756607532
  9
$CELTYPE
  6
BYLAYER
  9
$DIMSCALE
 40
1.0
  9
$DIMASZ
 40
9.8367330518
  9
$DIMEXO
 40
1.0
  9
$DIMDLI
 40
52.6304565204
  9
$DIMEXE
 40
1.0
  9
$DIMCEN
 40
12.4651081233
  9
$DIMLFAC
 40
1.0
  9
$DIMBLK
  1
_FILLED
  9
$DIMALT
 70
0
  9
$DIMALTF
 40
0.0393700787
  9
$DIMTXT
 40
13.7714262725
  9
$DIMTOL
 70
1
  9
$DIMLIM
 70
0
  9
$DIMTFAC
 40
1.0
  9
$DIMTP
 40
0.01
  9
$DIMTM
 40
0.01
  9
$DIMGAP
 40
0.625
  9
$DIMDSEP
 70
46
  9
$AUNITS
 70
0
  9
$PDMODE
 70
3
  9
$PDSIZE
 40
0.3125
  9
$HANDSEED
  5
3FF
  9
$TILEMODE
 70
1
  9
$MEASUREMENT
 70
1
  9
$INSUNITS
 70
4
  0
ENDSEC
  0
SECTION
  2
CLASSES
  0
CLASS
  1
ACDBDICTIONARYWDFLT
  2
AcDbDictionaryWithDefault
  3
AutoCAD 2000
 90
0
 91
1
280
0
281
0
  0
CLASS
  1
ACDBPLACEHOLDER
  2
AcDbPlaceHolder
  3
AutoCAD 2000
 90
0
 91
1
280
0
281
0
  0
CLASS
  1
LAYOUT
  2
AcDbLayout
  3
AutoCAD 2000
 90
0
 91
0
280
0
281
0
  0
ENDSEC
  0
SECTION
  2
TABLES
  0
TABLE
  2
VPORT
  5
8
100
AcDbSymbolTable
 70
2
  0
VPORT
  5
1F4
100
AcDbSymbolTableRecord
100
AcDbViewportTableRecord
  2
*ACTIVE
 70
0
 10
0.0
 20
0.0
 11
1.0
 21
1.0
 12
413.1427881759
 22
584.3019432774
 13
0.0
 23
0.0
 14
1.0
 24
1.0
 15
0.0
 25
0.0
 16
0.0
 26
0.0
 36
1.0
 17
0.0
 27
0.0
 37
0.0
 40
1168.6038865547
 41
0.7070707071
 42
50.0
 43
0.0
 44
0.0
 50
0.0
 51
0.0
 71
0
 72
100
 73
1
 74
1
 75
0
 76
0
 77
0
 78
0
  0
ENDTAB
  0
TABLE
  2
LTYPE
  5
5
100
AcDbSymbolTable
 70
6
  0
LTYPE
  5
14
100
AcDbSymbolTableRecord
100
AcDbLinetypeTableRecord
  2
BYBLOCK
 70
0
  3

 72
65
 73
0
 40
0.0
  0
LTYPE
  5
15
100
AcDbSymbolTableRecord
100
AcDbLinetypeTableRecord
  2
BYLAYER
 70
0
  3

 72
65
 73
0
 40
0.0
  0
LTYPE
  5
16
100
AcDbSymbolTableRecord
100
AcDbLinetypeTableRecord
  2
CONTINUOUS
 70
64
  3
Solid line
 72
65
 73
0
 40
0.0
  0
LTYPE
  5
1F5
100
AcDbSymbolTableRecord
100
AcDbLinetypeTableRecord
  2
CENTER
 70
64
  3
____ _ ____ _ ____ _ ____ _ ____ _ ____ _ ____
 72
65
 73
4
 40
0.6
 49
0.375
 74
0
 49
-0.075
 74
0
 49
0.075
 74
0
 49
-0.075
 74
0
  0
LTYPE
  5
1F6
100
AcDbSymbolTableRecord
100
AcDbLinetypeTableRecord
  2
HIDDEN
 70
64
  3
- - - - - - - - - - - - - - - - - - - -
 72
65
 73
2
 40
0.2
 49
0.1
 74
0
 49
-0.1
 74
0
  0
LTYPE
  5
1F7
100
AcDbSymbolTableRecord
100
AcDbLinetypeTableRecord
  2
PHANTOM
 70
64
  3
_____ _ _ _____ _ _ _____ _ _ _____
 72
65
 73
6
 40
0.8
 49
0.45
 74
0
 49
-0.05
 74
0
 49
0.1
 74
0
 49
-0.05
 74
0
 49
0.1
 74
0
 49
-0.05
 74
0
  0
LTYPE
  5
1F8
100
AcDbSymbolTableRecord
100
AcDbLinetypeTableRecord
  2
DOT
 70
64
  3
. . . . . . . . . . . . . . . . . . . .
 72
65
 73
2
 40
0.2
 49
0.1
 74
0
 49
-0.1
 74
0
  0
LTYPE
  5
1F9
100
AcDbSymbolTableRecord
100
AcDbLinetypeTableRecord
  2
DASHED
 70
64
  3
- - - - - - - - - - - - - - - - - - - -
 72
65
 73
2
 40
0.2
 49
0.1
 74
0
 49
-0.1
 74
0
  0
ENDTAB
  0
TABLE
  2
LAYER
  5
2
100
AcDbSymbolTable
 70
36
  0
LAYER
  5
10
100
AcDbSymbolTableRecord
100
AcDbLayerTableRecord
  2
0
 70
0
 62
7
  6
CONTINUOUS
370
-3
390
F
  0
LAYER
  5
1FA
100
AcDbSymbolTableRecord
100
AcDbLayerTableRecord
  2
DEFAULT_1
 70
0
 62
7
  6
CENTER
370
-3
390
F
  0
LAYER
  5
1FB
100
AcDbSymbolTableRecord
100
AcDbLayerTableRecord
  2
DEFAULT_2
 70
0
 62
7
  6
HIDDEN
370
-3
390
F
  0
LAYER
  5
1FC
100
AcDbSymbolTableRecord
100
AcDbLayerTableRecord
  2
DEFAULT_3
 70
0
 62
7
  6
PHANTOM
370
-3
390
F
  0
LAYER
  5
1FD
100
AcDbSymbolTableRecord
100
AcDbLayerTableRecord
  2
00_COMPONENTS
 70
0
 62
7
  6
CONTINUOUS
370
-3
390
F
  0
LAYER
  5
1FE
100
AcDbSymbolTableRecord
100
AcDbLayerTableRecord
  2
01_1_DEFAULT_DATUMS
 70
0
 62
7
  6
CONTINUOUS
370
-3
390
F
  0
LAYER
  5
1FF
100
AcDbSymbolTableRecord
100
AcDbLayerTableRecord
  2
01_PLANES
 70
0
 62
7
  6
CONTINUOUS
370
-3
390
F
  0
LAYER
  5
200
100
AcDbSymbolTableRecord
100
AcDbLayerTableRecord
  2
02_COORD_SYS
 70
0
 62
7
  6
CONTINUOUS
370
-3
390
F
  0
LAYER
  5
201
100
AcDbSymbolTableRecord
100
AcDbLayerTableRecord
  2
03_AXES
 70
0
 62
7
  6
CONTINUOUS
370
-3
390
F
  0
LAYER
  5
202
100
AcDbSymbolTableRecord
100
AcDbLayerTableRecord
  2
04_POINTS
 70
0
 62
7
  6
CONTINUOUS
370
-3
390
F
  0
LAYER
  5
203
100
AcDbSymbolTableRecord
100
AcDbLayerTableRecord
  2
05_CURVES
 70
0
 62
7
  6
CONTINUOUS
370
-3
390
F
  0
LAYER
  5
204
100
AcDbSymbolTableRecord
100
AcDbLayerTableRecord
  2
06_SURFS
 70
0
 62
7
  6
CONTINUOUS
370
-3
390
F
  0
LAYER
  5
205
100
AcDbSymbolTableRecord
100
AcDbLayerTableRecord
  2
07_COSMETICS
 70
0
 62
7
  6
CONTINUOUS
370
-3
390
F
  0
LAYER
  5
206
100
AcDbSymbolTableRecord
100
AcDbLayerTableRecord
  2
10_NOTES
 70
0
 62
7
  6
CONTINUOUS
370
-3
390
F
  0
LAYER
  5
207
100
AcDbSymbolTableRecord
100
AcDbLayerTableRecord
  2
11_NOTES_PUB
 70
0
 62
7
  6
CONTINUOUS
370
-3
390
F
  0
LAYER
  5
208
100
AcDbSymbolTableRecord
100
AcDbLayerTableRecord
  2
13_REF_GTOL
 70
0
 62
7
  6
CONTINUOUS
370
-3
390
F
  0
LAYER
  5
209
100
AcDbSymbolTableRecord
100
AcDbLayerTableRecord
  2
16_MISC
 70
0
 62
7
  6
CONTINUOUS
370
-3
390
F
  0
LAYER
  5
20A
100
AcDbSymbolTableRecord
100
AcDbLayerTableRecord
  2
17_NO_PRINT
 70
0
 62
7
  6
CONTINUOUS
370
-3
390
F
  0
LAYER
  5
20B
100
AcDbSymbolTableRecord
100
AcDbLayerTableRecord
  2
18_DATUM_CAMS_JOINTS
 70
0
 62
7
  6
CONTINUOUS
370
-3
390
F
  0
LAYER
  5
20C
100
AcDbSymbolTableRecord
100
AcDbLayerTableRecord
  2
19_DATUM_FUNCTIONAL
 70
0
 62
7
  6
CONTINUOUS
370
-3
390
F
  0
LAYER
  5
20D
100
AcDbSymbolTableRecord
100
AcDbLayerTableRecord
  2
20_DATUM_KINEMATIC_SCHEME
 70
0
 62
7
  6
CONTINUOUS
370
-3
390
F
  0
LAYER
  5
20E
100
AcDbSymbolTableRecord
100
AcDbLayerTableRecord
  2
3
 70
0
 62
7
  6
CONTINUOUS
370
-3
390
F
  0
LAYER
  5
20F
100
AcDbSymbolTableRecord
100
AcDbLayerTableRecord
  2
4
 70
0
 62
7
  6
CONTINUOUS
370
-3
390
F
  0
ENDTAB
  0
TABLE
  2
STYLE
  5
3
100
AcDbSymbolTable
 70
1
  0
STYLE
  5
11
100
AcDbSymbolTableRecord
100
AcDbTextStyleTableRecord
  2
STANDARD
 70
0
 40
0.0
 41
1.0
 50
0.0
 71
0
 42
0.2
  3
ARIAL.TTF
  4

  0
STYLE
  5
210
100
AcDbSymbolTableRecord
100
AcDbTextStyleTableRecord
  2
TEXTSTYLE_1
 70
0
 40
0.0
 41
0.8
 50
0.0
 71
0
 42
0.2
  3
gdt
  4

  0
ENDTAB
  0
TABLE
  2
VIEW
  5
6
100
AcDbSymbolTable
 70
0
  0
ENDTAB
  0
TABLE
  2
UCS
  5
7
100
AcDbSymbolTable
 70
0
  0
ENDTAB
  0
TABLE
  2
APPID
  5
9
100
AcDbSymbolTable
 70
1
  0
APPID
  5
211
100
AcDbSymbolTableRecord
100
AcDbRegAppTableRecord
  2
ACAD
 70
0
  0
ENDTAB
  0
TABLE
  2
BLOCK_RECORD
  5
1
100
AcDbSymbolTable
 70
0
  0
BLOCK_RECORD
  5
212
100
AcDbSymbolTableRecord
100
AcDbBlockTableRecord
  2
*Model_Space
  0
BLOCK_RECORD
  5
213
100
AcDbSymbolTableRecord
100
AcDbBlockTableRecord
  2
*Paper_Space
  0
BLOCK_RECORD
  5
214
100
AcDbSymbolTableRecord
100
AcDbBlockTableRecord
  2
_FILLED
  0
ENDTAB
  0
TABLE
  2
DIMSTYLE
  5
A
100
AcDbSymbolTable
 70
1
100
AcDbDimStyleTable
 71
0
  0
DIMSTYLE
105
215
100
AcDbSymbolTableRecord
100
AcDbDimStyleTableRecord
  2
STANDARD
 70
0
  3

  4

 40
1.0
 41
9.8367330518
 42
1.0
 43
0.38
 44
1.0
 45
0.0
 46
0.0
 47
0.01
 48
0.01
140
13.7714262725
141
0.09
142
0.0
143
25.4
144
1.0
145
0.0
146
1.0
147
0.625
 71
1
 72
0
 73
0
 74
0
 75
0
 76
0
 77
1
 78
8
 79
2
170
0
171
1
172
0
173
0
174
0
175
0
176
0
177
0
178
0
270
2
179
2
271
2
272
2
273
2
274
2
275
0
280
0
281
0
282
0
283
1
284
8
285
0
286
0
287
3
288
0
340
11
278
46
341
214
342
214
343
214
344
214
  0
ENDTAB
  0
ENDSEC
  0
SECTION
  2
BLOCKS
  0
BLOCK
  5
20
100
AcDbEntity
  8
0
100
AcDbBlockBegin
  2
*Model_Space
 70
0
 10
0.0
 20
0.0
 30
0.0
  3
*Model_Space
  1

  0
ENDBLK
  5
21
100
AcDbEntity
  8
0
100
AcDbBlockEnd
  0
BLOCK
  5
1C
100
AcDbEntity
  8
0
100
AcDbBlockBegin
  2
*Paper_Space
 70
0
 10
0.0
 20
0.0
 30
0.0
  3
*Paper_Space
  1

  0
ENDBLK
  5
1D
100
AcDbEntity
  8
0
100
AcDbBlockEnd
  0
BLOCK
  5
216
100
AcDbEntity
  8
0
100
AcDbBlockBegin
  2
_FILLED
 70
64
 10
0.0
 20
0.0
  3
_FILLED
  1

  0
SOLID
  5
217
100
AcDbEntity
  8
0
  6
BYBLOCK
 62
0
100
AcDbTrace
 10
0.0
 20
0.0
 11
-1.0
 21
0.25
 12
-1.0
 22
-0.25
 13
-1.0
 23
-0.25
  0
ENDBLK
  5
218
100
AcDbEntity
  8
0
  6
BYBLOCK
 62
0
100
AcDbBlockEnd
  0
ENDSEC
  0
SECTION
  2
ENTITIES
  0
LINE
  5
219
100
AcDbEntity
  8
0
100
AcDbLine
 62
7
  6
BYLAYER
 10
516.4008147477
 20
83.6760432845
 11
510.8004413805
 21
83.6760432845
  0
LINE
  5
21A
100
AcDbEntity
  8
0
100
AcDbLine
 62
7
  6
BYLAYER
 10
474.4003397107
 20
83.6760432845
 11
468.8009164235
 21
83.6760432845
  0
LINE
  5
21B
100
AcDbEntity
  8
0
100
AcDbLine
 62
7
  6
BYLAYER
 10
368.7516838592
 20
83.6760432845
 11
363.1513104919
 21
83.6760432845
  0
LINE
  5
21C
100
AcDbEntity
  8
0
100
AcDbLine
 62
7
  6
BYLAYER
 10
326.7512088222
 20
83.6760432845
 11
321.1517855349
 21
83.6760432845
  0
LINE
  5
21D
100
AcDbEntity
  8
0
100
AcDbLine
 62
7
  6
BYLAYER
 10
321.4400329648
 20
83.775933146
 11
368.4625862519
 21
83.775933146
  0
LINE
  5
21E
100
AcDbEntity
  8
0
100
AcDbLine
 62
7
  6
BYLAYER
 10
469.0891638534
 20
83.775933146
 11
516.1117171404
 21
83.775933146
  0
LINE
  5
21F
100
AcDbEntity
  8
0
100
AcDbLine
 62
7
  6
BYLAYER
 10
517.4009161738
 20
84.6760432845
 11
517.0793897299
 21
84.6760432845
  0
LINE
  5
220
100
AcDbEntity
  8
0
100
AcDbLine
 62
7
  6
BYLAYER
 10
468.1214927674
 20
84.6760432845
 11
467.8009161768
 21
84.6760432845
  0
LINE
  5
221
100
AcDbEntity
  8
0
100
AcDbLine
 62
7
  6
BYLAYER
 10
369.7517852853
 20
84.6760432845
 11
369.4302588414
 21
84.6760432845
  0
LINE
  5
222
100
AcDbEntity
  8
0
100
AcDbLine
 62
7
  6
BYLAYER
 10
320.4723618789
 20
84.6760432845
 11
320.1517852883
 21
84.6760432845
  0
LINE
  5
223
100
AcDbEntity
  8
0
100
AcDbLine
 62
7
  6
BYLAYER
 10
517.6004411338
 20
84.775933146
 11
517.4009161738
 21
84.775933146
  0
LINE
  5
224
100
AcDbEntity
  8
0
100
AcDbLine
 62
7
  6
BYLAYER
 10
467.8009161768
 20
84.775933146
 11
467.6004411338
 21
84.775933146
  0
LINE
  5
225
100
AcDbEntity
  8
0
100
AcDbLine
 62
7
  6
BYLAYER
 10
517.1118461575
 20
84.775933146
 11
468.0890361101
 21
84.775933146
  0
LINE
  5
226
100
AcDbEntity
  8
0
100
AcDbLine
 62
7
  6
BYLAYER
 10
369.9513102453
 20
84.775933146
 11
369.7517852853
 21
84.775933146
  0
LINE
  5
227
100
AcDbEntity
  8
0
100
AcDbLine
 62
7
  6
BYLAYER
 10
369.462715269
 20
84.775933146
 11
320.4399052216
 21
84.775933146
  0
LINE
  5
228
100
AcDbEntity
  8
0
100
AcDbLine
 62
7
  6
BYLAYER
 10
320.1517852883
 20
84.775933146
 11
319.9513102453
 21
84.775933146
  0
LINE
  5
229
100
AcDbEntity
  8
0
100
AcDbLine
 62
7
  6
BYLAYER
 10
319.9513102453
 20
85.7759330771
 11
320.1517852883
 21
85.7759330771
  0
LINE
  5
22A
100
AcDbEntity
  8
0
100
AcDbLine
 62
7
  6
BYLAYER
 10
369.7517852853
 20
85.7759330889
 11
369.9513102453
 21
85.7759330889
  0
LINE
  5
22B
100
AcDbEntity
  8
0
100
AcDbLine
 62
7
  6
BYLAYER
 10
467.6004411338
 20
85.7759330771
 11
467.8009161768
 21
85.7759330771
  0
LINE
  5
22C
100
AcDbEntity
  8
0
100
AcDbLine
 62
7
  6
BYLAYER
 10
517.4009161738
 20
85.7759330889
 11
517.6004411338
 21
85.7759330889
  0
LINE
  5
22D
100
AcDbEntity
  8
0
100
AcDbLine
 62
7
  6
BYLAYER
 10
320.1517852883
 20
86.2760432845
 11
320.4399052216
 21
86.2760432845
  0
LINE
  5
22E
100
AcDbEntity
  8
0
100
AcDbLine
 62
7
  6
BYLAYER
 10
369.462715269
 20
86.2760432845
 11
369.7517852853
 21
86.2760432845
  0
LINE
  5
22F
100
AcDbEntity
  8
0
100
AcDbLine
 62
7
  6
BYLAYER
 10
467.8009161768
 20
86.2760432845
 11
468.0890361101
 21
86.2760432845
  0
LINE
  5
230
100
AcDbEntity
  8
0
100
AcDbLine
 62
7
  6
BYLAYER
 10
517.1118461575
 20
86.2760432845
 11
517.4009161738
 21
86.2760432845
  0
LINE
  5
231
100
AcDbEntity
  8
0
100
AcDbLine
 62
7
  6
BYLAYER
 10
517.6004411338
 20
86.775933146
 11
517.054132079
 21
86.775933146
  0
LINE
  5
232
100
AcDbEntity
  8
0
100
AcDbLine
 62
7
  6
BYLAYER
 10
468.1467501886
 20
86.775933146
 11
467.6004411338
 21
86.775933146
  0
LINE
  5
233
100
AcDbEntity
  8
0
100
AcDbLine
 62
7
  6
BYLAYER
 10
369.9513102453
 20
86.775933146
 11
369.4050011905
 21
86.775933146
  0
LINE
  5
234
100
AcDbEntity
  8
0
100
AcDbLine
 62
7
  6
BYLAYER
 10
320.4976193001
 20
86.775933146
 11
319.9513102453
 21
86.775933146
  0
LINE
  5
235
100
AcDbEntity
  8
0
100
AcDbLine
 62
7
  6
BYLAYER
 10
319.9513102453
 20
101.275933146
 11
369.9513102453
 21
101.275933146
  0
LINE
  5
236
100
AcDbEntity
  8
0
100
AcDbLine
 62
7
  6
BYLAYER
 10
467.6004411338
 20
101.275933146
 11
517.6004411338
 21
101.275933146
  0
LINE
  5
237
100
AcDbEntity
  8
3
100
AcDbLine
 62
7
  6
BYLAYER
 10
517.6009161769
 20
101.276056093
 11
511.5999355978
 21
101.276056093
  0
LINE
  5
238
100
AcDbEntity
  8
3
100
AcDbLine
 62
7
  6
BYLAYER
 10
473.6018967559
 20
101.276056093
 11
467.6009161769
 21
101.276056093
  0
LINE
  5
239
100
AcDbEntity
  8
3
100
AcDbLine
 62
7
  6
BYLAYER
 10
369.9517852884
 20
101.276056093
 11
363.9508047093
 21
101.276056093
  0
LINE
  5
23A
100
AcDbEntity
  8
3
100
AcDbLine
 62
7
  6
BYLAYER
 10
325.9527658674
 20
101.276056093
 11
319.9517852884
 21
101.276056093
  0
LINE
  5
23B
100
AcDbEntity
  8
3
100
AcDbLine
 62
7
  6
BYLAYER
 10
326.1511461396
 20
101.276056093
 11
363.7511461396
 21
101.276056093
  0
LINE
  5
23C
100
AcDbEntity
  8
3
100
AcDbLine
 62
7
  6
BYLAYER
 10
473.8002770281
 20
101.276056093
 11
511.4002770281
 21
101.276056093
  0
LINE
  5
23D
100
AcDbEntity
  8
4
100
AcDbLine
 62
7
  6
BYLAYER
 10
527.7896618603
 20
128.6242184078
 11
517.6009161769
 21
128.6242184078
  0
LINE
  5
23E
100
AcDbEntity
  8
3
100
AcDbLine
 62
7
  6
BYLAYER
 10
380.1405309718
 20
128.6242184078
 11
369.9517852884
 21
128.6242184078
  0
LINE
  5
23F
100
AcDbEntity
  8
0
100
AcDbLine
 62
7
  6
BYLAYER
 10
328.7020380563
 20
1073.7760432845
 11
328.2020380563
 21
1073.2760432845
  0
LINE
  5
240
100
AcDbEntity
  8
0
100
AcDbLine
 62
7
  6
BYLAYER
 10
348.4520360777
 20
1077.7760432845
 11
347.9520380563
 21
1077.276045443
  0
LINE
  5
241
100
AcDbEntity
  8
0
100
AcDbLine
 62
7
  6
BYLAYER
 10
346.7020380563
 20
1073.7760432845
 11
346.2020380563
 21
1073.2760432845
  0
LINE
  5
242
100
AcDbEntity
  8
3
100
AcDbLine
 62
7
  6
BYLAYER
 10
369.9517852884
 20
178.6242184078
 11
380.1405309718
 21
178.6242184078
  0
LINE
  5
243
100
AcDbEntity
  8
4
100
AcDbLine
 62
7
  6
BYLAYER
 10
517.6009161769
 20
178.6242184078
 11
527.7896618603
 21
178.6242184078
  0
LINE
  5
244
100
AcDbEntity
  8
0
100
AcDbLine
 62
7
  6
BYLAYER
 10
346.7020380563
 20
1068.7760432845
 11
346.2020380563
 21
1068.2760432845
  0
LINE
  5
245
100
AcDbEntity
  8
0
100
AcDbLine
 62
7
  6
BYLAYER
 10
361.5020380563
 20
1067.2760432845
 11
361.7020380563
 21
1067.4760432845
  0
LINE
  5
246
100
AcDbEntity
  8
0
100
AcDbLine
 62
7
  6
BYLAYER
 10
476.3511689448
 20
1073.7760432845
 11
475.8511689448
 21
1073.2760432845
  0
LINE
  5
247
100
AcDbEntity
  8
0
100
AcDbLine
 62
7
  6
BYLAYER
 10
496.1011669662
 20
1077.7760432845
 11
495.6011689448
 21
1077.276045443
  0
LINE
  5
248
100
AcDbEntity
  8
0
100
AcDbLine
 62
7
  6
BYLAYER
 10
494.3511689448
 20
1073.7760432845
 11
493.8511689448
 21
1073.2760432845
  0
LINE
  5
249
100
AcDbEntity
  8
0
100
AcDbLine
 62
7
  6
BYLAYER
 10
494.3511689448
 20
1068.7760432845
 11
493.8511689448
 21
1068.2760432845
  0
LINE
  5
24A
100
AcDbEntity
  8
0
100
AcDbLine
 62
7
  6
BYLAYER
 10
509.1511689448
 20
1067.2760432845
 11
509.3511689448
 21
1067.4760432845
  0
LINE
  5
24B
100
AcDbEntity
  8
0
100
AcDbLine
 62
7
  6
BYLAYER
 10
319.9513102453
 20
84.775933146
 11
319.9513102453
 21
101.275933146
  0
LINE
  5
24C
100
AcDbEntity
  8
3
100
AcDbLine
 62
7
  6
BYLAYER
 10
319.9517852884
 20
1049.776056093
 11
319.9517852884
 21
101.276056093
  0
LINE
  5
24D
100
AcDbEntity
  8
0
100
AcDbLine
 62
7
  6
BYLAYER
 10
319.9520380563
 20
1066.2760432845
 11
319.9520380563
 21
1049.7760432845
  0
LINE
  5
24E
100
AcDbEntity
  8
0
100
AcDbLine
 62
7
  6
BYLAYER
 10
320.1517852883
 20
86.2760432845
 11
320.1517852883
 21
84.6760432845
  0
LINE
  5
24F
100
AcDbEntity
  8
0
100
AcDbLine
 62
7
  6
BYLAYER
 10
320.1520380563
 20
1066.3760432845
 11
320.1520380563
 21
1064.7760432845
  0
LINE
  5
250
100
AcDbEntity
  8
0
100
AcDbLine
 62
7
  6
BYLAYER
 10
320.3360707689
 20
86.775933146
 11
320.3360707689
 21
101.275933146
  0
LINE
  5
251
100
AcDbEntity
  8
3
100
AcDbLine
 62
7
  6
BYLAYER
 10
320.3365458119
 20
101.276056093
 11
320.3365458119
 21
1049.776056093
  0
LINE
  5
252
100
AcDbEntity
  8
0
100
AcDbLine
 62
7
  6
BYLAYER
 10
320.3367985799
 20
1049.7760432845
 11
320.3367985799
 21
1064.2760432845
  0
LINE
  5
253
100
AcDbEntity
  8
0
100
AcDbLine
 62
7
  6
BYLAYER
 10
320.4399052216
 20
86.3912441297
 11
320.4399052216
 21
84.775933146
  0
LINE
  5
254
100
AcDbEntity
  8
0
100
AcDbLine
 62
7
  6
BYLAYER
 10
320.4406330326
 20
1066.2760432845
 11
320.4406330326
 21
1064.6607322839
  0
LINE
  5
255
100
AcDbEntity
  8
0
100
AcDbLine
 62
7
  6
BYLAYER
 10
320.4976193001
 20
84.775933146
 11
320.4976193001
 21
86.775933146
  0
LINE
  5
256
100
AcDbEntity
  8
0
100
AcDbLine
 62
7
  6
BYLAYER
 10
320.4983471111
 20
1064.2760432845
 11
320.4983471111
 21
1066.2760432845
  0
LINE
  5
257
100
AcDbEntity
  8
0
100
AcDbLine
 62
7
  6
BYLAYER
 10
321.5368651755
 20
101.275933146
 11
321.5368651755
 21
84.775933146
  0
LINE
  5
258
100
AcDbEntity
  8
3
100
AcDbLine
 62
7
  6
BYLAYER
 10
321.5373402186
 20
1049.776056093
 11
321.5373402186
 21
101.276056093
  0
LINE
  5
259
100
AcDbEntity
  8
0
100
AcDbLine
 62
7
  6
BYLAYER
 10
321.5375929865
 20
1066.2760432845
 11
321.5375929865
 21
1049.7760432845
  0
LINE
  5
25A
100
AcDbEntity
  8
0
100
AcDbLine
 62
7
  6
BYLAYER
 10
323.4599130708
 20
83.775933146
 11
323.4599130708
 21
101.275933146
  0
LINE
  5
25B
100
AcDbEntity
  8
3
100
AcDbLine
 62
7
  6
BYLAYER
 10
323.4603881139
 20
701.276056093
 11
323.4603881139
 21
1049.776056093
  0
LINE
  5
25C
100
AcDbEntity
  8
0
100
AcDbLine
 62
7
  6
BYLAYER
 10
323.4606408818
 20
1049.7760432845
 11
323.4606408818
 21
1067.2760432845
  0
LINE
  5
25D
100
AcDbEntity
  8
3
100
AcDbLine
 62
7
  6
BYLAYER
 10
323.5885430019
 20
101.276056093
 11
323.5885430019
 21
701.276056093
  0
LINE
  5
25E
100
AcDbEntity
  8
0
100
AcDbLine
 62
7
  6
BYLAYER
 10
323.7152422678
 20
101.275933146
 11
323.7152422678
 21
83.775933146
  0
LINE
  5
25F
100
AcDbEntity
  8
0
100
AcDbLine
 62
7
  6
BYLAYER
 10
323.7159700788
 20
1067.2760432845
 11
323.7159700788
 21
1049.7760432845
  0
LINE
  5
260
100
AcDbEntity
  8
3
100
AcDbLine
 62
7
  6
BYLAYER
 10
323.7166978899
 20
1049.776056093
 11
323.7166978899
 21
701.276056093
  0
LINE
  5
261
100
AcDbEntity
  8
0
100
AcDbLine
 62
7
  6
BYLAYER
 10
325.5040966498
 20
84.775933146
 11
325.5040966498
 21
101.275933146
  0
LINE
  5
262
100
AcDbEntity
  8
0
100
AcDbLine
 62
7
  6
BYLAYER
 10
325.5048244608
 20
1049.7760432845
 11
325.5048244608
 21
1066.2760432845
  0
LINE
  5
263
100
AcDbEntity
  8
3
100
AcDbLine
 62
7
  6
BYLAYER
 10
325.5055522719
 20
101.276056093
 11
325.5055522719
 21
1049.776056093
  0
LINE
  5
264
100
AcDbEntity
  8
0
100
AcDbLine
 62
7
  6
BYLAYER
 10
325.8985238408
 20
101.275933146
 11
325.8985238408
 21
84.775933146
  0
LINE
  5
265
100
AcDbEntity
  8
0
100
AcDbLine
 62
7
  6
BYLAYER
 10
325.8992516518
 20
1066.2760432845
 11
325.8992516518
 21
1049.7760432845
  0
LINE
  5
266
100
AcDbEntity
  8
3
100
AcDbLine
 62
7
  6
BYLAYER
 10
325.8999794629
 20
1049.776056093
 11
325.8999794629
 21
101.276056093
  0
LINE
  5
267
100
AcDbEntity
  8
0
100
AcDbLine
 62
7
  6
BYLAYER
 10
325.9513102453
 20
84.775933146
 11
325.9513102453
 21
101.275933146
  0
LINE
  5
268
100
AcDbEntity
  8
0
100
AcDbLine
 62
7
  6
BYLAYER
 10
325.9520380563
 20
1049.7760432845
 11
325.9520380563
 21
1066.2760432845
  0
LINE
  5
269
100
AcDbEntity
  8
3
100
AcDbLine
 62
7
  6
BYLAYER
 10
325.9527658674
 20
101.276056093
 11
325.9527658674
 21
1049.776056093
  0
LINE
  5
26A
100
AcDbEntity
  8
3
100
AcDbLine
 62
7
  6
BYLAYER
 10
326.1511461396
 20
101.276056093
 11
326.1511461396
 21
1049.7760725521
  0
LINE
  5
26B
100
AcDbEntity
  8
0
100
AcDbLine
 62
7
  6
BYLAYER
 10
328.2020380563
 20
1067.2760432845
 11
328.2020380563
 21
1073.2760432845
  0
LINE
  5
26C
100
AcDbEntity
  8
0
100
AcDbLine
 62
7
  6
BYLAYER
 10
331.8252780563
 20
1074.9760432845
 11
331.8252780563
 21
1073.7760432845
  0
LINE
  5
26D
100
AcDbEntity
  8
0
100
AcDbLine
 62
7
  6
BYLAYER
 10
335.2502780563
 20
1073.7760432845
 11
335.2502780563
 21
1075.2760432845
  0
LINE
  5
26E
100
AcDbEntity
  8
0
100
AcDbLine
 62
7
  6
BYLAYER
 10
336.6502780563
 20
1073.7760432845
 11
336.6502780563
 21
1075.2760432845
  0
LINE
  5
26F
100
AcDbEntity
  8
0
100
AcDbLine
 62
7
  6
BYLAYER
 10
340.0752780563
 20
1073.7760432845
 11
340.0752780563
 21
1074.9760432845
  0
LINE
  5
270
100
AcDbEntity
  8
0
100
AcDbLine
 62
7
  6
BYLAYER
 10
343.7020380563
 20
1067.2760432845
 11
343.7020380563
 21
1073.2760432845
  0
LINE
  5
271
100
AcDbEntity
  8
0
100
AcDbLine
 62
7
  6
BYLAYER
 10
346.2020380563
 20
1067.2760432845
 11
346.2020380563
 21
1073.2760432845
  0
LINE
  5
272
100
AcDbEntity
  8
0
100
AcDbLine
 62
7
  6
BYLAYER
 10
347.9520380563
 20
1077.2760423471
 11
347.9520380563
 21
1069.7760432845
  0
LINE
  5
273
100
AcDbEntity
  8
0
100
AcDbLine
 62
7
  6
BYLAYER
 10
348.4520380563
 20
1068.7760432845
 11
348.4520380563
 21
1069.7760432845
  0
LINE
  5
274
100
AcDbEntity
  8
0
100
AcDbLine
 62
7
  6
BYLAYER
 10
359.4520380563
 20
1068.7760432845
 11
359.4520380563
 21
1069.7760432845
  0
LINE
  5
275
100
AcDbEntity
  8
0
100
AcDbLine
 62
7
  6
BYLAYER
 10
359.9520380563
 20
1069.7760432845
 11
359.9520380563
 21
1077.2760423471
  0
LINE
  5
276
100
AcDbEntity
  8
0
100
AcDbLine
 62
7
  6
BYLAYER
 10
361.7020380563
 20
1067.2760432845
 11
361.7020380563
 21
1073.2760432845
  0
LINE
  5
277
100
AcDbEntity
  8
3
100
AcDbLine
 62
7
  6
BYLAYER
 10
363.7511461396
 20
1049.7760725521
 11
363.7511461396
 21
101.276056093
  0
LINE
  5
278
100
AcDbEntity
  8
3
100
AcDbLine
 62
7
  6
BYLAYER
 10
363.9508047093
 20
1049.776056093
 11
363.9508047093
 21
101.276056093
  0
LINE
  5
279
100
AcDbEntity
  8
0
100
AcDbLine
 62
7
  6
BYLAYER
 10
363.9513102453
 20
101.275933146
 11
363.9513102453
 21
84.775933146
  0
LINE
  5
27A
100
AcDbEntity
  8
0
100
AcDbLine
 62
7
  6
BYLAYER
 10
363.9520380563
 20
1066.2760432845
 11
363.9520380563
 21
1049.7760432845
  0
LINE
  5
27B
100
AcDbEntity
  8
3
100
AcDbLine
 62
7
  6
BYLAYER
 10
364.0035911138
 20
101.276056093
 11
364.0035911138
 21
1049.776056093
  0
LINE
  5
27C
100
AcDbEntity
  8
0
100
AcDbLine
 62
7
  6
BYLAYER
 10
364.0040966498
 20
84.775933146
 11
364.0040966498
 21
101.275933146
  0
LINE
  5
27D
100
AcDbEntity
  8
0
100
AcDbLine
 62
7
  6
BYLAYER
 10
364.0048244608
 20
1049.7760432845
 11
364.0048244608
 21
1066.2760432845
  0
LINE
  5
27E
100
AcDbEntity
  8
3
100
AcDbLine
 62
7
  6
BYLAYER
 10
364.3980183048
 20
1049.776056093
 11
364.3980183048
 21
101.276056093
  0
LINE
  5
27F
100
AcDbEntity
  8
0
100
AcDbLine
 62
7
  6
BYLAYER
 10
364.3985238408
 20
101.275933146
 11
364.3985238408
 21
84.775933146
  0
LINE
  5
280
100
AcDbEntity
  8
0
100
AcDbLine
 62
7
  6
BYLAYER
 10
364.3992516518
 20
1066.2760432845
 11
364.3992516518
 21
1049.7760432845
  0
LINE
  5
281
100
AcDbEntity
  8
3
100
AcDbLine
 62
7
  6
BYLAYER
 10
366.1868726868
 20
701.276056093
 11
366.1868726868
 21
1049.776056093
  0
LINE
  5
282
100
AcDbEntity
  8
0
100
AcDbLine
 62
7
  6
BYLAYER
 10
366.1873782228
 20
83.775933146
 11
366.1873782228
 21
101.275933146
  0
LINE
  5
283
100
AcDbEntity
  8
0
100
AcDbLine
 62
7
  6
BYLAYER
 10
366.1881060338
 20
1049.7760432845
 11
366.1881060338
 21
1067.2760432845
  0
LINE
  5
284
100
AcDbEntity
  8
3
100
AcDbLine
 62
7
  6
BYLAYER
 10
366.3150275748
 20
101.276056093
 11
366.3150275748
 21
701.276056093
  0
LINE
  5
285
100
AcDbEntity
  8
0
100
AcDbLine
 62
7
  6
BYLAYER
 10
366.4427074198
 20
101.275933146
 11
366.4427074198
 21
83.775933146
  0
LINE
  5
286
100
AcDbEntity
  8
3
100
AcDbLine
 62
7
  6
BYLAYER
 10
366.4431824628
 20
1049.776056093
 11
366.4431824628
 21
701.276056093
  0
LINE
  5
287
100
AcDbEntity
  8
0
100
AcDbLine
 62
7
  6
BYLAYER
 10
366.4434352308
 20
1067.2760432845
 11
366.4434352308
 21
1049.7760432845
  0
LINE
  5
288
100
AcDbEntity
  8
0
100
AcDbLine
 62
7
  6
BYLAYER
 10
368.3657553151
 20
84.775933146
 11
368.3657553151
 21
101.275933146
  0
LINE
  5
289
100
AcDbEntity
  8
3
100
AcDbLine
 62
7
  6
BYLAYER
 10
368.366230358
 20
101.276056093
 11
368.366230358
 21
1049.776056093
  0
LINE
  5
28A
100
AcDbEntity
  8
0
100
AcDbLine
 62
7
  6
BYLAYER
 10
368.3664831261
 20
1049.7760432845
 11
368.3664831261
 21
1066.2760432845
  0
LINE
  5
28B
100
AcDbEntity
  8
0
100
AcDbLine
 62
7
  6
BYLAYER
 10
369.4050011905
 20
86.775933146
 11
369.4050011905
 21
84.775933146
  0
LINE
  5
28C
100
AcDbEntity
  8
0
100
AcDbLine
 62
7
  6
BYLAYER
 10
369.4057290015
 20
1066.2760432845
 11
369.4057290015
 21
1064.2760432845
  0
LINE
  5
28D
100
AcDbEntity
  8
0
100
AcDbLine
 62
7
  6
BYLAYER
 10
369.462715269
 20
84.775933146
 11
369.462715269
 21
86.3912441466
  0
LINE
  5
28E
100
AcDbEntity
  8
0
100
AcDbLine
 62
7
  6
BYLAYER
 10
369.46344308
 20
1064.6607323009
 11
369.46344308
 21
1066.2760432845
  0
LINE
  5
28F
100
AcDbEntity
  8
0
100
AcDbLine
 62
7
  6
BYLAYER
 10
369.5665497217
 20
101.275933146
 11
369.5665497217
 21
86.775933146
  0
LINE
  5
290
100
AcDbEntity
  8
3
100
AcDbLine
 62
7
  6
BYLAYER
 10
369.5670247648
 20
1049.776056093
 11
369.5670247648
 21
101.276056093
  0
LINE
  5
291
100
AcDbEntity
  8
0
100
AcDbLine
 62
7
  6
BYLAYER
 10
369.5672775327
 20
1064.2760432845
 11
369.5672775327
 21
1049.7760432845
  0
LINE
  5
292
100
AcDbEntity
  8
0
100
AcDbLine
 62
7
  6
BYLAYER
 10
369.7517852853
 20
84.6760432845
 11
369.7517852853
 21
86.2760432845
  0
LINE
  5
293
100
AcDbEntity
  8
0
100
AcDbLine
 62
7
  6
BYLAYER
 10
369.7520380563
 20
1064.7760432845
 11
369.7520380563
 21
1066.3760432845
  0
LINE
  5
294
100
AcDbEntity
  8
0
100
AcDbLine
 62
7
  6
BYLAYER
 10
369.9513102453
 20
84.775933146
 11
369.9513102453
 21
86.7622183471
  0
LINE
  5
295
100
AcDbEntity
  8
0
100
AcDbLine
 62
7
  6
BYLAYER
 10
369.9513102453
 20
86.775933146
 11
369.9513102453
 21
101.275933146
  0
LINE
  5
296
100
AcDbEntity
  8
3
100
AcDbLine
 62
7
  6
BYLAYER
 10
369.9517852884
 20
101.276056093
 11
369.9517852884
 21
1049.776056093
  0
LINE
  5
297
100
AcDbEntity
  8
0
100
AcDbLine
 62
7
  6
BYLAYER
 10
369.9520380563
 20
1049.7760432845
 11
369.9520380563
 21
1066.2760432845
  0
LINE
  5
298
100
AcDbEntity
  8
3
100
AcDbLine
 62
7
  6
BYLAYER
 10
373.1405309718
 20
1024.9591208686
 11
373.1405309718
 21
974.9591208686
  0
LINE
  5
299
100
AcDbEntity
  8
3
100
AcDbLine
 62
7
  6
BYLAYER
 10
373.1405309718
 20
178.6242184078
 11
373.1405309718
 21
128.6242184078
  0
LINE
  5
29A
100
AcDbEntity
  8
3
100
AcDbLine
 62
7
  6
BYLAYER
 10
380.1405309718
 20
128.6242184078
 11
380.1405309718
 21
178.6242184078
  0
LINE
  5
29B
100
AcDbEntity
  8
3
100
AcDbLine
 62
7
  6
BYLAYER
 10
380.1405309718
 20
974.9591208686
 11
380.1405309718
 21
1024.9591208686
  0
LINE
  5
29C
100
AcDbEntity
  8
0
100
AcDbLine
 62
7
  6
BYLAYER
 10
467.6004411338
 20
84.775933146
 11
467.6004411338
 21
101.275933146
  0
LINE
  5
29D
100
AcDbEntity
  8
3
100
AcDbLine
 62
7
  6
BYLAYER
 10
467.6009161769
 20
1049.776056093
 11
467.6009161769
 21
101.276056093
  0
LINE
  5
29E
100
AcDbEntity
  8
0
100
AcDbLine
 62
7
  6
BYLAYER
 10
467.6011689448
 20
1064.2760432845
 11
467.6011689448
 21
1049.7760432845
  0
LINE
  5
29F
100
AcDbEntity
  8
0
100
AcDbLine
 62
7
  6
BYLAYER
 10
467.6011689448
 20
1066.2760432845
 11
467.6011689448
 21
1064.2897760454
  0
LINE
  5
2A0
100
AcDbEntity
  8
0
100
AcDbLine
 62
7
  6
BYLAYER
 10
467.8009161768
 20
86.2760432845
 11
467.8009161768
 21
84.6760432845
  0
LINE
  5
2A1
100
AcDbEntity
  8
0
100
AcDbLine
 62
7
  6
BYLAYER
 10
467.8011689448
 20
1066.3760432845
 11
467.8011689448
 21
1064.7760432845
  0
LINE
  5
2A2
100
AcDbEntity
  8
0
100
AcDbLine
 62
7
  6
BYLAYER
 10
467.9852016574
 20
86.775933146
 11
467.9852016574
 21
101.275933146
  0
LINE
  5
2A3
100
AcDbEntity
  8
3
100
AcDbLine
 62
7
  6
BYLAYER
 10
467.9856767005
 20
101.276056093
 11
467.9856767005
 21
1049.776056093
  0
LINE
  5
2A4
100
AcDbEntity
  8
0
100
AcDbLine
 62
7
  6
BYLAYER
 10
467.9859294684
 20
1049.7760432845
 11
467.9859294684
 21
1064.2760432845
  0
LINE
  5
2A5
100
AcDbEntity
  8
0
100
AcDbLine
 62
7
  6
BYLAYER
 10
468.0890361101
 20
86.3912441297
 11
468.0890361101
 21
84.775933146
  0
LINE
  5
2A6
100
AcDbEntity
  8
0
100
AcDbLine
 62
7
  6
BYLAYER
 10
468.0897639211
 20
1066.2760432845
 11
468.0897639211
 21
1064.6607322839
  0
LINE
  5
2A7
100
AcDbEntity
  8
0
100
AcDbLine
 62
7
  6
BYLAYER
 10
468.1467501886
 20
84.775933146
 11
468.1467501886
 21
86.775933146
  0
LINE
  5
2A8
100
AcDbEntity
  8
0
100
AcDbLine
 62
7
  6
BYLAYER
 10
468.1474779997
 20
1064.2760432845
 11
468.1474779997
 21
1066.2760432845
  0
LINE
  5
2A9
100
AcDbEntity
  8
0
100
AcDbLine
 62
7
  6
BYLAYER
 10
469.185996064
 20
101.275933146
 11
469.185996064
 21
84.775933146
  0
LINE
  5
2AA
100
AcDbEntity
  8
3
100
AcDbLine
 62
7
  6
BYLAYER
 10
469.1864711071
 20
1049.776056093
 11
469.1864711071
 21
101.276056093
  0
LINE
  5
2AB
100
AcDbEntity
  8
0
100
AcDbLine
 62
7
  6
BYLAYER
 10
469.1867238751
 20
1066.2760432845
 11
469.1867238751
 21
1049.7760432845
  0
LINE
  5
2AC
100
AcDbEntity
  8
0
100
AcDbLine
 62
7
  6
BYLAYER
 10
471.1090439593
 20
83.775933146
 11
471.1090439593
 21
101.275933146
  0
LINE
  5
2AD
100
AcDbEntity
  8
3
100
AcDbLine
 62
7
  6
BYLAYER
 10
471.1095190024
 20
701.276056093
 11
471.1095190024
 21
1049.776056093
  0
LINE
  5
2AE
100
AcDbEntity
  8
0
100
AcDbLine
 62
7
  6
BYLAYER
 10
471.1097717703
 20
1049.7760432845
 11
471.1097717703
 21
1067.2760432845
  0
LINE
  5
2AF
100
AcDbEntity
  8
3
100
AcDbLine
 62
7
  6
BYLAYER
 10
471.2376738904
 20
101.276056093
 11
471.2376738904
 21
701.276056093
  0
LINE
  5
2B0
100
AcDbEntity
  8
0
100
AcDbLine
 62
7
  6
BYLAYER
 10
471.3643731563
 20
101.275933146
 11
471.3643731563
 21
83.775933146
  0
LINE
  5
2B1
100
AcDbEntity
  8
0
100
AcDbLine
 62
7
  6
BYLAYER
 10
471.3651009673
 20
1067.2760432845
 11
471.3651009673
 21
1049.7760432845
  0
LINE
  5
2B2
100
AcDbEntity
  8
3
100
AcDbLine
 62
7
  6
BYLAYER
 10
471.3658287784
 20
1049.776056093
 11
471.3658287784
 21
701.276056093
  0
LINE
  5
2B3
100
AcDbEntity
  8
0
100
AcDbLine
 62
7
  6
BYLAYER
 10
473.1532275383
 20
84.775933146
 11
473.1532275383
 21
101.275933146
  0
LINE
  5
2B4
100
AcDbEntity
  8
0
100
AcDbLine
 62
7
  6
BYLAYER
 10
473.1539553493
 20
1049.7760432845
 11
473.1539553493
 21
1066.2760432845
  0
LINE
  5
2B5
100
AcDbEntity
  8
3
100
AcDbLine
 62
7
  6
BYLAYER
 10
473.1546831604
 20
101.276056093
 11
473.1546831604
 21
1049.776056093
  0
LINE
  5
2B6
100
AcDbEntity
  8
0
100
AcDbLine
 62
7
  6
BYLAYER
 10
473.5476547293
 20
101.275933146
 11
473.5476547293
 21
84.775933146
  0
LINE
  5
2B7
100
AcDbEntity
  8
0
100
AcDbLine
 62
7
  6
BYLAYER
 10
473.5483825403
 20
1066.2760432845
 11
473.5483825403
 21
1049.7760432845
  0
LINE
  5
2B8
100
AcDbEntity
  8
3
100
AcDbLine
 62
7
  6
BYLAYER
 10
473.5491103514
 20
1049.776056093
 11
473.5491103514
 21
101.276056093
  0
LINE
  5
2B9
100
AcDbEntity
  8
0
100
AcDbLine
 62
7
  6
BYLAYER
 10
473.6004411338
 20
84.775933146
 11
473.6004411338
 21
101.275933146
  0
LINE
  5
2BA
100
AcDbEntity
  8
0
100
AcDbLine
 62
7
  6
BYLAYER
 10
473.6011689448
 20
1049.7760432845
 11
473.6011689448
 21
1066.2760432845
  0
LINE
  5
2BB
100
AcDbEntity
  8
3
100
AcDbLine
 62
7
  6
BYLAYER
 10
473.6018967559
 20
101.276056093
 11
473.6018967559
 21
1049.776056093
  0
LINE
  5
2BC
100
AcDbEntity
  8
3
100
AcDbLine
 62
7
  6
BYLAYER
 10
473.8002770281
 20
101.276056093
 11
473.8002770281
 21
1049.7760725521
  0
LINE
  5
2BD
100
AcDbEntity
  8
0
100
AcDbLine
 62
7
  6
BYLAYER
 10
475.8511689448
 20
1067.2760432845
 11
475.8511689448
 21
1073.2760432845
  0
LINE
  5
2BE
100
AcDbEntity
  8
0
100
AcDbLine
 62
7
  6
BYLAYER
 10
479.4744089448
 20
1074.9760432845
 11
479.4744089448
 21
1073.7760432845
  0
LINE
  5
2BF
100
AcDbEntity
  8
0
100
AcDbLine
 62
7
  6
BYLAYER
 10
485.978945026
 20
1073.7760432845
 11
485.978945026
 21
1074.9760432845
  0
LINE
  5
2C0
100
AcDbEntity
  8
0
100
AcDbLine
 62
7
  6
BYLAYER
 10
486.5339020868
 20
1073.7760432845
 11
486.5339020868
 21
1075.2760432845
  0
LINE
  5
2C1
100
AcDbEntity
  8
0
100
AcDbLine
 62
7
  6
BYLAYER
 10
486.9688945196
 20
1074.9760432845
 11
486.9688945196
 21
1073.7760432845
  0
LINE
  5
2C2
100
AcDbEntity
  8
0
100
AcDbLine
 62
7
  6
BYLAYER
 10
487.7244089448
 20
1074.9760432845
 11
487.7244089448
 21
1073.7760432845
  0
LINE
  5
2C3
100
AcDbEntity
  8
0
100
AcDbLine
 62
7
  6
BYLAYER
 10
491.3511689448
 20
1067.2760432845
 11
491.3511689448
 21
1073.2760432845
  0
LINE
  5
2C4
100
AcDbEntity
  8
0
100
AcDbLine
 62
7
  6
BYLAYER
 10
493.8511689448
 20
1067.2760432845
 11
493.8511689448
 21
1073.2760432845
  0
LINE
  5
2C5
100
AcDbEntity
  8
0
100
AcDbLine
 62
7
  6
BYLAYER
 10
495.6011689448
 20
1077.2760423471
 11
495.6011689448
 21
1069.7760432845
  0
LINE
  5
2C6
100
AcDbEntity
  8
0
100
AcDbLine
 62
7
  6
BYLAYER
 10
496.1011689448
 20
1068.7760432845
 11
496.1011689448
 21
1069.7760432845
  0
LINE
  5
2C7
100
AcDbEntity
  8
0
100
AcDbLine
 62
7
  6
BYLAYER
 10
507.1011689448
 20
1068.7760432845
 11
507.1011689448
 21
1069.7760432845
  0
LINE
  5
2C8
100
AcDbEntity
  8
0
100
AcDbLine
 62
7
  6
BYLAYER
 10
507.6011689448
 20
1069.7760432845
 11
507.6011689448
 21
1077.2760423471
  0
LINE
  5
2C9
100
AcDbEntity
  8
0
100
AcDbLine
 62
7
  6
BYLAYER
 10
509.3511689448
 20
1067.2760432845
 11
509.3511689448
 21
1073.2760432845
  0
LINE
  5
2CA
100
AcDbEntity
  8
3
100
AcDbLine
 62
7
  6
BYLAYER
 10
511.4002770281
 20
1049.7760725521
 11
511.4002770281
 21
101.276056093
  0
LINE
  5
2CB
100
AcDbEntity
  8
3
100
AcDbLine
 62
7
  6
BYLAYER
 10
511.5999355978
 20
1049.776056093
 11
511.5999355978
 21
101.276056093
  0
LINE
  5
2CC
100
AcDbEntity
  8
0
100
AcDbLine
 62
7
  6
BYLAYER
 10
511.6004411338
 20
101.275933146
 11
511.6004411338
 21
84.775933146
  0
LINE
  5
2CD
100
AcDbEntity
  8
0
100
AcDbLine
 62
7
  6
BYLAYER
 10
511.6011689448
 20
1066.2760432845
 11
511.6011689448
 21
1049.7760432845
  0
LINE
  5
2CE
100
AcDbEntity
  8
3
100
AcDbLine
 62
7
  6
BYLAYER
 10
511.6527220023
 20
101.276056093
 11
511.6527220023
 21
1049.776056093
  0
LINE
  5
2CF
100
AcDbEntity
  8
0
100
AcDbLine
 62
7
  6
BYLAYER
 10
511.6532275383
 20
84.775933146
 11
511.6532275383
 21
101.275933146
  0
LINE
  5
2D0
100
AcDbEntity
  8
0
100
AcDbLine
 62
7
  6
BYLAYER
 10
511.6539553493
 20
1049.7760432845
 11
511.6539553493
 21
1066.2760432845
  0
LINE
  5
2D1
100
AcDbEntity
  8
3
100
AcDbLine
 62
7
  6
BYLAYER
 10
512.0471491933
 20
1049.776056093
 11
512.0471491933
 21
101.276056093
  0
LINE
  5
2D2
100
AcDbEntity
  8
0
100
AcDbLine
 62
7
  6
BYLAYER
 10
512.0476547293
 20
101.275933146
 11
512.0476547293
 21
84.775933146
  0
LINE
  5
2D3
100
AcDbEntity
  8
0
100
AcDbLine
 62
7
  6
BYLAYER
 10
512.0483825403
 20
1066.2760432845
 11
512.0483825403
 21
1049.7760432845
  0
LINE
  5
2D4
100
AcDbEntity
  8
3
100
AcDbLine
 62
7
  6
BYLAYER
 10
513.8360035753
 20
701.276056093
 11
513.8360035753
 21
1049.776056093
  0
LINE
  5
2D5
100
AcDbEntity
  8
0
100
AcDbLine
 62
7
  6
BYLAYER
 10
513.8365091113
 20
83.775933146
 11
513.8365091113
 21
101.275933146
  0
LINE
  5
2D6
100
AcDbEntity
  8
0
100
AcDbLine
 62
7
  6
BYLAYER
 10
513.8372369223
 20
1049.7760432845
 11
513.8372369223
 21
1067.2760432845
  0
LINE
  5
2D7
100
AcDbEntity
  8
3
100
AcDbLine
 62
7
  6
BYLAYER
 10
513.9641584633
 20
101.276056093
 11
513.9641584633
 21
701.276056093
  0
LINE
  5
2D8
100
AcDbEntity
  8
0
100
AcDbLine
 62
7
  6
BYLAYER
 10
514.0918383083
 20
101.275933146
 11
514.0918383083
 21
83.775933146
  0
LINE
  5
2D9
100
AcDbEntity
  8
3
100
AcDbLine
 62
7
  6
BYLAYER
 10
514.0923133513
 20
1049.776056093
 11
514.0923133513
 21
701.276056093
  0
LINE
  5
2DA
100
AcDbEntity
  8
0
100
AcDbLine
 62
7
  6
BYLAYER
 10
514.0925661193
 20
1067.2760432845
 11
514.0925661193
 21
1049.7760432845
  0
LINE
  5
2DB
100
AcDbEntity
  8
0
100
AcDbLine
 62
7
  6
BYLAYER
 10
516.0148862036
 20
84.775933146
 11
516.0148862036
 21
101.275933146
  0
LINE
  5
2DC
100
AcDbEntity
  8
3
100
AcDbLine
 62
7
  6
BYLAYER
 10
516.0153612466
 20
101.276056093
 11
516.0153612466
 21
1049.776056093
  0
LINE
  5
2DD
100
AcDbEntity
  8
0
100
AcDbLine
 62
7
  6
BYLAYER
 10
516.0156140146
 20
1049.7760432845
 11
516.0156140146
 21
1066.2760432845
  0
LINE
  5
2DE
100
AcDbEntity
  8
0
100
AcDbLine
 62
7
  6
BYLAYER
 10
517.054132079
 20
86.775933146
 11
517.054132079
 21
84.775933146
  0
LINE
  5
2DF
100
AcDbEntity
  8
0
100
AcDbLine
 62
7
  6
BYLAYER
 10
517.05485989
 20
1066.2760432845
 11
517.05485989
 21
1064.2760432845
  0
LINE
  5
2E0
100
AcDbEntity
  8
0
100
AcDbLine
 62
7
  6
BYLAYER
 10
517.1118461575
 20
84.775933146
 11
517.1118461575
 21
86.3912441466
  0
LINE
  5
2E1
100
AcDbEntity
  8
0
100
AcDbLine
 62
7
  6
BYLAYER
 10
517.1125739686
 20
1064.6607323009
 11
517.1125739686
 21
1066.2760432845
  0
LINE
  5
2E2
100
AcDbEntity
  8
0
100
AcDbLine
 62
7
  6
BYLAYER
 10
517.2156806102
 20
101.275933146
 11
517.2156806102
 21
86.775933146
  0
LINE
  5
2E3
100
AcDbEntity
  8
3
100
AcDbLine
 62
7
  6
BYLAYER
 10
517.2161556533
 20
1049.776056093
 11
517.2161556533
 21
101.276056093
  0
LINE
  5
2E4
100
AcDbEntity
  8
0
100
AcDbLine
 62
7
  6
BYLAYER
 10
517.2164084212
 20
1064.2760432845
 11
517.2164084212
 21
1049.7760432845
  0
LINE
  5
2E5
100
AcDbEntity
  8
0
100
AcDbLine
 62
7
  6
BYLAYER
 10
517.4009161738
 20
84.6760432845
 11
517.4009161738
 21
86.2760432845
  0
LINE
  5
2E6
100
AcDbEntity
  8
0
100
AcDbLine
 62
7
  6
BYLAYER
 10
517.4011689448
 20
1064.7760432845
 11
517.4011689448
 21
1066.3760432845
  0
LINE
  5
2E7
100
AcDbEntity
  8
0
100
AcDbLine
 62
7
  6
BYLAYER
 10
517.6004411338
 20
84.775933146
 11
517.6004411338
 21
86.7622166294
  0
LINE
  5
2E8
100
AcDbEntity
  8
0
100
AcDbLine
 62
7
  6
BYLAYER
 10
517.6004411338
 20
86.775933146
 11
517.6004411338
 21
101.275933146
  0
LINE
  5
2E9
100
AcDbEntity
  8
3
100
AcDbLine
 62
7
  6
BYLAYER
 10
517.6009161769
 20
101.276056093
 11
517.6009161769
 21
1049.776056093
  0
LINE
  5
2EA
100
AcDbEntity
  8
0
100
AcDbLine
 62
7
  6
BYLAYER
 10
517.6011689448
 20
1049.7760432845
 11
517.6011689448
 21
1066.2760432845
  0
LINE
  5
2EB
100
AcDbEntity
  8
4
100
AcDbLine
 62
7
  6
BYLAYER
 10
520.7896618603
 20
1024.9591208686
 11
520.7896618603
 21
974.9591208686
  0
LINE
  5
2EC
100
AcDbEntity
  8
4
100
AcDbLine
 62
7
  6
BYLAYER
 10
520.7896618603
 20
178.6242184078
 11
520.7896618603
 21
128.6242184078
  0
LINE
  5
2ED
100
AcDbEntity
  8
4
100
AcDbLine
 62
7
  6
BYLAYER
 10
527.7896618603
 20
128.6242184078
 11
527.7896618603
 21
178.6242184078
  0
LINE
  5
2EE
100
AcDbEntity
  8
4
100
AcDbLine
 62
7
  6
BYLAYER
 10
527.7896618603
 20
974.9591208686
 11
527.7896618603
 21
1024.9591208686
  0
LINE
  5
2EF
100
AcDbEntity
  8
3
100
AcDbLine
 62
7
  6
BYLAYER
 10
514.0923133513
 20
701.276056093
 11
513.8360035753
 21
701.276056093
  0
LINE
  5
2F0
100
AcDbEntity
  8
3
100
AcDbLine
 62
7
  6
BYLAYER
 10
471.3658287784
 20
701.276056093
 11
471.1095190024
 21
701.276056093
  0
LINE
  5
2F1
100
AcDbEntity
  8
3
100
AcDbLine
 62
7
  6
BYLAYER
 10
366.4431824628
 20
701.276056093
 11
366.1868726868
 21
701.276056093
  0
LINE
  5
2F2
100
AcDbEntity
  8
3
100
AcDbLine
 62
7
  6
BYLAYER
 10
323.7166978899
 20
701.276056093
 11
323.4603881139
 21
701.276056093
  0
LINE
  5
2F3
100
AcDbEntity
  8
0
100
AcDbLine
 62
7
  6
BYLAYER
 10
346.4020380563
 20
1067.2760432845
 11
346.2020380563
 21
1067.4760432845
  0
LINE
  5
2F4
100
AcDbEntity
  8
0
100
AcDbLine
 62
7
  6
BYLAYER
 10
343.2020380563
 20
1073.7760432845
 11
343.7020380563
 21
1073.2760432845
  0
LINE
  5
2F5
100
AcDbEntity
  8
0
100
AcDbLine
 62
7
  6
BYLAYER
 10
361.2020380563
 20
1068.7760432845
 11
361.7020380563
 21
1068.2760432845
  0
LINE
  5
2F6
100
AcDbEntity
  8
0
100
AcDbLine
 62
7
  6
BYLAYER
 10
361.2020380563
 20
1073.7760432845
 11
361.7020380563
 21
1073.2760432845
  0
LINE
  5
2F7
100
AcDbEntity
  8
0
100
AcDbLine
 62
7
  6
BYLAYER
 10
359.452040035
 20
1077.7760432845
 11
359.9520380563
 21
1077.276045443
  0
LINE
  5
2F8
100
AcDbEntity
  8
4
100
AcDbLine
 62
7
  6
BYLAYER
 10
527.7896618603
 20
974.9591208686
 11
517.6009161769
 21
974.9591208686
  0
LINE
  5
2F9
100
AcDbEntity
  8
3
100
AcDbLine
 62
7
  6
BYLAYER
 10
380.1405309718
 20
974.9591208686
 11
369.9517852884
 21
974.9591208686
  0
LINE
  5
2FA
100
AcDbEntity
  8
0
100
AcDbLine
 62
7
  6
BYLAYER
 10
494.0511689448
 20
1067.2760432845
 11
493.8511689448
 21
1067.4760432845
  0
LINE
  5
2FB
100
AcDbEntity
  8
0
100
AcDbLine
 62
7
  6
BYLAYER
 10
490.8511689448
 20
1073.7760432845
 11
491.3511689448
 21
1073.2760432845
  0
LINE
  5
2FC
100
AcDbEntity
  8
0
100
AcDbLine
 62
7
  6
BYLAYER
 10
508.8511689448
 20
1068.7760432845
 11
509.3511689448
 21
1068.2760432845
  0
LINE
  5
2FD
100
AcDbEntity
  8
0
100
AcDbLine
 62
7
  6
BYLAYER
 10
508.8511689448
 20
1073.7760432845
 11
509.3511689448
 21
1073.2760432845
  0
LINE
  5
2FE
100
AcDbEntity
  8
0
100
AcDbLine
 62
7
  6
BYLAYER
 10
507.1011709235
 20
1077.7760432845
 11
507.6011689448
 21
1077.276045443
  0
LINE
  5
2FF
100
AcDbEntity
  8
3
100
AcDbLine
 62
7
  6
BYLAYER
 10
369.9517852884
 20
1024.9591208686
 11
380.1405309718
 21
1024.9591208686
  0
LINE
  5
300
100
AcDbEntity
  8
4
100
AcDbLine
 62
7
  6
BYLAYER
 10
517.6009161769
 20
1024.9591208686
 11
527.7896618603
 21
1024.9591208686
  0
LINE
  5
301
100
AcDbEntity
  8
0
100
AcDbLine
 62
7
  6
BYLAYER
 10
517.6011689448
 20
1049.7760432845
 11
467.6011689448
 21
1049.7760432845
  0
LINE
  5
302
100
AcDbEntity
  8
0
100
AcDbLine
 62
7
  6
BYLAYER
 10
369.9520380563
 20
1049.7760432845
 11
319.9520380563
 21
1049.7760432845
  0
LINE
  5
303
100
AcDbEntity
  8
3
100
AcDbLine
 62
7
  6
BYLAYER
 10
319.9517852884
 20
1049.776056093
 11
325.9527658674
 21
1049.776056093
  0
LINE
  5
304
100
AcDbEntity
  8
3
100
AcDbLine
 62
7
  6
BYLAYER
 10
363.9508047093
 20
1049.776056093
 11
369.9517852884
 21
1049.776056093
  0
LINE
  5
305
100
AcDbEntity
  8
3
100
AcDbLine
 62
7
  6
BYLAYER
 10
467.6009161769
 20
1049.776056093
 11
473.6018967559
 21
1049.776056093
  0
LINE
  5
306
100
AcDbEntity
  8
3
100
AcDbLine
 62
7
  6
BYLAYER
 10
511.5999355978
 20
1049.776056093
 11
517.6009161769
 21
1049.776056093
  0
LINE
  5
307
100
AcDbEntity
  8
3
100
AcDbLine
 62
7
  6
BYLAYER
 10
511.4002770281
 20
1049.7760725521
 11
473.8002770281
 21
1049.7760725521
  0
LINE
  5
308
100
AcDbEntity
  8
3
100
AcDbLine
 62
7
  6
BYLAYER
 10
363.7511461396
 20
1049.7760725521
 11
326.1511461396
 21
1049.7760725521
  0
LINE
  5
309
100
AcDbEntity
  8
0
100
AcDbLine
 62
7
  6
BYLAYER
 10
509.6011689448
 20
1063.2760432845
 11
493.6011857588
 21
1063.2760432845
  0
LINE
  5
30A
100
AcDbEntity
  8
0
100
AcDbLine
 62
7
  6
BYLAYER
 10
491.6011689448
 20
1063.2760432845
 11
475.6011857588
 21
1063.2760432845
  0
LINE
  5
30B
100
AcDbEntity
  8
0
100
AcDbLine
 62
7
  6
BYLAYER
 10
361.9520380563
 20
1063.2760432845
 11
345.9520548703
 21
1063.2760432845
  0
LINE
  5
30C
100
AcDbEntity
  8
0
100
AcDbLine
 62
7
  6
BYLAYER
 10
343.9520380563
 20
1063.2760432845
 11
327.9520548703
 21
1063.2760432845
  0
LINE
  5
30D
100
AcDbEntity
  8
0
100
AcDbLine
 62
7
  6
BYLAYER
 10
491.4958724602
 20
1063.2872563674
 11
475.7064820221
 21
1063.2872563674
  0
LINE
  5
30E
100
AcDbEntity
  8
0
100
AcDbLine
 62
7
  6
BYLAYER
 10
343.8467415717
 20
1063.2872563674
 11
328.0573511336
 21
1063.2872563674
  0
LINE
  5
30F
100
AcDbEntity
  8
0
100
AcDbLine
 62
7
  6
BYLAYER
 10
346.0572470852
 20
1063.2872375355
 11
361.8468124346
 21
1063.2872375355
  0
LINE
  5
310
100
AcDbEntity
  8
0
100
AcDbLine
 62
7
  6
BYLAYER
 10
493.7063779737
 20
1063.2872375355
 11
509.4959433232
 21
1063.2872375355
  0
LINE
  5
311
100
AcDbEntity
  8
0
100
AcDbLine
 62
7
  6
BYLAYER
 10
509.706663605
 20
1064.2647874678
 11
493.4956913203
 21
1064.2647874678
  0
LINE
  5
312
100
AcDbEntity
  8
0
100
AcDbLine
 62
7
  6
BYLAYER
 10
362.0575327165
 20
1064.2647874678
 11
345.8465604318
 21
1064.2647874678
  0
LINE
  5
313
100
AcDbEntity
  8
0
100
AcDbLine
 62
7
  6
BYLAYER
 10
491.7064654295
 20
1064.2648302016
 11
475.4958894954
 21
1064.2648302016
  0
LINE
  5
314
100
AcDbEntity
  8
0
100
AcDbLine
 62
7
  6
BYLAYER
 10
344.057334541
 20
1064.2648302016
 11
327.8467586069
 21
1064.2648302016
  0
LINE
  5
315
100
AcDbEntity
  8
0
100
AcDbLine
 62
7
  6
BYLAYER
 10
319.9520380563
 20
1064.2760432845
 11
320.4983471111
 21
1064.2760432845
  0
LINE
  5
316
100
AcDbEntity
  8
0
100
AcDbLine
 62
7
  6
BYLAYER
 10
369.4057290015
 20
1064.2760432845
 11
369.9520380563
 21
1064.2760432845
  0
LINE
  5
317
100
AcDbEntity
  8
0
100
AcDbLine
 62
7
  6
BYLAYER
 10
467.6011689448
 20
1064.2760432845
 11
468.1474779997
 21
1064.2760432845
  0
LINE
  5
318
100
AcDbEntity
  8
0
100
AcDbLine
 62
7
  6
BYLAYER
 10
517.05485989
 20
1064.2760432845
 11
517.6011689448
 21
1064.2760432845
  0
LINE
  5
319
100
AcDbEntity
  8
0
100
AcDbLine
 62
7
  6
BYLAYER
 10
517.4011689448
 20
1064.7760432845
 11
517.1125739686
 21
1064.7760432845
  0
LINE
  5
31A
100
AcDbEntity
  8
0
100
AcDbLine
 62
7
  6
BYLAYER
 10
468.0897639211
 20
1064.7760432845
 11
467.8011689448
 21
1064.7760432845
  0
LINE
  5
31B
100
AcDbEntity
  8
0
100
AcDbLine
 62
7
  6
BYLAYER
 10
369.7520380563
 20
1064.7760432845
 11
369.46344308
 21
1064.7760432845
  0
LINE
  5
31C
100
AcDbEntity
  8
0
100
AcDbLine
 62
7
  6
BYLAYER
 10
320.4406330326
 20
1064.7760432845
 11
320.1520380563
 21
1064.7760432845
  0
LINE
  5
31D
100
AcDbEntity
  8
0
100
AcDbLine
 62
7
  6
BYLAYER
 10
517.6011689448
 20
1065.2760433534
 11
517.4011689448
 21
1065.2760433534
  0
LINE
  5
31E
100
AcDbEntity
  8
0
100
AcDbLine
 62
7
  6
BYLAYER
 10
467.8011689448
 20
1065.2760433417
 11
467.6011689448
 21
1065.2760433417
  0
LINE
  5
31F
100
AcDbEntity
  8
0
100
AcDbLine
 62
7
  6
BYLAYER
 10
369.9520380563
 20
1065.2760433534
 11
369.7520380563
 21
1065.2760433534
  0
LINE
  5
320
100
AcDbEntity
  8
0
100
AcDbLine
 62
7
  6
BYLAYER
 10
320.1520380563
 20
1065.2760433417
 11
319.9520380563
 21
1065.2760433417
  0
LINE
  5
321
100
AcDbEntity
  8
0
100
AcDbLine
 62
7
  6
BYLAYER
 10
319.9520380563
 20
1066.2760432845
 11
320.1520380563
 21
1066.2760432845
  0
LINE
  5
322
100
AcDbEntity
  8
0
100
AcDbLine
 62
7
  6
BYLAYER
 10
369.7520380563
 20
1066.2760432845
 11
369.9520380563
 21
1066.2760432845
  0
LINE
  5
323
100
AcDbEntity
  8
0
100
AcDbLine
 62
7
  6
BYLAYER
 10
320.4406330326
 20
1066.2760432845
 11
369.46344308
 21
1066.2760432845
  0
LINE
  5
324
100
AcDbEntity
  8
0
100
AcDbLine
 62
7
  6
BYLAYER
 10
467.6011689448
 20
1066.2760432845
 11
467.8011689448
 21
1066.2760432845
  0
LINE
  5
325
100
AcDbEntity
  8
0
100
AcDbLine
 62
7
  6
BYLAYER
 10
517.4011689448
 20
1066.2760432845
 11
517.6011689448
 21
1066.2760432845
  0
LINE
  5
326
100
AcDbEntity
  8
0
100
AcDbLine
 62
7
  6
BYLAYER
 10
468.0897639211
 20
1066.2760432845
 11
517.1125739686
 21
1066.2760432845
  0
LINE
  5
327
100
AcDbEntity
  8
0
100
AcDbLine
 62
7
  6
BYLAYER
 10
320.1520380563
 20
1066.3760432845
 11
320.4731252467
 21
1066.3760432845
  0
LINE
  5
328
100
AcDbEntity
  8
0
100
AcDbLine
 62
7
  6
BYLAYER
 10
369.430950636
 20
1066.3760432845
 11
369.7520380563
 21
1066.3760432845
  0
LINE
  5
329
100
AcDbEntity
  8
0
100
AcDbLine
 62
7
  6
BYLAYER
 10
467.8011689448
 20
1066.3760432845
 11
468.1222561352
 21
1066.3760432845
  0
LINE
  5
32A
100
AcDbEntity
  8
0
100
AcDbLine
 62
7
  6
BYLAYER
 10
517.0800815245
 20
1066.3760432845
 11
517.4011689448
 21
1066.3760432845
  0
LINE
  5
32B
100
AcDbEntity
  8
0
100
AcDbLine
 62
7
  6
BYLAYER
 10
321.4408549473
 20
1067.2760432845
 11
368.4632195843
 21
1067.2760432845
  0
LINE
  5
32C
100
AcDbEntity
  8
0
100
AcDbLine
 62
7
  6
BYLAYER
 10
469.0899858359
 20
1067.2760432845
 11
516.1123504728
 21
1067.2760432845
  0
LINE
  5
32D
100
AcDbEntity
  8
0
100
AcDbLine
 62
7
  6
BYLAYER
 10
321.1521394824
 20
1067.3760432845
 11
326.7520378097
 21
1067.3760432845
  0
LINE
  5
32E
100
AcDbEntity
  8
0
100
AcDbLine
 62
7
  6
BYLAYER
 10
363.1521394824
 20
1067.3760432845
 11
368.7520378097
 21
1067.3760432845
  0
LINE
  5
32F
100
AcDbEntity
  8
0
100
AcDbLine
 62
7
  6
BYLAYER
 10
468.8012703709
 20
1067.3760432845
 11
474.4011686982
 21
1067.3760432845
  0
LINE
  5
330
100
AcDbEntity
  8
0
100
AcDbLine
 62
7
  6
BYLAYER
 10
510.8012703709
 20
1067.3760432845
 11
516.4011686982
 21
1067.3760432845
  0
LINE
  5
331
100
AcDbEntity
  8
0
100
AcDbLine
 62
7
  6
BYLAYER
 10
509.3511689448
 20
1067.4760432845
 11
493.8511689448
 21
1067.4760432845
  0
LINE
  5
332
100
AcDbEntity
  8
0
100
AcDbLine
 62
7
  6
BYLAYER
 10
361.7020380563
 20
1067.4760432845
 11
346.2020380563
 21
1067.4760432845
  0
LINE
  5
333
100
AcDbEntity
  8
0
100
AcDbLine
 62
7
  6
BYLAYER
 10
346.2020380563
 20
1068.2760432845
 11
361.7020380563
 21
1068.2760432845
  0
LINE
  5
334
100
AcDbEntity
  8
0
100
AcDbLine
 62
7
  6
BYLAYER
 10
493.8511689448
 20
1068.2760432845
 11
509.3511689448
 21
1068.2760432845
  0
LINE
  5
335
100
AcDbEntity
  8
0
100
AcDbLine
 62
7
  6
BYLAYER
 10
491.3511689448
 20
1068.7760432845
 11
475.8511689448
 21
1068.7760432845
  0
LINE
  5
336
100
AcDbEntity
  8
0
100
AcDbLine
 62
7
  6
BYLAYER
 10
343.7020380563
 20
1068.7760432845
 11
328.2020380563
 21
1068.7760432845
  0
LINE
  5
337
100
AcDbEntity
  8
0
100
AcDbLine
 62
7
  6
BYLAYER
 10
346.2020380563
 20
1068.7760432845
 11
361.7020380563
 21
1068.7760432845
  0
LINE
  5
338
100
AcDbEntity
  8
0
100
AcDbLine
 62
7
  6
BYLAYER
 10
493.8511689448
 20
1068.7760432845
 11
509.3511689448
 21
1068.7760432845
  0
LINE
  5
339
100
AcDbEntity
  8
0
100
AcDbLine
 62
7
  6
BYLAYER
 10
507.6011689448
 20
1069.7760432845
 11
495.6011689448
 21
1069.7760432845
  0
LINE
  5
33A
100
AcDbEntity
  8
0
100
AcDbLine
 62
7
  6
BYLAYER
 10
359.9520380563
 20
1069.7760432845
 11
347.9520380563
 21
1069.7760432845
  0
LINE
  5
33B
100
AcDbEntity
  8
0
100
AcDbLine
 62
7
  6
BYLAYER
 10
509.351164662
 20
1071.7760432845
 11
507.6011689448
 21
1071.7760432845
  0
LINE
  5
33C
100
AcDbEntity
  8
0
100
AcDbLine
 62
7
  6
BYLAYER
 10
495.6011689448
 20
1071.7760432845
 11
493.8511732277
 21
1071.7760432845
  0
LINE
  5
33D
100
AcDbEntity
  8
0
100
AcDbLine
 62
7
  6
BYLAYER
 10
491.351164662
 20
1071.7760432845
 11
475.8511732277
 21
1071.7760432845
  0
LINE
  5
33E
100
AcDbEntity
  8
0
100
AcDbLine
 62
7
  6
BYLAYER
 10
361.7020337735
 20
1071.7760432845
 11
359.9520380563
 21
1071.7760432845
  0
LINE
  5
33F
100
AcDbEntity
  8
0
100
AcDbLine
 62
7
  6
BYLAYER
 10
347.9520380563
 20
1071.7760432845
 11
346.2020423391
 21
1071.7760432845
  0
LINE
  5
340
100
AcDbEntity
  8
0
100
AcDbLine
 62
7
  6
BYLAYER
 10
343.7020337735
 20
1071.7760432845
 11
328.2020423391
 21
1071.7760432845
  0
LINE
  5
341
100
AcDbEntity
  8
0
100
AcDbLine
 62
7
  6
BYLAYER
 10
328.2020380563
 20
1073.2760432845
 11
343.7020380563
 21
1073.2760432845
  0
LINE
  5
342
100
AcDbEntity
  8
0
100
AcDbLine
 62
7
  6
BYLAYER
 10
346.2020380563
 20
1073.2760432845
 11
347.9520380563
 21
1073.2760432845
  0
LINE
  5
343
100
AcDbEntity
  8
0
100
AcDbLine
 62
7
  6
BYLAYER
 10
359.9520380563
 20
1073.2760432845
 11
361.7020380563
 21
1073.2760432845
  0
LINE
  5
344
100
AcDbEntity
  8
0
100
AcDbLine
 62
7
  6
BYLAYER
 10
475.8511689448
 20
1073.2760432845
 11
491.3511689448
 21
1073.2760432845
  0
LINE
  5
345
100
AcDbEntity
  8
0
100
AcDbLine
 62
7
  6
BYLAYER
 10
493.8511689448
 20
1073.2760432845
 11
495.6011689448
 21
1073.2760432845
  0
LINE
  5
346
100
AcDbEntity
  8
0
100
AcDbLine
 62
7
  6
BYLAYER
 10
507.6011689448
 20
1073.2760432845
 11
509.3511689448
 21
1073.2760432845
  0
LINE
  5
347
100
AcDbEntity
  8
0
100
AcDbLine
 62
7
  6
BYLAYER
 10
328.7020420591
 20
1073.7760432845
 11
343.2020340535
 21
1073.7760432845
  0
LINE
  5
348
100
AcDbEntity
  8
0
100
AcDbLine
 62
7
  6
BYLAYER
 10
346.7020420591
 20
1073.7760432845
 11
347.9520380563
 21
1073.7760432845
  0
LINE
  5
349
100
AcDbEntity
  8
0
100
AcDbLine
 62
7
  6
BYLAYER
 10
359.9520380563
 20
1073.7760432845
 11
361.2020340535
 21
1073.7760432845
  0
LINE
  5
34A
100
AcDbEntity
  8
0
100
AcDbLine
 62
7
  6
BYLAYER
 10
476.3511729476
 20
1073.7760432845
 11
490.851164942
 21
1073.7760432845
  0
LINE
  5
34B
100
AcDbEntity
  8
0
100
AcDbLine
 62
7
  6
BYLAYER
 10
494.3511729476
 20
1073.7760432845
 11
495.6011689448
 21
1073.7760432845
  0
LINE
  5
34C
100
AcDbEntity
  8
0
100
AcDbLine
 62
7
  6
BYLAYER
 10
507.6011689448
 20
1073.7760432845
 11
508.851164942
 21
1073.7760432845
  0
LINE
  5
34D
100
AcDbEntity
  8
0
100
AcDbLine
 62
7
  6
BYLAYER
 10
331.8252780563
 20
1074.9760432845
 11
335.2502780563
 21
1074.9760432845
  0
LINE
  5
34E
100
AcDbEntity
  8
0
100
AcDbLine
 62
7
  6
BYLAYER
 10
336.6502780563
 20
1074.9760432845
 11
340.0752780563
 21
1074.9760432845
  0
LINE
  5
34F
100
AcDbEntity
  8
0
100
AcDbLine
 62
7
  6
BYLAYER
 10
479.4744089448
 20
1074.9760432845
 11
485.978945026
 21
1074.9760432845
  0
LINE
  5
350
100
AcDbEntity
  8
0
100
AcDbLine
 62
7
  6
BYLAYER
 10
486.9688945196
 20
1074.9760432845
 11
487.7244089448
 21
1074.9760432845
  0
LINE
  5
351
100
AcDbEntity
  8
0
100
AcDbLine
 62
7
  6
BYLAYER
 10
332.1252895822
 20
1075.2760432845
 11
339.7752472916
 21
1075.2760432845
  0
LINE
  5
352
100
AcDbEntity
  8
0
100
AcDbLine
 62
7
  6
BYLAYER
 10
479.7743870535
 20
1075.2760432845
 11
487.4244693127
 21
1075.2760432845
  0
LINE
  5
353
100
AcDbEntity
  8
0
100
AcDbLine
 62
7
  6
BYLAYER
 10
347.9520380563
 20
1077.2760423471
 11
359.9520380563
 21
1077.2760423471
  0
LINE
  5
354
100
AcDbEntity
  8
0
100
AcDbLine
 62
7
  6
BYLAYER
 10
495.6011689448
 20
1077.2760423471
 11
507.6011689448
 21
1077.2760423471
  0
LINE
  5
355
100
AcDbEntity
  8
0
100
AcDbLine
 62
7
  6
BYLAYER
 10
348.4520374921
 20
1077.7760432845
 11
359.452032755
 21
1077.7760432845
  0
LINE
  5
356
100
AcDbEntity
  8
0
100
AcDbLine
 62
7
  6
BYLAYER
 10
496.1011683806
 20
1077.7760432845
 11
507.1011636435
 21
1077.7760432845
  0
ARC
  5
357
100
AcDbEntity
  8
0
100
AcDbCircle
 62
7
  6
BYLAYER
 10
326.7513102482
 20
84.6760432845
 40
1.0
100
AcDbArc
 50
270.0
 51
292.3676490044
  0
ARC
  5
358
100
AcDbEntity
  8
0
100
AcDbCircle
 62
7
  6
BYLAYER
 10
321.1517852883
 20
84.6760432845
 40
1.0
100
AcDbArc
 50
180.0
 51
270.0
  0
ARC
  5
359
100
AcDbEntity
  8
0
100
AcDbCircle
 62
7
  6
BYLAYER
 10
325.7517852883
 20
84.6760432845
 40
1.0
100
AcDbArc
 50
270.0
 51
292.3676490041
  0
ARC
  5
35A
100
AcDbEntity
  8
0
100
AcDbCircle
 62
7
  6
BYLAYER
 10
321.4399052216
 20
84.775933146
 40
1.0
100
AcDbArc
 50
180.0
 51
270.0
  0
ARC
  5
35B
100
AcDbEntity
  8
0
100
AcDbCircle
 62
7
  6
BYLAYER
 10
324.9513102453
 20
84.775933146
 40
1.0
100
AcDbArc
 50
270.0
 51
360.0
  0
ARC
  5
35C
100
AcDbEntity
  8
0
100
AcDbCircle
 62
7
  6
BYLAYER
 10
320.9513102453
 20
84.775933146
 40
1.0
100
AcDbArc
 50
180.0
 51
249.9315512354
  0
ARC
  5
35D
100
AcDbEntity
  8
0
100
AcDbCircle
 62
7
  6
BYLAYER
 10
321.4591510084
 20
84.6872575781
 40
0.9113244321
100
AcDbArc
 50
268.9031685193
 51
269.9995120838
  0
ARC
  5
35E
100
AcDbEntity
  8
0
100
AcDbCircle
 62
7
  6
BYLAYER
 10
320.4513102453
 20
86.775933146
 40
0.5
100
AcDbArc
 50
180.0
 51
268.8357968818
  0
ARC
  5
35F
100
AcDbEntity
  8
0
100
AcDbCircle
 62
7
  6
BYLAYER
 10
363.1513102453
 20
84.6760432845
 40
1.0
100
AcDbArc
 50
247.6323509956
 51
270.0
  0
ARC
  5
360
100
AcDbEntity
  8
0
100
AcDbCircle
 62
7
  6
BYLAYER
 10
364.1517852853
 20
84.6760432845
 40
1.0
100
AcDbArc
 50
247.6323509959
 51
270.0
  0
ARC
  5
361
100
AcDbEntity
  8
0
100
AcDbCircle
 62
7
  6
BYLAYER
 10
368.7517852853
 20
84.6760432845
 40
1.0
100
AcDbArc
 50
270.0
 51
360.0
  0
ARC
  5
362
100
AcDbEntity
  8
0
100
AcDbCircle
 62
7
  6
BYLAYER
 10
368.462715269
 20
84.775933146
 40
1.0
100
AcDbArc
 50
270.0
 51
360.0
  0
ARC
  5
363
100
AcDbEntity
  8
0
100
AcDbCircle
 62
7
  6
BYLAYER
 10
368.9513102453
 20
84.775933146
 40
1.0
100
AcDbArc
 50
290.1402792355
 51
360.0
  0
ARC
  5
364
100
AcDbEntity
  8
0
100
AcDbCircle
 62
7
  6
BYLAYER
 10
364.9513102453
 20
84.775933146
 40
1.0
100
AcDbArc
 50
180.0
 51
270.0
  0
ARC
  5
365
100
AcDbEntity
  8
0
100
AcDbCircle
 62
7
  6
BYLAYER
 10
368.4434695555
 20
84.6864013151
 40
0.9104681691
100
AcDbArc
 50
270.0004837626
 51
271.0800850326
  0
ARC
  5
366
100
AcDbEntity
  8
0
100
AcDbCircle
 62
7
  6
BYLAYER
 10
369.4513102453
 20
86.775933146
 40
0.5
100
AcDbArc
 50
271.1642031186
 51
360.0
  0
ARC
  5
367
100
AcDbEntity
  8
0
100
AcDbCircle
 62
7
  6
BYLAYER
 10
369.813556375
 20
86.368248844
 40
0.3511956119
100
AcDbArc
 50
168.8863826956
 51
177.9822952589
  0
ARC
  5
368
100
AcDbEntity
  8
0
100
AcDbCircle
 62
7
  6
BYLAYER
 10
326.7520380563
 20
1066.3760432845
 40
1.0
100
AcDbArc
 50
67.6076884452
 51
90.0
  0
ARC
  5
369
100
AcDbEntity
  8
0
100
AcDbCircle
 62
7
  6
BYLAYER
 10
325.7520380563
 20
1066.3760432845
 40
1.0
100
AcDbArc
 50
67.6076884452
 51
90.0
  0
ARC
  5
36A
100
AcDbEntity
  8
0
100
AcDbCircle
 62
7
  6
BYLAYER
 10
321.1520380563
 20
1066.3760432845
 40
1.0
100
AcDbArc
 50
90.0
 51
180.0
  0
ARC
  5
36B
100
AcDbEntity
  8
0
100
AcDbCircle
 62
7
  6
BYLAYER
 10
321.4406330326
 20
1066.2760432845
 40
1.0
100
AcDbArc
 50
90.0
 51
180.0
  0
ARC
  5
36C
100
AcDbEntity
  8
0
100
AcDbCircle
 62
7
  6
BYLAYER
 10
320.9520380563
 20
1066.2760432845
 40
1.0
100
AcDbArc
 50
110.1126910722
 51
180.0
  0
ARC
  5
36D
100
AcDbEntity
  8
0
100
AcDbCircle
 62
7
  6
BYLAYER
 10
324.9520380563
 20
1066.2760432845
 40
1.0
100
AcDbArc
 50
0.0
 51
90.0
  0
ARC
  5
36E
100
AcDbEntity
  8
0
100
AcDbCircle
 62
7
  6
BYLAYER
 10
321.4598787461
 20
1066.3655751137
 40
0.9104681709
100
AcDbArc
 50
90.0004837636
 51
91.0800850316
  0
ARC
  5
36F
100
AcDbEntity
  8
0
100
AcDbCircle
 62
7
  6
BYLAYER
 10
320.4520380563
 20
1064.2760432845
 40
0.5
100
AcDbArc
 50
91.1642031186
 51
180.0
  0
ARC
  5
370
100
AcDbEntity
  8
0
100
AcDbCircle
 62
7
  6
BYLAYER
 10
327.9520557188
 20
1063.7760434673
 40
0.4999999534
100
AcDbArc
 50
102.1571786862
 51
282.1569797606
  0
ARC
  5
371
100
AcDbEntity
  8
0
100
AcDbCircle
 62
7
  6
BYLAYER
 10
343.9520203939
 20
1063.7760434673
 40
0.4999999534
100
AcDbArc
 50
257.8430202394
 51
77.8428213138
  0
ARC
  5
372
100
AcDbEntity
  8
0
100
AcDbCircle
 62
7
  6
BYLAYER
 10
320.0897919262
 20
1064.6837275866
 40
0.3511956123
100
AcDbArc
 50
348.8863826993
 51
357.9822949637
  0
ARC
  5
373
100
AcDbEntity
  8
0
100
AcDbCircle
 62
7
  6
BYLAYER
 10
339.7752780563
 20
1074.9760432845
 40
0.3
100
AcDbArc
 50
0.0
 51
90.0
  0
ARC
  5
374
100
AcDbEntity
  8
0
100
AcDbCircle
 62
7
  6
BYLAYER
 10
332.1252780563
 20
1074.9760432845
 40
0.3
100
AcDbArc
 50
90.0
 51
180.0
  0
ARC
  5
375
100
AcDbEntity
  8
0
100
AcDbCircle
 62
7
  6
BYLAYER
 10
363.1520380563
 20
1066.3760432845
 40
1.0
100
AcDbArc
 50
90.0
 51
112.3923115548
  0
ARC
  5
376
100
AcDbEntity
  8
0
100
AcDbCircle
 62
7
  6
BYLAYER
 10
368.7520380563
 20
1066.3760432845
 40
1.0
100
AcDbArc
 50
0.0
 51
90.0
  0
ARC
  5
377
100
AcDbEntity
  8
0
100
AcDbCircle
 62
7
  6
BYLAYER
 10
364.1520380563
 20
1066.3760432845
 40
1.0
100
AcDbArc
 50
90.0
 51
112.3923115548
  0
ARC
  5
378
100
AcDbEntity
  8
0
100
AcDbCircle
 62
7
  6
BYLAYER
 10
368.46344308
 20
1066.2760432845
 40
1.0
100
AcDbArc
 50
0.0
 51
90.0
  0
ARC
  5
379
100
AcDbEntity
  8
0
100
AcDbCircle
 62
7
  6
BYLAYER
 10
368.9520380563
 20
1066.2760432845
 40
1.0
100
AcDbArc
 50
0.0
 51
69.8873089279
  0
ARC
  5
37A
100
AcDbEntity
  8
0
100
AcDbCircle
 62
7
  6
BYLAYER
 10
364.9520380563
 20
1066.2760432845
 40
1.0
100
AcDbArc
 50
90.0
 51
180.0
  0
ARC
  5
37B
100
AcDbEntity
  8
0
100
AcDbCircle
 62
7
  6
BYLAYER
 10
368.4441972933
 20
1066.3647188538
 40
0.9113244307
100
AcDbArc
 50
88.9031685182
 51
89.9995120844
  0
ARC
  5
37C
100
AcDbEntity
  8
0
100
AcDbCircle
 62
7
  6
BYLAYER
 10
369.4520380563
 20
1064.2760432845
 40
0.5
100
AcDbArc
 50
0.0
 51
88.8357968818
  0
ARC
  5
37D
100
AcDbEntity
  8
0
100
AcDbCircle
 62
7
  6
BYLAYER
 10
345.9520557182
 20
1063.7760434675
 40
0.4999999532
100
AcDbArc
 50
102.1804098123
 51
282.180210997
  0
ARC
  5
37E
100
AcDbEntity
  8
0
100
AcDbCircle
 62
7
  6
BYLAYER
 10
361.9520203944
 20
1063.7760434675
 40
0.4999999532
100
AcDbArc
 50
257.819789003
 51
77.8195901876
  0
ARC
  5
37F
100
AcDbEntity
  8
0
100
AcDbCircle
 62
7
  6
BYLAYER
 10
474.4004411367
 20
84.6760432845
 40
1.0
100
AcDbArc
 50
270.0
 51
292.3676490041
  0
ARC
  5
380
100
AcDbEntity
  8
0
100
AcDbCircle
 62
7
  6
BYLAYER
 10
468.8009161768
 20
84.6760432845
 40
1.0
100
AcDbArc
 50
180.0
 51
270.0
  0
ARC
  5
381
100
AcDbEntity
  8
0
100
AcDbCircle
 62
7
  6
BYLAYER
 10
473.4009161768
 20
84.6760432845
 40
1.0
100
AcDbArc
 50
270.0
 51
292.3676490041
  0
ARC
  5
382
100
AcDbEntity
  8
0
100
AcDbCircle
 62
7
  6
BYLAYER
 10
469.0890361101
 20
84.775933146
 40
1.0
100
AcDbArc
 50
180.0
 51
270.0
  0
ARC
  5
383
100
AcDbEntity
  8
0
100
AcDbCircle
 62
7
  6
BYLAYER
 10
472.6004411338
 20
84.775933146
 40
1.0
100
AcDbArc
 50
270.0
 51
360.0
  0
ARC
  5
384
100
AcDbEntity
  8
0
100
AcDbCircle
 62
7
  6
BYLAYER
 10
468.6004411338
 20
84.775933146
 40
1.0
100
AcDbArc
 50
180.0
 51
249.9315512353
  0
ARC
  5
385
100
AcDbEntity
  8
0
100
AcDbCircle
 62
7
  6
BYLAYER
 10
469.1082818969
 20
84.6872575781
 40
0.9113244321
100
AcDbArc
 50
268.9031685193
 51
269.9995120838
  0
ARC
  5
386
100
AcDbEntity
  8
0
100
AcDbCircle
 62
7
  6
BYLAYER
 10
468.1004411338
 20
86.775933146
 40
0.5
100
AcDbArc
 50
180.0
 51
268.8357968818
  0
ARC
  5
387
100
AcDbEntity
  8
0
100
AcDbCircle
 62
7
  6
BYLAYER
 10
510.8004411338
 20
84.6760432845
 40
1.0
100
AcDbArc
 50
247.6323509959
 51
270.0
  0
ARC
  5
388
100
AcDbEntity
  8
0
100
AcDbCircle
 62
7
  6
BYLAYER
 10
511.8009161738
 20
84.6760432845
 40
1.0
100
AcDbArc
 50
247.6323509959
 51
270.0
  0
ARC
  5
389
100
AcDbEntity
  8
0
100
AcDbCircle
 62
7
  6
BYLAYER
 10
516.4009161738
 20
84.6760432845
 40
1.0
100
AcDbArc
 50
270.0
 51
360.0
  0
ARC
  5
38A
100
AcDbEntity
  8
0
100
AcDbCircle
 62
7
  6
BYLAYER
 10
516.1118461575
 20
84.775933146
 40
1.0
100
AcDbArc
 50
270.0
 51
360.0
  0
ARC
  5
38B
100
AcDbEntity
  8
0
100
AcDbCircle
 62
7
  6
BYLAYER
 10
516.6004411338
 20
84.775933146
 40
1.0
100
AcDbArc
 50
290.1402792355
 51
360.0
  0
ARC
  5
38C
100
AcDbEntity
  8
0
100
AcDbCircle
 62
7
  6
BYLAYER
 10
512.6004411338
 20
84.775933146
 40
1.0
100
AcDbArc
 50
180.0
 51
270.0
  0
ARC
  5
38D
100
AcDbEntity
  8
0
100
AcDbCircle
 62
7
  6
BYLAYER
 10
516.092600444
 20
84.6864013151
 40
0.9104681691
100
AcDbArc
 50
270.0004837626
 51
271.0800850326
  0
ARC
  5
38E
100
AcDbEntity
  8
0
100
AcDbCircle
 62
7
  6
BYLAYER
 10
517.1004411338
 20
86.775933146
 40
0.5
100
AcDbArc
 50
271.1642031186
 51
360.0
  0
ARC
  5
38F
100
AcDbEntity
  8
0
100
AcDbCircle
 62
7
  6
BYLAYER
 10
517.4626872636
 20
86.368248844
 40
0.3511956119
100
AcDbArc
 50
168.8863826962
 51
177.9822952373
  0
ARC
  5
390
100
AcDbEntity
  8
0
100
AcDbCircle
 62
7
  6
BYLAYER
 10
474.4011689448
 20
1066.3760432845
 40
1.0
100
AcDbArc
 50
67.6076884452
 51
90.0
  0
ARC
  5
391
100
AcDbEntity
  8
0
100
AcDbCircle
 62
7
  6
BYLAYER
 10
473.4011689448
 20
1066.3760432845
 40
1.0
100
AcDbArc
 50
67.6076884452
 51
90.0
  0
ARC
  5
392
100
AcDbEntity
  8
0
100
AcDbCircle
 62
7
  6
BYLAYER
 10
468.8011689448
 20
1066.3760432845
 40
1.0
100
AcDbArc
 50
90.0
 51
180.0
  0
ARC
  5
393
100
AcDbEntity
  8
0
100
AcDbCircle
 62
7
  6
BYLAYER
 10
469.0897639211
 20
1066.2760432845
 40
1.0
100
AcDbArc
 50
90.0
 51
180.0
  0
ARC
  5
394
100
AcDbEntity
  8
0
100
AcDbCircle
 62
7
  6
BYLAYER
 10
468.6011689448
 20
1066.2760432845
 40
1.0
100
AcDbArc
 50
110.1126910722
 51
180.0
  0
ARC
  5
395
100
AcDbEntity
  8
0
100
AcDbCircle
 62
7
  6
BYLAYER
 10
472.6011689448
 20
1066.2760432845
 40
1.0
100
AcDbArc
 50
0.0
 51
90.0
  0
ARC
  5
396
100
AcDbEntity
  8
0
100
AcDbCircle
 62
7
  6
BYLAYER
 10
469.1090096346
 20
1066.3655751136
 40
0.9104681709
100
AcDbArc
 50
90.0004837636
 51
91.0800850316
  0
ARC
  5
397
100
AcDbEntity
  8
0
100
AcDbCircle
 62
7
  6
BYLAYER
 10
468.1011689448
 20
1064.2760432845
 40
0.5
100
AcDbArc
 50
91.1642031187
 51
180.0
  0
ARC
  5
398
100
AcDbEntity
  8
0
100
AcDbCircle
 62
7
  6
BYLAYER
 10
475.6011866073
 20
1063.7760434673
 40
0.4999999534
100
AcDbArc
 50
102.1571786862
 51
282.1569797606
  0
ARC
  5
399
100
AcDbEntity
  8
0
100
AcDbCircle
 62
7
  6
BYLAYER
 10
491.6011512824
 20
1063.7760434673
 40
0.4999999534
100
AcDbArc
 50
257.8430202394
 51
77.8428213138
  0
ARC
  5
39A
100
AcDbEntity
  8
0
100
AcDbCircle
 62
7
  6
BYLAYER
 10
467.7389228147
 20
1064.6837275866
 40
0.3511956123
100
AcDbArc
 50
348.8863826995
 51
357.9822949894
  0
ARC
  5
39B
100
AcDbEntity
  8
0
100
AcDbCircle
 62
7
  6
BYLAYER
 10
487.4244089448
 20
1074.9760432845
 40
0.3
100
AcDbArc
 50
0.0
 51
90.0
  0
ARC
  5
39C
100
AcDbEntity
  8
0
100
AcDbCircle
 62
7
  6
BYLAYER
 10
479.7744089448
 20
1074.9760432845
 40
0.3
100
AcDbArc
 50
90.0
 51
180.0
  0
ARC
  5
39D
100
AcDbEntity
  8
0
100
AcDbCircle
 62
7
  6
BYLAYER
 10
510.8011689448
 20
1066.3760432845
 40
1.0
100
AcDbArc
 50
90.0
 51
112.3923115548
  0
ARC
  5
39E
100
AcDbEntity
  8
0
100
AcDbCircle
 62
7
  6
BYLAYER
 10
516.4011689448
 20
1066.3760432845
 40
1.0
100
AcDbArc
 50
0.0
 51
90.0
  0
ARC
  5
39F
100
AcDbEntity
  8
0
100
AcDbCircle
 62
7
  6
BYLAYER
 10
511.8011689448
 20
1066.3760432845
 40
1.0
100
AcDbArc
 50
90.0
 51
112.3923115548
  0
ARC
  5
3A0
100
AcDbEntity
  8
0
100
AcDbCircle
 62
7
  6
BYLAYER
 10
516.1125739686
 20
1066.2760432845
 40
1.0
100
AcDbArc
 50
0.0
 51
90.0
  0
ARC
  5
3A1
100
AcDbEntity
  8
0
100
AcDbCircle
 62
7
  6
BYLAYER
 10
516.6011689448
 20
1066.2760432845
 40
1.0
100
AcDbArc
 50
0.0
 51
69.8873089278
  0
ARC
  5
3A2
100
AcDbEntity
  8
0
100
AcDbCircle
 62
7
  6
BYLAYER
 10
512.6011689448
 20
1066.2760432845
 40
1.0
100
AcDbArc
 50
90.0
 51
180.0
  0
ARC
  5
3A3
100
AcDbEntity
  8
0
100
AcDbCircle
 62
7
  6
BYLAYER
 10
516.0933281818
 20
1066.3647188538
 40
0.9113244307
100
AcDbArc
 50
88.9031685182
 51
89.9995120844
  0
ARC
  5
3A4
100
AcDbEntity
  8
0
100
AcDbCircle
 62
7
  6
BYLAYER
 10
517.1011689448
 20
1064.2760432845
 40
0.5
100
AcDbArc
 50
0.0
 51
88.8357968818
  0
ARC
  5
3A5
100
AcDbEntity
  8
0
100
AcDbCircle
 62
7
  6
BYLAYER
 10
493.6011866067
 20
1063.7760434675
 40
0.4999999532
100
AcDbArc
 50
102.1804098124
 51
282.180210997
  0
ARC
  5
3A6
100
AcDbEntity
  8
0
100
AcDbCircle
 62
7
  6
BYLAYER
 10
509.6011512829
 20
1063.7760434675
 40
0.4999999532
100
AcDbArc
 50
257.819789003
 51
77.8195901876
  0
SPLINE
  5
3A7
100
AcDbEntity
  8
0
100
AcDbSpline
 62
7
  6
BYLAYER
 70
0
 71
3
 72
11
 73
7
 74
0
 42
0.0000001
 43
0.0000001
 44
0.0000000001
 40
0.0
 40
0.0
 40
0.0
 40
0.0
 40
0.288432907
 40
0.5554725908
 40
0.7902209526
 40
1.0
 40
1.0
 40
1.0
 40
1.0
 10
485.978945026
 20
1074.9760432845
 30
0.0
 10
485.978945026
 20
1075.0149849507
 30
0.0
 10
485.9685475425
 20
1075.0904753199
 30
0.0
 10
485.9229635517
 20
1075.1888742734
 30
0.0
 10
485.8525144709
 20
1075.2582398251
 30
0.0
 10
485.7917573483
 20
1075.2760442499
 30
0.0
 10
485.7634348323
 20
1075.2760432845
 30
0.0
  0
SPLINE
  5
3A8
100
AcDbEntity
  8
0
100
AcDbSpline
 62
7
  6
BYLAYER
 70
0
 71
3
 72
11
 73
7
 74
0
 42
0.0000001
 43
0.0000001
 44
0.0000000001
 40
0.0
 40
0.0
 40
0.0
 40
0.0
 40
0.2883671583
 40
0.5553852791
 40
0.7902445524
 40
1.0
 40
1.0
 40
1.0
 40
1.0
 10
486.9688945196
 20
1074.9760432845
 30
0.0
 10
486.9688945196
 20
1075.0149639906
 30
0.0
 10
486.9584548596
 20
1075.0904223147
 30
0.0
 10
486.912782548
 20
1075.1887380974
 30
0.0
 10
486.8424220021
 20
1075.2581152361
 30
0.0
 10
486.7816948665
 20
1075.2760442495
 30
0.0
 10
486.753384326
 20
1075.2760432845
 30
0.0
  0
SPLINE
  5
3A9
100
AcDbEntity
  8
0
100
AcDbSpline
 62
7
  6
BYLAYER
 70
0
 71
3
 72
8
 73
4
 74
0
 42
0.0000001
 43
0.0000001
 44
0.0000000001
 40
0.0
 40
0.0
 40
0.0
 40
0.0
 40
1.0
 40
1.0
 40
1.0
 40
1.0
 10
369.4689467765
 20
86.435943618
 30
0.0
 10
369.4782436282
 20
86.4834764171
 30
0.0
 10
369.497394641
 20
86.5299509555
 30
0.0
 10
369.5240488411
 20
86.5703904419
 30
0.0
  0
SPLINE
  5
3AA
100
AcDbEntity
  8
0
100
AcDbSpline
 62
7
  6
BYLAYER
 70
0
 71
3
 72
9
 73
5
 74
0
 42
0.0000001
 43
0.0000001
 44
0.0000000001
 40
0.0
 40
0.0
 40
0.0
 40
0.0
 40
0.2423551149
 40
1.0
 40
1.0
 40
1.0
 40
1.0
 10
369.4627192804
 20
86.3912456483
 30
0.0
 10
369.462728299
 20
86.4227313178
 30
0.0
 10
369.4575232988
 20
86.5526325978
 30
0.0
 10
369.432534147
 20
86.6814324928
 30
0.0
 10
369.4050011635
 20
86.775933042
 30
0.0
  0
SPLINE
  5
3AB
100
AcDbEntity
  8
0
100
AcDbSpline
 62
7
  6
BYLAYER
 70
0
 71
3
 72
11
 73
7
 74
0
 42
0.0000001
 43
0.0000001
 44
0.0000000001
 40
0.0
 40
0.0
 40
0.0
 40
0.0
 40
0.2455000837
 40
0.4935877931
 40
0.7454492783
 40
1.0
 40
1.0
 40
1.0
 40
1.0
 10
321.441706298
 20
83.776100126
 30
0.0
 10
321.3178544031
 20
83.7784703513
 30
0.0
 10
321.0670019542
 20
83.8346968149
 30
0.0
 10
320.7538267104
 20
84.0597649432
 30
0.0
 10
320.5458534679
 20
84.3893587911
 30
0.0
 10
320.4976193001
 20
84.6474917969
 30
0.0
 10
320.4976193001
 20
84.775933146
 30
0.0
  0
SPLINE
  5
3AC
100
AcDbEntity
  8
0
100
AcDbSpline
 62
7
  6
BYLAYER
 70
0
 71
3
 72
11
 73
7
 74
0
 42
0.0000001
 43
0.0000001
 44
0.0000000001
 40
0.0
 40
0.0
 40
0.0
 40
0.0
 40
0.2370154222
 40
0.4817461593
 40
0.7371748139
 40
1.0
 40
1.0
 40
1.0
 40
1.0
 10
324.6096694588
 20
83.775933146
 30
0.0
 10
324.7265557415
 20
83.775933146
 30
0.0
 10
324.9670971912
 20
83.8302018813
 30
0.0
 10
325.2638857462
 20
84.0568489003
 30
0.0
 10
325.4591693265
 20
84.3883512538
 30
0.0
 10
325.5040966498
 20
84.6463185466
 30
0.0
 10
325.5040966498
 20
84.775933146
 30
0.0
  0
SPLINE
  5
3AD
100
AcDbEntity
  8
0
100
AcDbSpline
 62
7
  6
BYLAYER
 70
0
 71
3
 72
11
 73
7
 74
0
 42
0.0000001
 43
0.0000001
 44
0.0000000001
 40
0.0
 40
0.0
 40
0.0
 40
0.0
 40
0.2429770416
 40
0.4900484521
 40
0.7429376142
 40
1.0
 40
1.0
 40
1.0
 40
1.0
 10
324.9513093685
 20
83.775933146
 30
0.0
 10
325.0744018375
 20
83.7759402942
 30
0.0
 10
325.3255675307
 20
83.8286885329
 30
0.0
 10
325.6402645234
 20
84.0526126457
 30
0.0
 10
325.8498621024
 20
84.3847142914
 30
0.0
 10
325.8985418632
 20
84.645705024
 30
0.0
 10
325.8985426825
 20
84.775933146
 30
0.0
  0
SPLINE
  5
3AE
100
AcDbEntity
  8
0
100
AcDbSpline
 62
7
  6
BYLAYER
 70
0
 71
3
 72
11
 73
7
 74
0
 42
0.0000001
 43
0.0000001
 44
0.0000000001
 40
0.0
 40
0.0
 40
0.0
 40
0.0
 40
0.2570642536
 40
0.5099515937
 40
0.7570212812
 40
1.0
 40
1.0
 40
1.0
 40
1.0
 10
364.0040777199
 20
84.775933146
 30
0.0
 10
364.0040785513
 20
84.6457040627
 30
0.0
 10
364.0527585143
 20
84.3847131578
 30
0.0
 10
364.2623563263
 20
84.0526128221
 30
0.0
 10
364.5770519443
 20
83.8286887062
 30
0.0
 10
364.8282177783
 20
83.775940206
 30
0.0
 10
364.9513111113
 20
83.775933146
 30
0.0
  0
SPLINE
  5
3AF
100
AcDbEntity
  8
0
100
AcDbSpline
 62
7
  6
BYLAYER
 70
0
 71
3
 72
11
 73
7
 74
0
 42
0.0000001
 43
0.0000001
 44
0.0000000001
 40
0.0
 40
0.0
 40
0.0
 40
0.0
 40
0.2627344212
 40
0.5180975916
 40
0.762900959
 40
1.0
 40
1.0
 40
1.0
 40
1.0
 10
364.3985238408
 20
84.775933146
 30
0.0
 10
364.3985238408
 20
84.6463633785
 30
0.0
 10
364.4434199427
 20
84.3884753547
 30
0.0
 10
364.6386206426
 20
84.0569802176
 30
0.0
 10
364.9354029863
 20
83.8302422664
 30
0.0
 10
365.1760235752
 20
83.775933146
 30
0.0
 10
365.2929510318
 20
83.775933146
 30
0.0
  0
SPLINE
  5
3B0
100
AcDbEntity
  8
0
100
AcDbSpline
 62
7
  6
BYLAYER
 70
0
 71
3
 72
11
 73
7
 74
0
 42
0.0000001
 43
0.0000001
 44
0.0000000001
 40
0.0
 40
0.0
 40
0.0
 40
0.0
 40
0.2544641196
 40
0.5062554122
 40
0.7544085347
 40
1.0
 40
1.0
 40
1.0
 40
1.0
 10
369.4050011905
 20
84.775933146
 30
0.0
 10
369.4050011905
 20
84.6475120935
 30
0.0
 10
369.3567836097
 20
84.3894118725
 30
0.0
 10
369.148821246
 20
84.0597860295
 30
0.0
 10
368.8355507463
 20
83.8346380554
 30
0.0
 10
368.5845530756
 20
83.7784302406
 30
0.0
 10
368.4606318109
 20
83.776094914
 30
0.0
  0
SPLINE
  5
3B1
100
AcDbEntity
  8
0
100
AcDbSpline
 62
7
  6
BYLAYER
 70
0
 71
3
 72
9
 73
5
 74
0
 42
0.0000001
 43
0.0000001
 44
0.0000000001
 40
0.0
 40
0.0
 40
0.0
 40
0.0
 40
0.2703934266
 40
1.0
 40
1.0
 40
1.0
 40
1.0
 10
369.4050011905
 20
86.775933146
 30
0.0
 10
369.4181655069
 20
86.7589958151
 30
0.0
 10
369.4648643867
 20
86.6949176152
 30
0.0
 10
369.5038688939
 20
86.6246420796
 30
0.0
 10
369.524048841
 20
86.570390442
 30
0.0
  0
SPLINE
  5
3B2
100
AcDbEntity
  8
0
100
AcDbSpline
 62
7
  6
BYLAYER
 70
0
 71
3
 72
11
 73
7
 74
0
 42
0.0000001
 43
0.0000001
 44
0.0000000001
 40
0.0
 40
0.0
 40
0.0
 40
0.0
 40
0.2454646712
 40
0.49351694
 40
0.7453862235
 40
1.0
 40
1.0
 40
1.0
 40
1.0
 10
367.4042313674
 20
83.775933146
 30
0.0
 10
367.5294866843
 20
83.775933146
 30
0.0
 10
367.784236727
 20
83.828670261
 30
0.0
 10
368.1037132661
 20
84.0527423677
 30
0.0
 10
368.3163828927
 20
84.3848630619
 30
0.0
 10
368.3657553151
 20
84.6460092384
 30
0.0
 10
368.3657553151
 20
84.775933146
 30
0.0
  0
SPLINE
  5
3B3
100
AcDbEntity
  8
0
100
AcDbSpline
 62
7
  6
BYLAYER
 70
0
 71
3
 72
9
 73
5
 74
0
 42
0.0000001
 43
0.0000001
 44
0.0000000001
 40
0.0
 40
0.0
 40
0.0
 40
0.0
 40
0.2799425407
 40
1.0
 40
1.0
 40
1.0
 40
1.0
 10
369.5240487276
 20
86.5703902363
 30
0.0
 10
369.5290748689
 20
86.5554582104
 30
0.0
 10
369.5445401952
 20
86.5016001957
 30
0.0
 10
369.5476524813
 20
86.4421721264
 30
0.0
 10
369.5362185127
 20
86.403293581
 30
0.0
  0
SPLINE
  5
3B4
100
AcDbEntity
  8
0
100
AcDbSpline
 62
7
  6
BYLAYER
 70
0
 71
3
 72
8
 73
4
 74
0
 42
0.0000001
 43
0.0000001
 44
0.0000000001
 40
0.0
 40
0.0
 40
0.0
 40
0.0
 40
1.0
 40
1.0
 40
1.0
 40
1.0
 10
369.5362185127
 20
86.403293581
 30
0.0
 10
369.5312244087
 20
86.3863122943
 30
0.0
 10
369.5235384542
 20
86.3698780866
 30
0.0
 10
369.5135090083
 20
86.3552933211
 30
0.0
  0
SPLINE
  5
3B5
100
AcDbEntity
  8
0
100
AcDbSpline
 62
7
  6
BYLAYER
 70
0
 71
3
 72
8
 73
4
 74
0
 42
0.0000001
 43
0.0000001
 44
0.0000000001
 40
0.0
 40
0.0
 40
0.0
 40
0.0
 40
1.0
 40
1.0
 40
1.0
 40
1.0
 10
369.5135090083
 20
86.3552933211
 30
0.0
 10
369.5004690773
 20
86.3363307243
 30
0.0
 10
369.4828945586
 20
86.3199871412
 30
0.0
 10
369.4633221554
 20
86.3078817329
 30
0.0
  0
SPLINE
  5
3B6
100
AcDbEntity
  8
0
100
AcDbSpline
 62
7
  6
BYLAYER
 70
0
 71
3
 72
8
 73
4
 74
0
 42
0.0000001
 43
0.0000001
 44
0.0000000001
 40
0.0
 40
0.0
 40
0.0
 40
0.0
 40
1.0
 40
1.0
 40
1.0
 40
1.0
 10
369.5665497217
 20
86.775933146
 30
0.0
 10
369.5665497217
 20
86.7059695618
 30
0.0
 10
369.5518812974
 20
86.6345796739
 30
0.0
 10
369.524048841
 20
86.570390442
 30
0.0
  0
SPLINE
  5
3B7
100
AcDbEntity
  8
0
100
AcDbSpline
 62
7
  6
BYLAYER
 70
0
 71
3
 72
9
 73
5
 74
0
 42
0.0000001
 43
0.0000001
 44
0.0000000001
 40
0.0
 40
0.0
 40
0.0
 40
0.0
 40
0.2581441243
 40
1.0
 40
1.0
 40
1.0
 40
1.0
 10
320.4976193379
 20
86.7759330002
 30
0.0
 10
320.4882397306
 20
86.7437396778
 30
0.0
 10
320.4558583618
 20
86.6179527141
 30
0.0
 10
320.4398747454
 20
86.4876233073
 30
0.0
 10
320.4399012085
 20
86.3912592237
 30
0.0
  0
SPLINE
  5
3B8
100
AcDbEntity
  8
0
100
AcDbSpline
 62
7
  6
BYLAYER
 70
0
 71
3
 72
8
 73
4
 74
0
 42
0.0000001
 43
0.0000001
 44
0.0000000001
 40
0.0
 40
0.0
 40
0.0
 40
0.0
 40
1.0
 40
1.0
 40
1.0
 40
1.0
 10
320.3785716495
 20
86.5703904419
 30
0.0
 10
320.4132812701
 20
86.517729352
 30
0.0
 10
320.4353850618
 20
86.4541952595
 30
0.0
 10
320.4395109184
 20
86.3912593758
 30
0.0
  0
SPLINE
  5
3B9
100
AcDbEntity
  8
0
100
AcDbSpline
 62
7
  6
BYLAYER
 70
0
 71
3
 72
9
 73
5
 74
0
 42
0.0000001
 43
0.0000001
 44
0.0000000001
 40
0.0
 40
0.0
 40
0.0
 40
0.0
 40
0.27038548
 40
1.0
 40
1.0
 40
1.0
 40
1.0
 10
320.4976193001
 20
86.775933146
 30
0.0
 10
320.4844553515
 20
86.7589962956
 30
0.0
 10
320.4377521504
 20
86.6949210608
 30
0.0
 10
320.3987518477
 20
86.6246427317
 30
0.0
 10
320.3785716496
 20
86.570390442
 30
0.0
  0
SPLINE
  5
3BA
100
AcDbEntity
  8
0
100
AcDbSpline
 62
7
  6
BYLAYER
 70
0
 71
3
 72
8
 73
4
 74
0
 42
0.0000001
 43
0.0000001
 44
0.0000000001
 40
0.0
 40
0.0
 40
0.0
 40
0.0
 40
1.0
 40
1.0
 40
1.0
 40
1.0
 10
320.3785716496
 20
86.570390442
 30
0.0
 10
320.3507391932
 20
86.6345796739
 30
0.0
 10
320.3360707689
 20
86.7059695618
 30
0.0
 10
320.3360707689
 20
86.775933146
 30
0.0
  0
SPLINE
  5
3BB
100
AcDbEntity
  8
0
100
AcDbSpline
 62
7
  6
BYLAYER
 70
0
 71
3
 72
9
 73
5
 74
0
 42
0.0000001
 43
0.0000001
 44
0.0000000001
 40
0.0
 40
0.0
 40
0.0
 40
0.0
 40
0.2666839678
 40
1.0
 40
1.0
 40
1.0
 40
1.0
 10
320.4398541873
 20
86.3075393099
 30
0.0
 10
320.4306228228
 20
86.3132035801
 30
0.0
 10
320.3978185009
 20
86.3373868316
 30
0.0
 10
320.3750300843
 20
86.3742587246
 30
0.0
 10
320.3665460602
 20
86.4028062487
 30
0.0
  0
SPLINE
  5
3BC
100
AcDbEntity
  8
0
100
AcDbSpline
 62
7
  6
BYLAYER
 70
0
 71
3
 72
9
 73
5
 74
0
 42
0.0000001
 43
0.0000001
 44
0.0000000001
 40
0.0
 40
0.0
 40
0.0
 40
0.0
 40
0.2268944865
 40
1.0
 40
1.0
 40
1.0
 40
1.0
 10
320.3665460602
 20
86.4028062487
 30
0.0
 10
320.3628906847
 20
86.4151060628
 30
0.0
 10
320.3527180544
 20
86.4711640995
 30
0.0
 10
320.3646240972
 20
86.5289534648
 30
0.0
 10
320.3785717689
 20
86.5703902256
 30
0.0
  0
SPLINE
  5
3BD
100
AcDbEntity
  8
0
100
AcDbSpline
 62
7
  6
BYLAYER
 70
0
 71
3
 72
11
 73
7
 74
0
 42
0.0000001
 43
0.0000001
 44
0.0000000001
 40
0.0
 40
0.0
 40
0.0
 40
0.0
 40
0.2545253123
 40
0.5063269197
 40
0.7544493833
 40
1.0
 40
1.0
 40
1.0
 40
1.0
 10
321.5368651755
 20
84.775933146
 30
0.0
 10
321.5368651755
 20
84.6460544047
 30
0.0
 10
321.5862025672
 20
84.3849902886
 30
0.0
 10
321.7987830902
 20
84.052872792
 30
0.0
 10
322.1182579006
 20
83.8287086233
 30
0.0
 10
322.3730899741
 20
83.775933146
 30
0.0
 10
322.4983891232
 20
83.775933146
 30
0.0
  0
SPLINE
  5
3BE
100
AcDbEntity
  8
0
100
AcDbSpline
 62
7
  6
BYLAYER
 70
0
 71
3
 72
9
 73
5
 74
0
 42
0.0000001
 43
0.0000001
 44
0.0000000001
 40
0.0
 40
0.0
 40
0.0
 40
0.0
 40
0.2423551149
 40
1.0
 40
1.0
 40
1.0
 40
1.0
 10
517.111850169
 20
86.3912456481
 30
0.0
 10
517.1118591876
 20
86.4227313176
 30
0.0
 10
517.1066541873
 20
86.5526325977
 30
0.0
 10
517.0816650355
 20
86.6814324927
 30
0.0
 10
517.054132052
 20
86.775933042
 30
0.0
  0
SPLINE
  5
3BF
100
AcDbEntity
  8
0
100
AcDbSpline
 62
7
  6
BYLAYER
 70
0
 71
3
 72
8
 73
4
 74
0
 42
0.0000001
 43
0.0000001
 44
0.0000000001
 40
0.0
 40
0.0
 40
0.0
 40
0.0
 40
1.0
 40
1.0
 40
1.0
 40
1.0
 10
517.118077665
 20
86.435943618
 30
0.0
 10
517.1273745167
 20
86.4834764171
 30
0.0
 10
517.1465255295
 20
86.5299509555
 30
0.0
 10
517.1731797296
 20
86.5703904419
 30
0.0
  0
SPLINE
  5
3C0
100
AcDbEntity
  8
0
100
AcDbSpline
 62
7
  6
BYLAYER
 70
0
 71
3
 72
11
 73
7
 74
0
 42
0.0000001
 43
0.0000001
 44
0.0000000001
 40
0.0
 40
0.0
 40
0.0
 40
0.0
 40
0.2455000837
 40
0.4935877931
 40
0.7454492783
 40
1.0
 40
1.0
 40
1.0
 40
1.0
 10
469.0908371866
 20
83.776100126
 30
0.0
 10
468.9669852916
 20
83.7784703513
 30
0.0
 10
468.7161328427
 20
83.8346968149
 30
0.0
 10
468.4029575989
 20
84.0597649432
 30
0.0
 10
468.1949843564
 20
84.3893587911
 30
0.0
 10
468.1467501886
 20
84.6474917969
 30
0.0
 10
468.1467501886
 20
84.775933146
 30
0.0
  0
SPLINE
  5
3C1
100
AcDbEntity
  8
0
100
AcDbSpline
 62
7
  6
BYLAYER
 70
0
 71
3
 72
11
 73
7
 74
0
 42
0.0000001
 43
0.0000001
 44
0.0000000001
 40
0.0
 40
0.0
 40
0.0
 40
0.0
 40
0.2370154222
 40
0.4817461593
 40
0.7371748139
 40
1.0
 40
1.0
 40
1.0
 40
1.0
 10
472.2588003473
 20
83.775933146
 30
0.0
 10
472.37568663
 20
83.775933146
 30
0.0
 10
472.6162280797
 20
83.8302018813
 30
0.0
 10
472.9130166347
 20
84.0568489003
 30
0.0
 10
473.108300215
 20
84.3883512538
 30
0.0
 10
473.1532275383
 20
84.6463185466
 30
0.0
 10
473.1532275383
 20
84.775933146
 30
0.0
  0
SPLINE
  5
3C2
100
AcDbEntity
  8
0
100
AcDbSpline
 62
7
  6
BYLAYER
 70
0
 71
3
 72
11
 73
7
 74
0
 42
0.0000001
 43
0.0000001
 44
0.0000000001
 40
0.0
 40
0.0
 40
0.0
 40
0.0
 40
0.2429770416
 40
0.4900484521
 40
0.7429376142
 40
1.0
 40
1.0
 40
1.0
 40
1.0
 10
472.600440257
 20
83.775933146
 30
0.0
 10
472.7235327261
 20
83.7759402942
 30
0.0
 10
472.9746984193
 20
83.8286885329
 30
0.0
 10
473.2893954119
 20
84.0526126457
 30
0.0
 10
473.4989929909
 20
84.3847142914
 30
0.0
 10
473.5476727517
 20
84.645705024
 30
0.0
 10
473.547673571
 20
84.775933146
 30
0.0
  0
SPLINE
  5
3C3
100
AcDbEntity
  8
0
100
AcDbSpline
 62
7
  6
BYLAYER
 70
0
 71
3
 72
11
 73
7
 74
0
 42
0.0000001
 43
0.0000001
 44
0.0000000001
 40
0.0
 40
0.0
 40
0.0
 40
0.0
 40
0.2570642536
 40
0.5099515937
 40
0.7570212812
 40
1.0
 40
1.0
 40
1.0
 40
1.0
 10
511.6532086084
 20
84.775933146
 30
0.0
 10
511.6532094398
 20
84.6457040627
 30
0.0
 10
511.7018894028
 20
84.3847131578
 30
0.0
 10
511.9114872149
 20
84.0526128221
 30
0.0
 10
512.2261828328
 20
83.8286887062
 30
0.0
 10
512.4773486668
 20
83.775940206
 30
0.0
 10
512.6004419998
 20
83.775933146
 30
0.0
  0
SPLINE
  5
3C4
100
AcDbEntity
  8
0
100
AcDbSpline
 62
7
  6
BYLAYER
 70
0
 71
3
 72
11
 73
7
 74
0
 42
0.0000001
 43
0.0000001
 44
0.0000000001
 40
0.0
 40
0.0
 40
0.0
 40
0.0
 40
0.2627344212
 40
0.5180975916
 40
0.762900959
 40
1.0
 40
1.0
 40
1.0
 40
1.0
 10
512.0476547293
 20
84.775933146
 30
0.0
 10
512.0476547293
 20
84.6463633785
 30
0.0
 10
512.0925508312
 20
84.3884753547
 30
0.0
 10
512.2877515311
 20
84.0569802176
 30
0.0
 10
512.5845338748
 20
83.8302422664
 30
0.0
 10
512.8251544637
 20
83.775933146
 30
0.0
 10
512.9420819203
 20
83.775933146
 30
0.0
  0
SPLINE
  5
3C5
100
AcDbEntity
  8
0
100
AcDbSpline
 62
7
  6
BYLAYER
 70
0
 71
3
 72
11
 73
7
 74
0
 42
0.0000001
 43
0.0000001
 44
0.0000000001
 40
0.0
 40
0.0
 40
0.0
 40
0.0
 40
0.2544641196
 40
0.5062554122
 40
0.7544085347
 40
1.0
 40
1.0
 40
1.0
 40
1.0
 10
517.054132079
 20
84.775933146
 30
0.0
 10
517.054132079
 20
84.6475120935
 30
0.0
 10
517.0059144982
 20
84.3894118725
 30
0.0
 10
516.7979521345
 20
84.0597860295
 30
0.0
 10
516.4846816349
 20
83.8346380554
 30
0.0
 10
516.2336839641
 20
83.7784302406
 30
0.0
 10
516.1097626994
 20
83.776094914
 30
0.0
  0
SPLINE
  5
3C6
100
AcDbEntity
  8
0
100
AcDbSpline
 62
7
  6
BYLAYER
 70
0
 71
3
 72
9
 73
5
 74
0
 42
0.0000001
 43
0.0000001
 44
0.0000000001
 40
0.0
 40
0.0
 40
0.0
 40
0.0
 40
0.2799425407
 40
1.0
 40
1.0
 40
1.0
 40
1.0
 10
517.1731796161
 20
86.5703902363
 30
0.0
 10
517.1782057574
 20
86.5554582104
 30
0.0
 10
517.1936710837
 20
86.5016001957
 30
0.0
 10
517.1967833698
 20
86.4421721264
 30
0.0
 10
517.1853494012
 20
86.403293581
 30
0.0
  0
SPLINE
  5
3C7
100
AcDbEntity
  8
0
100
AcDbSpline
 62
7
  6
BYLAYER
 70
0
 71
3
 72
8
 73
4
 74
0
 42
0.0000001
 43
0.0000001
 44
0.0000000001
 40
0.0
 40
0.0
 40
0.0
 40
0.0
 40
1.0
 40
1.0
 40
1.0
 40
1.0
 10
517.1853494012
 20
86.403293581
 30
0.0
 10
517.1803552972
 20
86.3863122943
 30
0.0
 10
517.1726693427
 20
86.3698780866
 30
0.0
 10
517.1626398968
 20
86.3552933211
 30
0.0
  0
SPLINE
  5
3C8
100
AcDbEntity
  8
0
100
AcDbSpline
 62
7
  6
BYLAYER
 70
0
 71
3
 72
8
 73
4
 74
0
 42
0.0000001
 43
0.0000001
 44
0.0000000001
 40
0.0
 40
0.0
 40
0.0
 40
0.0
 40
1.0
 40
1.0
 40
1.0
 40
1.0
 10
517.1626398968
 20
86.3552933211
 30
0.0
 10
517.1495999658
 20
86.3363307243
 30
0.0
 10
517.1320254471
 20
86.3199871412
 30
0.0
 10
517.1124530439
 20
86.3078817329
 30
0.0
  0
SPLINE
  5
3C9
100
AcDbEntity
  8
0
100
AcDbSpline
 62
7
  6
BYLAYER
 70
0
 71
3
 72
8
 73
4
 74
0
 42
0.0000001
 43
0.0000001
 44
0.0000000001
 40
0.0
 40
0.0
 40
0.0
 40
0.0
 40
1.0
 40
1.0
 40
1.0
 40
1.0
 10
517.2156806102
 20
86.775933146
 30
0.0
 10
517.2156806102
 20
86.7059695618
 30
0.0
 10
517.2010121859
 20
86.6345796739
 30
0.0
 10
517.1731797295
 20
86.570390442
 30
0.0
  0
SPLINE
  5
3CA
100
AcDbEntity
  8
0
100
AcDbSpline
 62
7
  6
BYLAYER
 70
0
 71
3
 72
9
 73
5
 74
0
 42
0.0000001
 43
0.0000001
 44
0.0000000001
 40
0.0
 40
0.0
 40
0.0
 40
0.0
 40
0.2703934266
 40
1.0
 40
1.0
 40
1.0
 40
1.0
 10
517.054132079
 20
86.775933146
 30
0.0
 10
517.0672963954
 20
86.7589958151
 30
0.0
 10
517.1139952752
 20
86.6949176152
 30
0.0
 10
517.1529997824
 20
86.6246420796
 30
0.0
 10
517.1731797295
 20
86.570390442
 30
0.0
  0
SPLINE
  5
3CB
100
AcDbEntity
  8
0
100
AcDbSpline
 62
7
  6
BYLAYER
 70
0
 71
3
 72
11
 73
7
 74
0
 42
0.0000001
 43
0.0000001
 44
0.0000000001
 40
0.0
 40
0.0
 40
0.0
 40
0.0
 40
0.2454646712
 40
0.49351694
 40
0.7453862235
 40
1.0
 40
1.0
 40
1.0
 40
1.0
 10
515.0533622559
 20
83.775933146
 30
0.0
 10
515.1786175728
 20
83.775933146
 30
0.0
 10
515.4333676155
 20
83.828670261
 30
0.0
 10
515.7528441546
 20
84.0527423677
 30
0.0
 10
515.9655137812
 20
84.3848630619
 30
0.0
 10
516.0148862036
 20
84.6460092384
 30
0.0
 10
516.0148862036
 20
84.775933146
 30
0.0
  0
SPLINE
  5
3CC
100
AcDbEntity
  8
0
100
AcDbSpline
 62
7
  6
BYLAYER
 70
0
 71
3
 72
9
 73
5
 74
0
 42
0.0000001
 43
0.0000001
 44
0.0000000001
 40
0.0
 40
0.0
 40
0.0
 40
0.0
 40
0.2581441243
 40
1.0
 40
1.0
 40
1.0
 40
1.0
 10
468.1467502264
 20
86.7759330002
 30
0.0
 10
468.1373706191
 20
86.7437396778
 30
0.0
 10
468.1049892503
 20
86.6179527141
 30
0.0
 10
468.0890056339
 20
86.4876233073
 30
0.0
 10
468.0890320971
 20
86.3912592236
 30
0.0
  0
SPLINE
  5
3CD
100
AcDbEntity
  8
0
100
AcDbSpline
 62
7
  6
BYLAYER
 70
0
 71
3
 72
8
 73
4
 74
0
 42
0.0000001
 43
0.0000001
 44
0.0000000001
 40
0.0
 40
0.0
 40
0.0
 40
0.0
 40
1.0
 40
1.0
 40
1.0
 40
1.0
 10
468.0277025381
 20
86.5703904419
 30
0.0
 10
468.0624121586
 20
86.517729352
 30
0.0
 10
468.0845159503
 20
86.4541952595
 30
0.0
 10
468.0886418069
 20
86.3912593758
 30
0.0
  0
SPLINE
  5
3CE
100
AcDbEntity
  8
0
100
AcDbSpline
 62
7
  6
BYLAYER
 70
0
 71
3
 72
9
 73
5
 74
0
 42
0.0000001
 43
0.0000001
 44
0.0000000001
 40
0.0
 40
0.0
 40
0.0
 40
0.0
 40
0.27038548
 40
1.0
 40
1.0
 40
1.0
 40
1.0
 10
468.1467501886
 20
86.775933146
 30
0.0
 10
468.13358624
 20
86.7589962956
 30
0.0
 10
468.0868830389
 20
86.6949210608
 30
0.0
 10
468.0478827362
 20
86.6246427317
 30
0.0
 10
468.0277025381
 20
86.570390442
 30
0.0
  0
SPLINE
  5
3CF
100
AcDbEntity
  8
0
100
AcDbSpline
 62
7
  6
BYLAYER
 70
0
 71
3
 72
8
 73
4
 74
0
 42
0.0000001
 43
0.0000001
 44
0.0000000001
 40
0.0
 40
0.0
 40
0.0
 40
0.0
 40
1.0
 40
1.0
 40
1.0
 40
1.0
 10
468.0277025381
 20
86.570390442
 30
0.0
 10
467.9998700817
 20
86.6345796739
 30
0.0
 10
467.9852016574
 20
86.7059695618
 30
0.0
 10
467.9852016574
 20
86.775933146
 30
0.0
  0
SPLINE
  5
3D0
100
AcDbEntity
  8
0
100
AcDbSpline
 62
7
  6
BYLAYER
 70
0
 71
3
 72
9
 73
5
 74
0
 42
0.0000001
 43
0.0000001
 44
0.0000000001
 40
0.0
 40
0.0
 40
0.0
 40
0.0
 40
0.2666839678
 40
1.0
 40
1.0
 40
1.0
 40
1.0
 10
468.0889850758
 20
86.3075393099
 30
0.0
 10
468.0797537113
 20
86.3132035801
 30
0.0
 10
468.0469493894
 20
86.3373868316
 30
0.0
 10
468.0241609728
 20
86.3742587246
 30
0.0
 10
468.0156769487
 20
86.4028062487
 30
0.0
  0
SPLINE
  5
3D1
100
AcDbEntity
  8
0
100
AcDbSpline
 62
7
  6
BYLAYER
 70
0
 71
3
 72
9
 73
5
 74
0
 42
0.0000001
 43
0.0000001
 44
0.0000000001
 40
0.0
 40
0.0
 40
0.0
 40
0.0
 40
0.2268944865
 40
1.0
 40
1.0
 40
1.0
 40
1.0
 10
468.0156769487
 20
86.4028062487
 30
0.0
 10
468.0120215732
 20
86.4151060628
 30
0.0
 10
468.001848943
 20
86.4711640995
 30
0.0
 10
468.0137549857
 20
86.5289534648
 30
0.0
 10
468.0277026575
 20
86.5703902256
 30
0.0
  0
SPLINE
  5
3D2
100
AcDbEntity
  8
0
100
AcDbSpline
 62
7
  6
BYLAYER
 70
0
 71
3
 72
11
 73
7
 74
0
 42
0.0000001
 43
0.0000001
 44
0.0000000001
 40
0.0
 40
0.0
 40
0.0
 40
0.0
 40
0.2545253123
 40
0.5063269197
 40
0.7544493833
 40
1.0
 40
1.0
 40
1.0
 40
1.0
 10
469.185996064
 20
84.775933146
 30
0.0
 10
469.185996064
 20
84.6460544047
 30
0.0
 10
469.2353334557
 20
84.3849902886
 30
0.0
 10
469.4479139787
 20
84.052872792
 30
0.0
 10
469.7673887891
 20
83.8287086233
 30
0.0
 10
470.0222208626
 20
83.775933146
 30
0.0
 10
470.1475200117
 20
83.775933146
 30
0.0
  0
SPLINE
  5
3D3
100
AcDbEntity
  8
0
100
AcDbSpline
 62
7
  6
BYLAYER
 70
0
 71
3
 72
8
 73
4
 74
0
 42
0.0000001
 43
0.0000001
 44
0.0000000001
 40
0.0
 40
0.0
 40
0.0
 40
0.0
 40
1.0
 40
1.0
 40
1.0
 40
1.0
 10
320.4344015251
 20
1064.6160328125
 30
0.0
 10
320.4251046734
 20
1064.5685000135
 30
0.0
 10
320.4059536607
 20
1064.5220254751
 30
0.0
 10
320.3792994606
 20
1064.4815859887
 30
0.0
  0
SPLINE
  5
3D4
100
AcDbEntity
  8
0
100
AcDbSpline
 62
7
  6
BYLAYER
 70
0
 71
3
 72
9
 73
5
 74
0
 42
0.0000001
 43
0.0000001
 44
0.0000000001
 40
0.0
 40
0.0
 40
0.0
 40
0.0
 40
0.2581441241
 40
1.0
 40
1.0
 40
1.0
 40
1.0
 10
369.4057289637
 20
1064.2760434303
 30
0.0
 10
369.4151085708
 20
1064.308236752
 30
0.0
 10
369.447489939
 20
1064.4340237129
 30
0.0
 10
369.4634735555
 20
1064.5643531165
 30
0.0
 10
369.4634470931
 20
1064.660717198
 30
0.0
  0
SPLINE
  5
3D5
100
AcDbEntity
  8
0
100
AcDbSpline
 62
7
  6
BYLAYER
 70
0
 71
3
 72
8
 73
4
 74
0
 42
0.0000001
 43
0.0000001
 44
0.0000000001
 40
0.0
 40
0.0
 40
0.0
 40
0.0
 40
1.0
 40
1.0
 40
1.0
 40
1.0
 10
369.5247766521
 20
1064.4815859886
 30
0.0
 10
369.4900670331
 20
1064.5342470762
 30
0.0
 10
369.4679632418
 20
1064.5977811652
 30
0.0
 10
369.4638373838
 20
1064.6607170459
 30
0.0
  0
SPLINE
  5
3D6
100
AcDbEntity
  8
0
100
AcDbSpline
 62
7
  6
BYLAYER
 70
0
 71
3
 72
9
 73
5
 74
0
 42
0.0000001
 43
0.0000001
 44
0.0000000001
 40
0.0
 40
0.0
 40
0.0
 40
0.0
 40
0.27038548
 40
1.0
 40
1.0
 40
1.0
 40
1.0
 10
369.4057290015
 20
1064.2760432845
 30
0.0
 10
369.4188929501
 20
1064.2929801349
 30
0.0
 10
369.4655961512
 20
1064.3570553697
 30
0.0
 10
369.5045964539
 20
1064.4273336988
 30
0.0
 10
369.524776652
 20
1064.4815859885
 30
0.0
  0
SPLINE
  5
3D7
100
AcDbEntity
  8
0
100
AcDbSpline
 62
7
  6
BYLAYER
 70
0
 71
3
 72
9
 73
5
 74
0
 42
0.0000001
 43
0.0000001
 44
0.0000000001
 40
0.0
 40
0.0
 40
0.0
 40
0.0
 40
0.2666839678
 40
1.0
 40
1.0
 40
1.0
 40
1.0
 10
369.4634941143
 20
1064.7444371207
 30
0.0
 10
369.4727254788
 20
1064.7387728504
 30
0.0
 10
369.5055298007
 20
1064.714589599
 30
0.0
 10
369.5283182173
 20
1064.6777177059
 30
0.0
 10
369.5368022414
 20
1064.6491701819
 30
0.0
  0
SPLINE
  5
3D8
100
AcDbEntity
  8
0
100
AcDbSpline
 62
7
  6
BYLAYER
 70
0
 71
3
 72
9
 73
5
 74
0
 42
0.0000001
 43
0.0000001
 44
0.0000000001
 40
0.0
 40
0.0
 40
0.0
 40
0.0
 40
0.2268944865
 40
1.0
 40
1.0
 40
1.0
 40
1.0
 10
369.5368022414
 20
1064.6491701819
 30
0.0
 10
369.5404576169
 20
1064.6368703677
 30
0.0
 10
369.5506302472
 20
1064.580812331
 30
0.0
 10
369.5387242044
 20
1064.5230229658
 30
0.0
 10
369.5247765327
 20
1064.481586205
 30
0.0
  0
SPLINE
  5
3D9
100
AcDbEntity
  8
0
100
AcDbSpline
 62
7
  6
BYLAYER
 70
0
 71
3
 72
8
 73
4
 74
0
 42
0.0000001
 43
0.0000001
 44
0.0000000001
 40
0.0
 40
0.0
 40
0.0
 40
0.0
 40
1.0
 40
1.0
 40
1.0
 40
1.0
 10
369.524776652
 20
1064.4815859885
 30
0.0
 10
369.5526091084
 20
1064.4173967567
 30
0.0
 10
369.5672775327
 20
1064.3460068687
 30
0.0
 10
369.5672775327
 20
1064.2760432845
 30
0.0
  0
SPLINE
  5
3DA
100
AcDbEntity
  8
0
100
AcDbSpline
 62
7
  6
BYLAYER
 70
0
 71
3
 72
9
 73
5
 74
0
 42
0.0000001
 43
0.0000001
 44
0.0000000001
 40
0.0
 40
0.0
 40
0.0
 40
0.0
 40
0.242355115
 40
1.0
 40
1.0
 40
1.0
 40
1.0
 10
320.4406290212
 20
1064.660730782
 30
0.0
 10
320.4406200026
 20
1064.6292451125
 30
0.0
 10
320.4458250029
 20
1064.4993438326
 30
0.0
 10
320.4708141546
 20
1064.3705439377
 30
0.0
 10
320.4983471381
 20
1064.2760433886
 30
0.0
  0
SPLINE
  5
3DB
100
AcDbEntity
  8
0
100
AcDbSpline
 62
7
  6
BYLAYER
 70
0
 71
3
 72
11
 73
7
 74
0
 42
0.0000001
 43
0.0000001
 44
0.0000000001
 40
0.0
 40
0.0
 40
0.0
 40
0.0
 40
0.2545253123
 40
0.5063269197
 40
0.7544493833
 40
1.0
 40
1.0
 40
1.0
 40
1.0
 10
368.3664831261
 20
1066.2760432845
 30
0.0
 10
368.3664831261
 20
1066.4059220259
 30
0.0
 10
368.3171457345
 20
1066.666986142
 30
0.0
 10
368.1045652114
 20
1066.9991036386
 30
0.0
 10
367.7850904011
 20
1067.2232678072
 30
0.0
 10
367.5302583275
 20
1067.2760432845
 30
0.0
 10
367.4049591785
 20
1067.2760432845
 30
0.0
  0
SPLINE
  5
3DC
100
AcDbEntity
  8
0
100
AcDbSpline
 62
7
  6
BYLAYER
 70
0
 71
3
 72
9
 73
5
 74
0
 42
0.0000001
 43
0.0000001
 44
0.0000000001
 40
0.0
 40
0.0
 40
0.0
 40
0.0
 40
0.2799425408
 40
1.0
 40
1.0
 40
1.0
 40
1.0
 10
320.3792995741
 20
1064.4815861942
 30
0.0
 10
320.3742734327
 20
1064.4965182202
 30
0.0
 10
320.3588081064
 20
1064.5503762349
 30
0.0
 10
320.3556958203
 20
1064.6098043041
 30
0.0
 10
320.3671297889
 20
1064.6486828495
 30
0.0
  0
SPLINE
  5
3DD
100
AcDbEntity
  8
0
100
AcDbSpline
 62
7
  6
BYLAYER
 70
0
 71
3
 72
8
 73
4
 74
0
 42
0.0000001
 43
0.0000001
 44
0.0000000001
 40
0.0
 40
0.0
 40
0.0
 40
0.0
 40
1.0
 40
1.0
 40
1.0
 40
1.0
 10
320.3671297889
 20
1064.6486828495
 30
0.0
 10
320.3721238929
 20
1064.6656641362
 30
0.0
 10
320.3798098474
 20
1064.6820983439
 30
0.0
 10
320.3898392933
 20
1064.6966831095
 30
0.0
  0
SPLINE
  5
3DE
100
AcDbEntity
  8
0
100
AcDbSpline
 62
7
  6
BYLAYER
 70
0
 71
3
 72
8
 73
4
 74
0
 42
0.0000001
 43
0.0000001
 44
0.0000000001
 40
0.0
 40
0.0
 40
0.0
 40
0.0
 40
1.0
 40
1.0
 40
1.0
 40
1.0
 10
320.3898392933
 20
1064.6966831095
 30
0.0
 10
320.4028792244
 20
1064.7156457062
 30
0.0
 10
320.420453743
 20
1064.7319892894
 30
0.0
 10
320.4400261462
 20
1064.7440946976
 30
0.0
  0
SPLINE
  5
3DF
100
AcDbEntity
  8
0
100
AcDbSpline
 62
7
  6
BYLAYER
 70
0
 71
3
 72
11
 73
7
 74
0
 42
0.0000001
 43
0.0000001
 44
0.0000000001
 40
0.0
 40
0.0
 40
0.0
 40
0.0
 40
0.2454646712
 40
0.49351694
 40
0.7453862235
 40
1.0
 40
1.0
 40
1.0
 40
1.0
 10
322.4991169342
 20
1067.2760432845
 30
0.0
 10
322.3738616173
 20
1067.2760432845
 30
0.0
 10
322.1191115746
 20
1067.2233061696
 30
0.0
 10
321.7996350355
 20
1066.9992340629
 30
0.0
 10
321.5869654089
 20
1066.6671133687
 30
0.0
 10
321.5375929866
 20
1066.4059671921
 30
0.0
 10
321.5375929866
 20
1066.2760432845
 30
0.0
  0
SPLINE
  5
3E0
100
AcDbEntity
  8
0
100
AcDbSpline
 62
7
  6
BYLAYER
 70
0
 71
3
 72
9
 73
5
 74
0
 42
0.0000001
 43
0.0000001
 44
0.0000000001
 40
0.0
 40
0.0
 40
0.0
 40
0.0
 40
0.2703934266
 40
1.0
 40
1.0
 40
1.0
 40
1.0
 10
320.4983471111
 20
1064.2760432845
 30
0.0
 10
320.4851827947
 20
1064.2929806155
 30
0.0
 10
320.438483915
 20
1064.3570588153
 30
0.0
 10
320.3994794077
 20
1064.4273343509
 30
0.0
 10
320.3792994606
 20
1064.4815859885
 30
0.0
  0
SPLINE
  5
3E1
100
AcDbEntity
  8
0
100
AcDbSpline
 62
7
  6
BYLAYER
 70
0
 71
3
 72
11
 73
7
 74
0
 42
0.0000001
 43
0.0000001
 44
0.0000000001
 40
0.0
 40
0.0
 40
0.0
 40
0.0
 40
0.2544641196
 40
0.5062554122
 40
0.7544085347
 40
1.0
 40
1.0
 40
1.0
 40
1.0
 10
320.4983471111
 20
1066.2760432845
 30
0.0
 10
320.4983471111
 20
1066.4044643371
 30
0.0
 10
320.5465646919
 20
1066.6625645581
 30
0.0
 10
320.7545270557
 20
1066.9921904011
 30
0.0
 10
321.0677975553
 20
1067.2173383751
 30
0.0
 10
321.3187952261
 20
1067.2735461899
 30
0.0
 10
321.4427164907
 20
1067.2758815166
 30
0.0
  0
SPLINE
  5
3E2
100
AcDbEntity
  8
0
100
AcDbSpline
 62
7
  6
BYLAYER
 70
0
 71
3
 72
11
 73
7
 74
0
 42
0.0000001
 43
0.0000001
 44
0.0000000001
 40
0.0
 40
0.0
 40
0.0
 40
0.0
 40
0.2627344212
 40
0.5180975916
 40
0.762900959
 40
1.0
 40
1.0
 40
1.0
 40
1.0
 10
325.5048244608
 20
1066.2760432845
 30
0.0
 10
325.5048244608
 20
1066.4056130521
 30
0.0
 10
325.4599283589
 20
1066.6635010758
 30
0.0
 10
325.2647276591
 20
1066.9949962129
 30
0.0
 10
324.9679453153
 20
1067.2217341642
 30
0.0
 10
324.7273247264
 20
1067.2760432845
 30
0.0
 10
324.6103972698
 20
1067.2760432845
 30
0.0
  0
SPLINE
  5
3E3
100
AcDbEntity
  8
0
100
AcDbSpline
 62
7
  6
BYLAYER
 70
0
 71
3
 72
11
 73
7
 74
0
 42
0.0000001
 43
0.0000001
 44
0.0000000001
 40
0.0
 40
0.0
 40
0.0
 40
0.0
 40
0.2570642536
 40
0.5099515937
 40
0.7570212812
 40
1.0
 40
1.0
 40
1.0
 40
1.0
 10
325.8992705817
 20
1066.2760432845
 30
0.0
 10
325.8992697503
 20
1066.4062723679
 30
0.0
 10
325.8505897874
 20
1066.6672632728
 30
0.0
 10
325.6409919753
 20
1066.9993636085
 30
0.0
 10
325.3262963574
 20
1067.2232877243
 30
0.0
 10
325.0751305233
 20
1067.2760362246
 30
0.0
 10
324.9520371903
 20
1067.2760432845
 30
0.0
  0
SPLINE
  5
3E4
100
AcDbEntity
  8
0
100
AcDbSpline
 62
7
  6
BYLAYER
 70
0
 71
3
 72
11
 73
7
 74
0
 42
0.0000001
 43
0.0000001
 44
0.0000000001
 40
0.0
 40
0.0
 40
0.0
 40
0.0
 40
0.2429770416
 40
0.4900484521
 40
0.7429376142
 40
1.0
 40
1.0
 40
1.0
 40
1.0
 10
364.9520389332
 20
1067.2760432845
 30
0.0
 10
364.8289464641
 20
1067.2760361363
 30
0.0
 10
364.5777807709
 20
1067.2232878976
 30
0.0
 10
364.2630837782
 20
1066.9993637849
 30
0.0
 10
364.0534861992
 20
1066.6672621392
 30
0.0
 10
364.0048064384
 20
1066.4062714066
 30
0.0
 10
364.0048056191
 20
1066.2760432845
 30
0.0
  0
SPLINE
  5
3E5
100
AcDbEntity
  8
0
100
AcDbSpline
 62
7
  6
BYLAYER
 70
0
 71
3
 72
11
 73
7
 74
0
 42
0.0000001
 43
0.0000001
 44
0.0000000001
 40
0.0
 40
0.0
 40
0.0
 40
0.0
 40
0.2370154222
 40
0.4817461593
 40
0.7371748139
 40
1.0
 40
1.0
 40
1.0
 40
1.0
 10
365.2936788428
 20
1067.2760432845
 30
0.0
 10
365.1767925601
 20
1067.2760432845
 30
0.0
 10
364.9362511105
 20
1067.2217745493
 30
0.0
 10
364.6394625555
 20
1066.9951275303
 30
0.0
 10
364.4441789751
 20
1066.6636251768
 30
0.0
 10
364.3992516518
 20
1066.405657884
 30
0.0
 10
364.3992516518
 20
1066.2760432845
 30
0.0
  0
SPLINE
  5
3E6
100
AcDbEntity
  8
0
100
AcDbSpline
 62
7
  6
BYLAYER
 70
0
 71
3
 72
11
 73
7
 74
0
 42
0.0000001
 43
0.0000001
 44
0.0000000001
 40
0.0
 40
0.0
 40
0.0
 40
0.0
 40
0.2455000837
 40
0.4935877931
 40
0.7454492783
 40
1.0
 40
1.0
 40
1.0
 40
1.0
 10
368.4616420036
 20
1067.2758763046
 30
0.0
 10
368.5854938985
 20
1067.2735060792
 30
0.0
 10
368.8363463474
 20
1067.2172796156
 30
0.0
 10
369.1495215912
 20
1066.9922114874
 30
0.0
 10
369.3574948338
 20
1066.6626176395
 30
0.0
 10
369.4057290015
 20
1066.4044846337
 30
0.0
 10
369.4057290015
 20
1066.2760432845
 30
0.0
  0
SPLINE
  5
3E7
100
AcDbEntity
  8
0
100
AcDbSpline
 62
7
  6
BYLAYER
 70
0
 71
3
 72
8
 73
4
 74
0
 42
0.0000001
 43
0.0000001
 44
0.0000000001
 40
0.0
 40
0.0
 40
0.0
 40
0.0
 40
1.0
 40
1.0
 40
1.0
 40
1.0
 10
320.3367985799
 20
1064.2760432845
 30
0.0
 10
320.3367985799
 20
1064.3460068687
 30
0.0
 10
320.3514670042
 20
1064.4173967567
 30
0.0
 10
320.3792994606
 20
1064.4815859885
 30
0.0
  0
SPLINE
  5
3E8
100
AcDbEntity
  8
0
100
AcDbSpline
 62
7
  6
BYLAYER
 70
0
 71
3
 72
8
 73
4
 74
0
 42
0.0000001
 43
0.0000001
 44
0.0000000001
 40
0.0
 40
0.0
 40
0.0
 40
0.0
 40
1.0
 40
1.0
 40
1.0
 40
1.0
 10
468.0835324137
 20
1064.6160328125
 30
0.0
 10
468.0742355619
 20
1064.5685000135
 30
0.0
 10
468.0550845492
 20
1064.5220254751
 30
0.0
 10
468.0284303491
 20
1064.4815859887
 30
0.0
  0
SPLINE
  5
3E9
100
AcDbEntity
  8
0
100
AcDbSpline
 62
7
  6
BYLAYER
 70
0
 71
3
 72
9
 73
5
 74
0
 42
0.0000001
 43
0.0000001
 44
0.0000000001
 40
0.0
 40
0.0
 40
0.0
 40
0.0
 40
0.2581441241
 40
1.0
 40
1.0
 40
1.0
 40
1.0
 10
517.0548598523
 20
1064.2760434303
 30
0.0
 10
517.0642394593
 20
1064.3082367521
 30
0.0
 10
517.0966208276
 20
1064.4340237133
 30
0.0
 10
517.1126044441
 20
1064.5643531173
 30
0.0
 10
517.1125779816
 20
1064.660717199
 30
0.0
  0
SPLINE
  5
3EA
100
AcDbEntity
  8
0
100
AcDbSpline
 62
7
  6
BYLAYER
 70
0
 71
3
 72
8
 73
4
 74
0
 42
0.0000001
 43
0.0000001
 44
0.0000000001
 40
0.0
 40
0.0
 40
0.0
 40
0.0
 40
1.0
 40
1.0
 40
1.0
 40
1.0
 10
517.1739075406
 20
1064.4815859886
 30
0.0
 10
517.1391979214
 20
1064.5342470764
 30
0.0
 10
517.1170941301
 20
1064.5977811658
 30
0.0
 10
517.1129682722
 20
1064.6607170469
 30
0.0
  0
SPLINE
  5
3EB
100
AcDbEntity
  8
0
100
AcDbSpline
 62
7
  6
BYLAYER
 70
0
 71
3
 72
9
 73
5
 74
0
 42
0.0000001
 43
0.0000001
 44
0.0000000001
 40
0.0
 40
0.0
 40
0.0
 40
0.0
 40
0.27038548
 40
1.0
 40
1.0
 40
1.0
 40
1.0
 10
517.05485989
 20
1064.2760432845
 30
0.0
 10
517.0680238386
 20
1064.2929801349
 30
0.0
 10
517.1147270397
 20
1064.3570553697
 30
0.0
 10
517.1537273424
 20
1064.4273336988
 30
0.0
 10
517.1739075405
 20
1064.4815859885
 30
0.0
  0
SPLINE
  5
3EC
100
AcDbEntity
  8
0
100
AcDbSpline
 62
7
  6
BYLAYER
 70
0
 71
3
 72
9
 73
5
 74
0
 42
0.0000001
 43
0.0000001
 44
0.0000000001
 40
0.0
 40
0.0
 40
0.0
 40
0.0
 40
0.2666839678
 40
1.0
 40
1.0
 40
1.0
 40
1.0
 10
517.1126250028
 20
1064.7444371207
 30
0.0
 10
517.1218563674
 20
1064.7387728504
 30
0.0
 10
517.1546606892
 20
1064.714589599
 30
0.0
 10
517.1774491058
 20
1064.6777177059
 30
0.0
 10
517.1859331299
 20
1064.6491701819
 30
0.0
  0
SPLINE
  5
3ED
100
AcDbEntity
  8
0
100
AcDbSpline
 62
7
  6
BYLAYER
 70
0
 71
3
 72
9
 73
5
 74
0
 42
0.0000001
 43
0.0000001
 44
0.0000000001
 40
0.0
 40
0.0
 40
0.0
 40
0.0
 40
0.2268944865
 40
1.0
 40
1.0
 40
1.0
 40
1.0
 10
517.1859331299
 20
1064.6491701819
 30
0.0
 10
517.1895885054
 20
1064.6368703677
 30
0.0
 10
517.1997611357
 20
1064.580812331
 30
0.0
 10
517.1878550929
 20
1064.5230229658
 30
0.0
 10
517.1739074212
 20
1064.481586205
 30
0.0
  0
SPLINE
  5
3EE
100
AcDbEntity
  8
0
100
AcDbSpline
 62
7
  6
BYLAYER
 70
0
 71
3
 72
8
 73
4
 74
0
 42
0.0000001
 43
0.0000001
 44
0.0000000001
 40
0.0
 40
0.0
 40
0.0
 40
0.0
 40
1.0
 40
1.0
 40
1.0
 40
1.0
 10
517.1739075405
 20
1064.4815859885
 30
0.0
 10
517.2017399969
 20
1064.4173967567
 30
0.0
 10
517.2164084212
 20
1064.3460068687
 30
0.0
 10
517.2164084212
 20
1064.2760432845
 30
0.0
  0
SPLINE
  5
3EF
100
AcDbEntity
  8
0
100
AcDbSpline
 62
7
  6
BYLAYER
 70
0
 71
3
 72
9
 73
5
 74
0
 42
0.0000001
 43
0.0000001
 44
0.0000000001
 40
0.0
 40
0.0
 40
0.0
 40
0.0
 40
0.242355115
 40
1.0
 40
1.0
 40
1.0
 40
1.0
 10
468.0897599097
 20
1064.6607307822
 30
0.0
 10
468.0897508911
 20
1064.6292451127
 30
0.0
 10
468.0949558914
 20
1064.4993438327
 30
0.0
 10
468.1199450431
 20
1064.3705439378
 30
0.0
 10
468.1474780266
 20
1064.2760433886
 30
0.0
  0
SPLINE
  5
3F0
100
AcDbEntity
  8
0
100
AcDbSpline
 62
7
  6
BYLAYER
 70
0
 71
3
 72
11
 73
7
 74
0
 42
0.0000001
 43
0.0000001
 44
0.0000000001
 40
0.0
 40
0.0
 40
0.0
 40
0.0
 40
0.2545253123
 40
0.5063269197
 40
0.7544493833
 40
1.0
 40
1.0
 40
1.0
 40
1.0
 10
516.0156140146
 20
1066.2760432845
 30
0.0
 10
516.0156140146
 20
1066.4059220259
 30
0.0
 10
515.966276623
 20
1066.666986142
 30
0.0
 10
515.7536960999
 20
1066.9991036386
 30
0.0
 10
515.4342212896
 20
1067.2232678072
 30
0.0
 10
515.179389216
 20
1067.2760432845
 30
0.0
 10
515.054090067
 20
1067.2760432845
 30
0.0
  0
SPLINE
  5
3F1
100
AcDbEntity
  8
0
100
AcDbSpline
 62
7
  6
BYLAYER
 70
0
 71
3
 72
11
 73
7
 74
0
 42
0.0000001
 43
0.0000001
 44
0.0000000001
 40
0.0
 40
0.0
 40
0.0
 40
0.0
 40
0.2454646712
 40
0.49351694
 40
0.7453862235
 40
1.0
 40
1.0
 40
1.0
 40
1.0
 10
470.1482478227
 20
1067.2760432845
 30
0.0
 10
470.0229925058
 20
1067.2760432845
 30
0.0
 10
469.7682424631
 20
1067.2233061696
 30
0.0
 10
469.4487659241
 20
1066.9992340629
 30
0.0
 10
469.2360962975
 20
1066.6671133687
 30
0.0
 10
469.1867238751
 20
1066.4059671921
 30
0.0
 10
469.1867238751
 20
1066.2760432845
 30
0.0
  0
SPLINE
  5
3F2
100
AcDbEntity
  8
0
100
AcDbSpline
 62
7
  6
BYLAYER
 70
0
 71
3
 72
9
 73
5
 74
0
 42
0.0000001
 43
0.0000001
 44
0.0000000001
 40
0.0
 40
0.0
 40
0.0
 40
0.0
 40
0.2703934266
 40
1.0
 40
1.0
 40
1.0
 40
1.0
 10
468.1474779997
 20
1064.2760432845
 30
0.0
 10
468.1343136832
 20
1064.2929806155
 30
0.0
 10
468.0876148035
 20
1064.3570588153
 30
0.0
 10
468.0486102963
 20
1064.4273343509
 30
0.0
 10
468.0284303491
 20
1064.4815859885
 30
0.0
  0
SPLINE
  5
3F3
100
AcDbEntity
  8
0
100
AcDbSpline
 62
7
  6
BYLAYER
 70
0
 71
3
 72
11
 73
7
 74
0
 42
0.0000001
 43
0.0000001
 44
0.0000000001
 40
0.0
 40
0.0
 40
0.0
 40
0.0
 40
0.2544641196
 40
0.5062554122
 40
0.7544085347
 40
1.0
 40
1.0
 40
1.0
 40
1.0
 10
468.1474779997
 20
1066.2760432845
 30
0.0
 10
468.1474779997
 20
1066.4044643371
 30
0.0
 10
468.1956955804
 20
1066.6625645581
 30
0.0
 10
468.4036579442
 20
1066.9921904011
 30
0.0
 10
468.7169284438
 20
1067.2173383751
 30
0.0
 10
468.9679261146
 20
1067.2735461899
 30
0.0
 10
469.0918473792
 20
1067.2758815166
 30
0.0
  0
SPLINE
  5
3F4
100
AcDbEntity
  8
0
100
AcDbSpline
 62
7
  6
BYLAYER
 70
0
 71
3
 72
11
 73
7
 74
0
 42
0.0000001
 43
0.0000001
 44
0.0000000001
 40
0.0
 40
0.0
 40
0.0
 40
0.0
 40
0.2627344212
 40
0.5180975916
 40
0.762900959
 40
1.0
 40
1.0
 40
1.0
 40
1.0
 10
473.1539553493
 20
1066.2760432845
 30
0.0
 10
473.1539553493
 20
1066.4056130521
 30
0.0
 10
473.1090592474
 20
1066.6635010758
 30
0.0
 10
472.9138585476
 20
1066.9949962129
 30
0.0
 10
472.6170762038
 20
1067.2217341642
 30
0.0
 10
472.3764556149
 20
1067.2760432845
 30
0.0
 10
472.2595281583
 20
1067.2760432845
 30
0.0
  0
SPLINE
  5
3F5
100
AcDbEntity
  8
0
100
AcDbSpline
 62
7
  6
BYLAYER
 70
0
 71
3
 72
11
 73
7
 74
0
 42
0.0000001
 43
0.0000001
 44
0.0000000001
 40
0.0
 40
0.0
 40
0.0
 40
0.0
 40
0.2570642536
 40
0.5099515937
 40
0.7570212812
 40
1.0
 40
1.0
 40
1.0
 40
1.0
 10
473.5484014702
 20
1066.2760432845
 30
0.0
 10
473.5484006389
 20
1066.4062723679
 30
0.0
 10
473.4997206759
 20
1066.6672632728
 30
0.0
 10
473.2901228638
 20
1066.9993636085
 30
0.0
 10
472.9754272459
 20
1067.2232877243
 30
0.0
 10
472.7242614118
 20
1067.2760362246
 30
0.0
 10
472.6011680788
 20
1067.2760432845
 30
0.0
  0
SPLINE
  5
3F6
100
AcDbEntity
  8
0
100
AcDbSpline
 62
7
  6
BYLAYER
 70
0
 71
3
 72
11
 73
7
 74
0
 42
0.0000001
 43
0.0000001
 44
0.0000000001
 40
0.0
 40
0.0
 40
0.0
 40
0.0
 40
0.2429770416
 40
0.4900484521
 40
0.7429376142
 40
1.0
 40
1.0
 40
1.0
 40
1.0
 10
512.6011698217
 20
1067.2760432845
 30
0.0
 10
512.4780773526
 20
1067.2760361363
 30
0.0
 10
512.2269116594
 20
1067.2232878976
 30
0.0
 10
511.9122146667
 20
1066.9993637849
 30
0.0
 10
511.7026170877
 20
1066.6672621392
 30
0.0
 10
511.6539373269
 20
1066.4062714066
 30
0.0
 10
511.6539365076
 20
1066.2760432845
 30
0.0
  0
SPLINE
  5
3F7
100
AcDbEntity
  8
0
100
AcDbSpline
 62
7
  6
BYLAYER
 70
0
 71
3
 72
11
 73
7
 74
0
 42
0.0000001
 43
0.0000001
 44
0.0000000001
 40
0.0
 40
0.0
 40
0.0
 40
0.0
 40
0.2370154222
 40
0.4817461593
 40
0.7371748139
 40
1.0
 40
1.0
 40
1.0
 40
1.0
 10
512.9428097313
 20
1067.2760432845
 30
0.0
 10
512.8259234486
 20
1067.2760432845
 30
0.0
 10
512.585381999
 20
1067.2217745493
 30
0.0
 10
512.288593444
 20
1066.9951275303
 30
0.0
 10
512.0933098636
 20
1066.6636251768
 30
0.0
 10
512.0483825403
 20
1066.405657884
 30
0.0
 10
512.0483825403
 20
1066.2760432845
 30
0.0
  0
SPLINE
  5
3F8
100
AcDbEntity
  8
0
100
AcDbSpline
 62
7
  6
BYLAYER
 70
0
 71
3
 72
11
 73
7
 74
0
 42
0.0000001
 43
0.0000001
 44
0.0000000001
 40
0.0
 40
0.0
 40
0.0
 40
0.0
 40
0.2455000837
 40
0.4935877931
 40
0.7454492783
 40
1.0
 40
1.0
 40
1.0
 40
1.0
 10
516.1107728921
 20
1067.2758763046
 30
0.0
 10
516.234624787
 20
1067.2735060792
 30
0.0
 10
516.4854772359
 20
1067.2172796156
 30
0.0
 10
516.7986524797
 20
1066.9922114874
 30
0.0
 10
517.0066257223
 20
1066.6626176395
 30
0.0
 10
517.05485989
 20
1066.4044846337
 30
0.0
 10
517.05485989
 20
1066.2760432845
 30
0.0
  0
SPLINE
  5
3F9
100
AcDbEntity
  8
0
100
AcDbSpline
 62
7
  6
BYLAYER
 70
0
 71
3
 72
9
 73
5
 74
0
 42
0.0000001
 43
0.0000001
 44
0.0000000001
 40
0.0
 40
0.0
 40
0.0
 40
0.0
 40
0.2799425408
 40
1.0
 40
1.0
 40
1.0
 40
1.0
 10
468.0284304626
 20
1064.4815861942
 30
0.0
 10
468.0234043213
 20
1064.4965182202
 30
0.0
 10
468.0079389949
 20
1064.5503762349
 30
0.0
 10
468.0048267089
 20
1064.6098043041
 30
0.0
 10
468.0162606774
 20
1064.6486828495
 30
0.0
  0
SPLINE
  5
3FA
100
AcDbEntity
  8
0
100
AcDbSpline
 62
7
  6
BYLAYER
 70
0
 71
3
 72
8
 73
4
 74
0
 42
0.0000001
 43
0.0000001
 44
0.0000000001
 40
0.0
 40
0.0
 40
0.0
 40
0.0
 40
1.0
 40
1.0
 40
1.0
 40
1.0
 10
468.0162606774
 20
1064.6486828495
 30
0.0
 10
468.0212547814
 20
1064.6656641362
 30
0.0
 10
468.0289407359
 20
1064.6820983439
 30
0.0
 10
468.0389701818
 20
1064.6966831095
 30
0.0
  0
SPLINE
  5
3FB
100
AcDbEntity
  8
0
100
AcDbSpline
 62
7
  6
BYLAYER
 70
0
 71
3
 72
8
 73
4
 74
0
 42
0.0000001
 43
0.0000001
 44
0.0000000001
 40
0.0
 40
0.0
 40
0.0
 40
0.0
 40
1.0
 40
1.0
 40
1.0
 40
1.0
 10
468.0389701818
 20
1064.6966831095
 30
0.0
 10
468.0520101129
 20
1064.7156457062
 30
0.0
 10
468.0695846315
 20
1064.7319892894
 30
0.0
 10
468.0891570347
 20
1064.7440946976
 30
0.0
  0
SPLINE
  5
3FC
100
AcDbEntity
  8
0
100
AcDbSpline
 62
7
  6
BYLAYER
 70
0
 71
3
 72
8
 73
4
 74
0
 42
0.0000001
 43
0.0000001
 44
0.0000000001
 40
0.0
 40
0.0
 40
0.0
 40
0.0
 40
1.0
 40
1.0
 40
1.0
 40
1.0
 10
467.9859294684
 20
1064.2760432845
 30
0.0
 10
467.9859294684
 20
1064.3460068687
 30
0.0
 10
468.0005978928
 20
1064.4173967567
 30
0.0
 10
468.0284303491
 20
1064.4815859885
 30
0.0
  0
ENDSEC
  0
SECTION
  2
OBJECTS
  0
DICTIONARY
  5
C
100
AcDbDictionary
280
0
281
1
  3
ACAD_GROUP
350
D
  3
ACAD_MLINESTYLE
350
17
  3
ACAD_LAYOUT
350
1A
  3
ACAD_PLOTSETTINGS
350
19
  3
ACAD_PLOTSTYLENAME
350
E
  0
DICTIONARY
  5
D
102
{ACAD_REACTORS
330
C
102
}
100
AcDbDictionary
280
0
281
1
  0
ACDBDICTIONARYWDFLT
  5
E
102
{ACAD_REACTORS
330
C
102
}
100
AcDbDictionary
281
1
  3
Normal
350
F
100
AcDbDictionaryWithDefault
340
F
  0
DICTIONARY
  5
17
102
{ACAD_REACTORS
330
C
102
}
100
AcDbDictionary
280
0
281
1
  3
Standard
350
18
  0
DICTIONARY
  5
19
102
{ACAD_REACTORS
330
C
102
}
100
AcDbDictionary
281
1
  0
DICTIONARY
  5
1A
102
{ACAD_REACTORS
330
C
102
}
100
AcDbDictionary
281
1
  3
Model
350
3FD
  3
Layout1
350
3FE
  0
ACDBPLACEHOLDER
  5
F
102
{ACAD_REACTORS
330
E
102
}
  0
MLINESTYLE
  5
18
102
{ACAD_REACTORS
330
17
102
}
100
AcDbMlineStyle
  2
STANDARD
 70
0
  3

 62
256
 51
90.0
 52
90.0
 71
2
 49
0.5
 62
256
  6
BYLAYER
 49
-0.5
 62
256
  6
BYLAYER
  0
LAYOUT
  5
3FD
102
{ACAD_REACTORS
330
1A
102
}
100
AcDbPlotSettings
  1

  2
none_device
  4

  6

 40
0.0
 41
0.0
 42
0.0
 43
0.0
 44
210.0
 45
297.0
 46
0.0
 47
0.0
 48
0.0
 49
0.0
140
0.0
141
0.0
142
1.0
143
1.0
 70
1024
 72
1
 73
0
 74
0
  7

 75
0
147
1.0
148
0.0
149
0.0
100
AcDbLayout
  1
Model
 70
0
 71
0
 10
0.0
 20
0.0
 11
210.0
 21
297.0
 12
0.0
 22
0.0
 32
0.0
 14
0.0
 24
0.0
 34
0.0
 15
0.0
 25
0.0
 35
0.0
146
0.0
 13
0.0
 23
0.0
 33
0.0
 16
1.0
 26
0.0
 36
0.0
 17
0.0
 27
1.0
 37
0.0
 76
0
330
212
345
0
346
0
  0
LAYOUT
  5
3FE
102
{ACAD_REACTORS
330
1A
102
}
100
AcDbPlotSettings
  1

  2
none_device
  4

  6

 40
0.0
 41
0.0
 42
0.0
 43
0.0
 44
210.0
 45
297.0
 46
0.0
 47
0.0
 48
0.0
 49
0.0
140
0.0
141
0.0
142
1.0
143
1.0
 70
0
 72
1
 73
0
 74
0
  7

 75
0
147
1.0
148
0.0
149
0.0
100
AcDbLayout
  1
Layout1
 70
0
 71
1
 10
0.0
 20
0.0
 11
210.0
 21
297.0
 12
0.0
 22
0.0
 32
0.0
 14
0.0
 24
0.0
 34
0.0
 15
0.0
 25
0.0
 35
0.0
146
0.0
 13
0.0
 23
0.0
 33
0.0
 16
1.0
 26
0.0
 36
0.0
 17
0.0
 27
1.0
 37
0.0
 76
0
330
213
345
0
346
0
  0
ENDSEC
  0
EOF
