999
DXF file: C:\Users\sesa63760\Dev\_Creo\CAD\MCADID0001920_3D-CAD\drw0001_1.dxf
999
Pro/ENGINEER 2019471 by Parametric Technology Corporation
  0
SECTION
  2
HEADER
  9
$ACADVER
  1
AC1024
  9
$DWGCODEPAGE
  3
ANSI_1252
  9
$EXTMAX
 10
98.3402137623
 20
139.0811594638
 30
0.0
  9
$EXTMIN
 10
0.0
 20
0.0
 30
0.0
  9
$LIMMIN
 10
0.0
 20
0.0
  9
$LIMMAX
 10
98.3402137623
 20
139.0811594638
  9
$VIEWCTR
 10
49.1701068811
 20
69.5405797319
  9
$VIEWSIZE
 40
139.0811594638
  9
$CLAYER
  8
0
  9
$LTSCALE
 40
9.0660311354
  9
$CELTYPE
  6
BYLAYER
  9
$DIMSCALE
 40
1.0
  9
$DIMASZ
 40
1.1707168305
  9
$DIMEXO
 40
1.0
  9
$DIMDLI
 40
6.2638033299
  9
$DIMEXE
 40
1.0
  9
$DIMCEN
 40
1.4835323676
  9
$DIMLFAC
 40
1.0
  9
$DIMBLK
  1
_FILLED
  9
$DIMALT
 70
0
  9
$DIMALTF
 40
0.0393700787
  9
$DIMTXT
 40
1.6390035627
  9
$DIMTOL
 70
1
  9
$DIMLIM
 70
0
  9
$DIMTFAC
 40
1.0
  9
$DIMTP
 40
0.01
  9
$DIMTM
 40
0.01
  9
$DIMGAP
 40
0.625
  9
$DIMDSEP
 70
46
  9
$AUNITS
 70
0
  9
$PDMODE
 70
3
  9
$PDSIZE
 40
0.3125
  9
$HANDSEED
  5
308
  9
$TILEMODE
 70
1
  9
$MEASUREMENT
 70
1
  9
$INSUNITS
 70
4
  0
ENDSEC
  0
SECTION
  2
CLASSES
  0
CLASS
  1
ACDBDICTIONARYWDFLT
  2
AcDbDictionaryWithDefault
  3
AutoCAD 2000
 90
0
 91
1
280
0
281
0
  0
CLASS
  1
ACDBPLACEHOLDER
  2
AcDbPlaceHolder
  3
AutoCAD 2000
 90
0
 91
1
280
0
281
0
  0
CLASS
  1
LAYOUT
  2
AcDbLayout
  3
AutoCAD 2000
 90
0
 91
0
280
0
281
0
  0
ENDSEC
  0
SECTION
  2
TABLES
  0
TABLE
  2
VPORT
  5
8
100
AcDbSymbolTable
 70
2
  0
VPORT
  5
1F4
100
AcDbSymbolTableRecord
100
AcDbViewportTableRecord
  2
*ACTIVE
 70
0
 10
0.0
 20
0.0
 11
1.0
 21
1.0
 12
49.1701068811
 22
69.5405797319
 13
0.0
 23
0.0
 14
1.0
 24
1.0
 15
0.0
 25
0.0
 16
0.0
 26
0.0
 36
1.0
 17
0.0
 27
0.0
 37
0.0
 40
139.0811594638
 41
0.7070707071
 42
50.0
 43
0.0
 44
0.0
 50
0.0
 51
0.0
 71
0
 72
100
 73
1
 74
1
 75
0
 76
0
 77
0
 78
0
  0
ENDTAB
  0
TABLE
  2
LTYPE
  5
5
100
AcDbSymbolTable
 70
6
  0
LTYPE
  5
14
100
AcDbSymbolTableRecord
100
AcDbLinetypeTableRecord
  2
BYBLOCK
 70
0
  3

 72
65
 73
0
 40
0.0
  0
LTYPE
  5
15
100
AcDbSymbolTableRecord
100
AcDbLinetypeTableRecord
  2
BYLAYER
 70
0
  3

 72
65
 73
0
 40
0.0
  0
LTYPE
  5
16
100
AcDbSymbolTableRecord
100
AcDbLinetypeTableRecord
  2
CONTINUOUS
 70
64
  3
Solid line
 72
65
 73
0
 40
0.0
  0
LTYPE
  5
1F5
100
AcDbSymbolTableRecord
100
AcDbLinetypeTableRecord
  2
CENTER
 70
64
  3
____ _ ____ _ ____ _ ____ _ ____ _ ____ _ ____
 72
65
 73
4
 40
0.6
 49
0.375
 74
0
 49
-0.075
 74
0
 49
0.075
 74
0
 49
-0.075
 74
0
  0
LTYPE
  5
1F6
100
AcDbSymbolTableRecord
100
AcDbLinetypeTableRecord
  2
HIDDEN
 70
64
  3
- - - - - - - - - - - - - - - - - - - -
 72
65
 73
2
 40
0.2
 49
0.1
 74
0
 49
-0.1
 74
0
  0
LTYPE
  5
1F7
100
AcDbSymbolTableRecord
100
AcDbLinetypeTableRecord
  2
PHANTOM
 70
64
  3
_____ _ _ _____ _ _ _____ _ _ _____
 72
65
 73
6
 40
0.8
 49
0.45
 74
0
 49
-0.05
 74
0
 49
0.1
 74
0
 49
-0.05
 74
0
 49
0.1
 74
0
 49
-0.05
 74
0
  0
LTYPE
  5
1F8
100
AcDbSymbolTableRecord
100
AcDbLinetypeTableRecord
  2
DOT
 70
64
  3
. . . . . . . . . . . . . . . . . . . .
 72
65
 73
2
 40
0.2
 49
0.1
 74
0
 49
-0.1
 74
0
  0
LTYPE
  5
1F9
100
AcDbSymbolTableRecord
100
AcDbLinetypeTableRecord
  2
DASHED
 70
64
  3
- - - - - - - - - - - - - - - - - - - -
 72
65
 73
2
 40
0.2
 49
0.1
 74
0
 49
-0.1
 74
0
  0
ENDTAB
  0
TABLE
  2
LAYER
  5
2
100
AcDbSymbolTable
 70
36
  0
LAYER
  5
10
100
AcDbSymbolTableRecord
100
AcDbLayerTableRecord
  2
0
 70
0
 62
7
  6
CONTINUOUS
370
-3
390
F
  0
LAYER
  5
1FA
100
AcDbSymbolTableRecord
100
AcDbLayerTableRecord
  2
DEFAULT_1
 70
0
 62
7
  6
CENTER
370
-3
390
F
  0
LAYER
  5
1FB
100
AcDbSymbolTableRecord
100
AcDbLayerTableRecord
  2
DEFAULT_2
 70
0
 62
8
  6
HIDDEN
370
-3
390
F
  0
LAYER
  5
1FC
100
AcDbSymbolTableRecord
100
AcDbLayerTableRecord
  2
DEFAULT_3
 70
0
 62
7
  6
PHANTOM
370
-3
390
F
  0
LAYER
  5
1FD
100
AcDbSymbolTableRecord
100
AcDbLayerTableRecord
  2
00_COMPONENTS
 70
0
 62
7
  6
CONTINUOUS
370
-3
390
F
  0
LAYER
  5
1FE
100
AcDbSymbolTableRecord
100
AcDbLayerTableRecord
  2
01_1_DEFAULT_DATUMS
 70
0
 62
7
  6
CONTINUOUS
370
-3
390
F
  0
LAYER
  5
1FF
100
AcDbSymbolTableRecord
100
AcDbLayerTableRecord
  2
01_PLANES
 70
0
 62
7
  6
CONTINUOUS
370
-3
390
F
  0
LAYER
  5
200
100
AcDbSymbolTableRecord
100
AcDbLayerTableRecord
  2
02_COORD_SYS
 70
0
 62
7
  6
CONTINUOUS
370
-3
390
F
  0
LAYER
  5
201
100
AcDbSymbolTableRecord
100
AcDbLayerTableRecord
  2
03_AXES
 70
0
 62
7
  6
CONTINUOUS
370
-3
390
F
  0
LAYER
  5
202
100
AcDbSymbolTableRecord
100
AcDbLayerTableRecord
  2
04_POINTS
 70
0
 62
7
  6
CONTINUOUS
370
-3
390
F
  0
LAYER
  5
203
100
AcDbSymbolTableRecord
100
AcDbLayerTableRecord
  2
05_CURVES
 70
0
 62
7
  6
CONTINUOUS
370
-3
390
F
  0
LAYER
  5
204
100
AcDbSymbolTableRecord
100
AcDbLayerTableRecord
  2
06_SURFS
 70
0
 62
7
  6
CONTINUOUS
370
-3
390
F
  0
LAYER
  5
205
100
AcDbSymbolTableRecord
100
AcDbLayerTableRecord
  2
07_COSMETICS
 70
0
 62
7
  6
CONTINUOUS
370
-3
390
F
  0
LAYER
  5
206
100
AcDbSymbolTableRecord
100
AcDbLayerTableRecord
  2
10_NOTES
 70
0
 62
7
  6
CONTINUOUS
370
-3
390
F
  0
LAYER
  5
207
100
AcDbSymbolTableRecord
100
AcDbLayerTableRecord
  2
11_NOTES_PUB
 70
0
 62
7
  6
CONTINUOUS
370
-3
390
F
  0
LAYER
  5
208
100
AcDbSymbolTableRecord
100
AcDbLayerTableRecord
  2
13_REF_GTOL
 70
0
 62
7
  6
CONTINUOUS
370
-3
390
F
  0
LAYER
  5
209
100
AcDbSymbolTableRecord
100
AcDbLayerTableRecord
  2
16_MISC
 70
0
 62
7
  6
CONTINUOUS
370
-3
390
F
  0
LAYER
  5
20A
100
AcDbSymbolTableRecord
100
AcDbLayerTableRecord
  2
17_NO_PRINT
 70
0
 62
7
  6
CONTINUOUS
370
-3
390
F
  0
LAYER
  5
20B
100
AcDbSymbolTableRecord
100
AcDbLayerTableRecord
  2
18_DATUM_CAMS_JOINTS
 70
0
 62
7
  6
CONTINUOUS
370
-3
390
F
  0
LAYER
  5
20C
100
AcDbSymbolTableRecord
100
AcDbLayerTableRecord
  2
19_DATUM_FUNCTIONAL
 70
0
 62
7
  6
CONTINUOUS
370
-3
390
F
  0
LAYER
  5
20D
100
AcDbSymbolTableRecord
100
AcDbLayerTableRecord
  2
20_DATUM_KINEMATIC_SCHEME
 70
0
 62
7
  6
CONTINUOUS
370
-3
390
F
  0
ENDTAB
  0
TABLE
  2
STYLE
  5
3
100
AcDbSymbolTable
 70
1
  0
STYLE
  5
11
100
AcDbSymbolTableRecord
100
AcDbTextStyleTableRecord
  2
STANDARD
 70
0
 40
0.0
 41
0.8
 50
0.0
 71
0
 42
0.2
  3
txt
  4

  0
STYLE
  5
20E
100
AcDbSymbolTableRecord
100
AcDbTextStyleTableRecord
  2
TEXTSTYLE_1
 70
0
 40
0.0
 41
0.8
 50
0.0
 71
0
 42
0.2
  3
gdt
  4

  0
ENDTAB
  0
TABLE
  2
VIEW
  5
6
100
AcDbSymbolTable
 70
0
  0
ENDTAB
  0
TABLE
  2
UCS
  5
7
100
AcDbSymbolTable
 70
0
  0
ENDTAB
  0
TABLE
  2
APPID
  5
9
100
AcDbSymbolTable
 70
1
  0
APPID
  5
20F
100
AcDbSymbolTableRecord
100
AcDbRegAppTableRecord
  2
ACAD
 70
0
  0
ENDTAB
  0
TABLE
  2
BLOCK_RECORD
  5
1
100
AcDbSymbolTable
 70
0
  0
BLOCK_RECORD
  5
210
100
AcDbSymbolTableRecord
100
AcDbBlockTableRecord
  2
*Model_Space
  0
BLOCK_RECORD
  5
211
100
AcDbSymbolTableRecord
100
AcDbBlockTableRecord
  2
*Paper_Space
  0
BLOCK_RECORD
  5
212
100
AcDbSymbolTableRecord
100
AcDbBlockTableRecord
  2
_FILLED
  0
ENDTAB
  0
TABLE
  2
DIMSTYLE
  5
A
100
AcDbSymbolTable
 70
1
100
AcDbDimStyleTable
 71
0
  0
DIMSTYLE
105
213
100
AcDbSymbolTableRecord
100
AcDbDimStyleTableRecord
  2
STANDARD
 70
0
  3

  4

 40
1.0
 41
1.1707168305
 42
1.0
 43
0.38
 44
1.0
 45
0.0
 46
0.0
 47
0.01
 48
0.01
140
1.6390035627
141
0.09
142
0.0
143
25.4
144
1.0
145
0.0
146
1.0
147
0.625
 71
1
 72
0
 73
0
 74
0
 75
0
 76
0
 77
1
 78
8
 79
2
170
0
171
1
172
0
173
0
174
0
175
0
176
0
177
0
178
0
270
2
179
2
271
2
272
2
273
2
274
2
275
0
280
0
281
0
282
0
283
1
284
8
285
0
286
0
287
3
288
0
340
11
278
46
341
212
342
212
343
212
344
212
  0
ENDTAB
  0
ENDSEC
  0
SECTION
  2
BLOCKS
  0
BLOCK
  5
20
100
AcDbEntity
  8
0
100
AcDbBlockBegin
  2
*Model_Space
 70
0
 10
0.0
 20
0.0
 30
0.0
  3
*Model_Space
  1

  0
ENDBLK
  5
21
100
AcDbEntity
  8
0
100
AcDbBlockEnd
  0
BLOCK
  5
1C
100
AcDbEntity
  8
0
100
AcDbBlockBegin
  2
*Paper_Space
 70
0
 10
0.0
 20
0.0
 30
0.0
  3
*Paper_Space
  1

  0
ENDBLK
  5
1D
100
AcDbEntity
  8
0
100
AcDbBlockEnd
  0
BLOCK
  5
214
100
AcDbEntity
  8
0
100
AcDbBlockBegin
  2
_FILLED
 70
64
 10
0.0
 20
0.0
  3
_FILLED
  1

  0
SOLID
  5
215
100
AcDbEntity
  8
0
  6
BYBLOCK
 62
0
100
AcDbTrace
 10
0.0
 20
0.0
 11
-1.0
 21
0.25
 12
-1.0
 22
-0.25
 13
-1.0
 23
-0.25
  0
ENDBLK
  5
216
100
AcDbEntity
  8
0
  6
BYBLOCK
 62
0
100
AcDbBlockEnd
  0
ENDSEC
  0
SECTION
  2
ENTITIES
  0
LINE
  5
217
100
AcDbEntity
  8
0
100
AcDbLine
 62
7
  6
CONTINUOUS
 10
11.4085962275
 20
65.6641249246
 11
11.4085962275
 21
72.5702656692
  0
LINE
  5
218
100
AcDbEntity
  8
0
100
AcDbLine
 62
7
  6
CONTINUOUS
 10
16.4734817667
 20
56.5804471269
 11
16.4734817667
 21
62.7399780482
  0
LINE
  5
219
100
AcDbEntity
  8
0
100
AcDbLine
 62
7
  6
CONTINUOUS
 10
17.1739446605
 20
62.3977922409
 11
17.1739446605
 21
56.1760438354
  0
LINE
  5
21A
100
AcDbEntity
  8
0
100
AcDbLine
 62
7
  6
CONTINUOUS
 10
18.2515709084
 20
55.7612498431
 11
18.2515709084
 21
61.7756385116
  0
LINE
  5
21B
100
AcDbEntity
  8
0
100
AcDbLine
 62
7
  6
CONTINUOUS
 10
18.8621942264
 20
73.1552349839
 11
18.8621942264
 21
74.5923084611
  0
LINE
  5
21C
100
AcDbEntity
  8
0
100
AcDbLine
 62
7
  6
CONTINUOUS
 10
43.9826323497
 20
34.6482195832
 11
43.1384847598
 21
35.135577396
  0
LINE
  5
21D
100
AcDbEntity
  8
0
100
AcDbLine
 62
7
  6
CONTINUOUS
 10
39.0075497455
 20
37.5205198839
 11
37.8939933503
 21
38.1634174241
  0
LINE
  5
21E
100
AcDbEntity
  8
0
100
AcDbLine
 62
7
  6
CONTINUOUS
 10
33.763058336
 20
40.548359912
 11
32.6495019408
 21
41.1912574522
  0
LINE
  5
21F
100
AcDbEntity
  8
0
100
AcDbLine
 62
7
  6
CONTINUOUS
 10
28.5185669265
 20
43.5761999401
 11
27.4050105314
 21
44.2190974804
  0
LINE
  5
220
100
AcDbEntity
  8
0
100
AcDbLine
 62
7
  6
CONTINUOUS
 10
23.2740755171
 20
46.6040399683
 11
22.7891396676
 21
46.8840114777
  0
LINE
  5
221
100
AcDbEntity
  8
0
100
AcDbLine
 62
7
  6
CONTINUOUS
 10
43.7195997005
 20
35.2296079878
 11
42.8754521107
 21
35.7169658006
  0
LINE
  5
222
100
AcDbEntity
  8
0
100
AcDbLine
 62
7
  6
CONTINUOUS
 10
38.7445170963
 20
38.1019082885
 11
37.6309607012
 21
38.7448058287
  0
LINE
  5
223
100
AcDbEntity
  8
0
100
AcDbLine
 62
7
  6
CONTINUOUS
 10
33.5000256869
 20
41.1297483166
 11
32.3864692917
 21
41.7726458568
  0
LINE
  5
224
100
AcDbEntity
  8
0
100
AcDbLine
 62
7
  6
CONTINUOUS
 10
28.2555342774
 20
44.1575883448
 11
27.1419778822
 21
44.800485885
  0
LINE
  5
225
100
AcDbEntity
  8
0
100
AcDbLine
 62
7
  6
CONTINUOUS
 10
23.0110428679
 20
47.1854283729
 11
22.5261070184
 21
47.4653998823
  0
LINE
  5
226
100
AcDbEntity
  8
0
100
AcDbLine
 62
7
  6
CONTINUOUS
 10
24.0886691159
 20
46.7706343936
 11
27.1419778822
 21
45.007845635
  0
LINE
  5
227
100
AcDbEntity
  8
0
100
AcDbLine
 62
7
  6
CONTINUOUS
 10
29.3331605253
 20
43.7427943655
 11
32.3864692917
 21
41.9800056069
  0
LINE
  5
228
100
AcDbEntity
  8
0
100
AcDbLine
 62
7
  6
CONTINUOUS
 10
34.5776519348
 20
40.7149543374
 11
37.6309607012
 21
38.9521655788
  0
LINE
  5
229
100
AcDbEntity
  8
0
100
AcDbLine
 62
7
  6
CONTINUOUS
 10
39.8221433443
 20
37.6871143092
 11
42.8754521107
 21
35.9243255507
  0
LINE
  5
22A
100
AcDbEntity
  8
0
100
AcDbLine
 62
7
  6
CONTINUOUS
 10
38.0556879861
 20
39.3145900296
 11
37.2115403963
 21
39.8019478423
  0
LINE
  5
22B
100
AcDbEntity
  8
0
100
AcDbLine
 62
7
  6
CONTINUOUS
 10
33.0806053819
 20
42.1868903302
 11
26.7584787513
 21
45.8368892682
  0
LINE
  5
22C
100
AcDbEntity
  8
0
100
AcDbLine
 62
7
  6
CONTINUOUS
 10
22.627543737
 20
48.2218317561
 11
21.9270808433
 21
48.6262350476
  0
LINE
  5
22D
100
AcDbEntity
  8
0
100
AcDbLine
 62
7
  6
CONTINUOUS
 10
37.792655337
 20
39.8959784342
 11
36.9485077471
 21
40.3833362469
  0
LINE
  5
22E
100
AcDbEntity
  8
0
100
AcDbLine
 62
7
  6
CONTINUOUS
 10
32.8175727328
 20
42.7682787348
 11
26.4954461022
 21
46.4182776729
  0
LINE
  5
22F
100
AcDbEntity
  8
0
100
AcDbLine
 62
7
  6
CONTINUOUS
 10
22.3645110879
 20
48.8032201608
 11
21.6640481942
 21
49.2076234522
  0
LINE
  5
230
100
AcDbEntity
  8
0
100
AcDbLine
 62
7
  6
CONTINUOUS
 10
23.4421373358
 20
48.3884261815
 11
26.4954461022
 21
46.6256374229
  0
LINE
  5
231
100
AcDbEntity
  8
0
100
AcDbLine
 62
7
  6
CONTINUOUS
 10
33.8951989807
 20
42.3534847556
 11
36.9485077471
 21
40.590695997
  0
LINE
  5
232
100
AcDbEntity
  8
0
100
AcDbLine
 62
7
  6
CONTINUOUS
 10
19.9513701413
 20
60.2682933816
 11
19.9513701413
 21
60.7942811682
  0
LINE
  5
233
100
AcDbEntity
  8
0
100
AcDbLine
 62
7
  6
CONTINUOUS
 10
20.8378423476
 20
75.732942627
 11
20.8378423476
 21
72.9484028451
  0
LINE
  5
234
100
AcDbEntity
  8
0
100
AcDbLine
 62
7
  6
CONTINUOUS
 10
21.197034646
 20
54.0607240324
 11
21.197034646
 21
53.749379045
  0
LINE
  5
235
100
AcDbEntity
  8
0
100
AcDbLine
 62
7
  6
CONTINUOUS
 10
21.3048796748
 20
53.7911013475
 11
21.3048796748
 21
60.012849753
  0
LINE
  5
236
100
AcDbEntity
  8
0
100
AcDbLine
 62
7
  6
CONTINUOUS
 10
21.6640481942
 20
49.2076234652
 11
21.6640481942
 21
53.1542101149
  0
LINE
  5
237
100
AcDbEntity
  8
0
100
AcDbLine
 62
7
  6
CONTINUOUS
 10
22.3645110879
 20
52.7498068235
 11
22.3645110879
 21
48.8032201738
  0
LINE
  5
238
100
AcDbEntity
  8
0
100
AcDbLine
 62
7
  6
CONTINUOUS
 10
22.5261070184
 20
47.4653998954
 11
22.5261070184
 21
48.2803949481
  0
LINE
  5
239
100
AcDbEntity
  8
0
100
AcDbLine
 62
7
  6
CONTINUOUS
 10
40.8458285232
 20
40.6217602032
 11
42.8754521107
 21
39.4499829878
  0
LINE
  5
23A
100
AcDbEntity
  8
0
100
AcDbLine
 62
7
  6
CONTINUOUS
 10
23.4421373358
 20
51.9140836187
 11
26.4954461022
 21
50.1512948601
  0
LINE
  5
23B
100
AcDbEntity
  8
0
100
AcDbLine
 62
7
  6
CONTINUOUS
 10
33.8951989807
 20
45.8791421927
 11
36.9485077471
 21
44.1163534342
  0
LINE
  5
23C
100
AcDbEntity
  8
0
100
AcDbLine
 62
7
  6
CONTINUOUS
 10
32.8651215587
 20
46.6874136912
 11
32.0209739688
 21
47.1747715039
  0
LINE
  5
23D
100
AcDbEntity
  8
0
100
AcDbLine
 62
7
  6
CONTINUOUS
 10
27.8900389545
 20
49.5597139919
 11
21.5679123239
 21
53.2097129299
  0
LINE
  5
23E
100
AcDbEntity
  8
0
100
AcDbLine
 62
7
  6
CONTINUOUS
 10
17.4369773096
 20
55.5946554178
 11
16.7365144159
 21
55.9990587092
  0
LINE
  5
23F
100
AcDbEntity
  8
0
100
AcDbLine
 62
7
  6
CONTINUOUS
 10
21.197034646
 20
53.749379045
 11
21.3482764498
 21
53.6620615243
  0
LINE
  5
240
100
AcDbEntity
  8
0
100
AcDbLine
 62
7
  6
CONTINUOUS
 10
32.6020889096
 20
47.2688020958
 11
31.7579413197
 21
47.7561599086
  0
LINE
  5
241
100
AcDbEntity
  8
0
100
AcDbLine
 62
7
  6
CONTINUOUS
 10
27.6270063054
 20
50.1411023965
 11
21.3048796748
 21
53.7911013345
  0
LINE
  5
242
100
AcDbEntity
  8
0
100
AcDbLine
 62
7
  6
CONTINUOUS
 10
17.1739446605
 20
56.1760438224
 11
16.4734817667
 21
56.5804471138
  0
LINE
  5
243
100
AcDbEntity
  8
0
100
AcDbLine
 62
7
  6
CONTINUOUS
 10
42.8754521107
 20
41.4127264325
 11
42.5456385076
 21
41.6031400973
  0
LINE
  5
244
100
AcDbEntity
  8
0
100
AcDbLine
 62
7
  6
CONTINUOUS
 10
18.2515709084
 20
55.7612498431
 11
21.3048796748
 21
53.9984610846
  0
LINE
  5
245
100
AcDbEntity
  8
0
100
AcDbLine
 62
7
  6
CONTINUOUS
 10
28.7046325533
 20
49.7263084172
 11
31.7579413197
 21
47.9635196586
  0
LINE
  5
246
100
AcDbEntity
  8
0
100
AcDbLine
 62
7
  6
CONTINUOUS
 10
23.0110428679
 20
48.2339714461
 11
23.0110428679
 21
47.1854283859
  0
LINE
  5
247
100
AcDbEntity
  8
0
100
AcDbLine
 62
7
  6
CONTINUOUS
 10
23.4421373358
 20
48.3884261815
 11
23.4421373358
 21
52.1276530942
  0
LINE
  5
248
100
AcDbEntity
  8
0
100
AcDbLine
 62
7
  6
CONTINUOUS
 10
24.0886691159
 20
46.7706343936
 11
24.0886691159
 21
48.0151593287
  0
LINE
  5
249
100
AcDbEntity
  8
0
100
AcDbLine
 62
7
  6
CONTINUOUS
 10
36.9485077471
 20
46.0790968788
 11
35.5949982137
 21
46.860528294
  0
LINE
  5
24A
100
AcDbEntity
  8
0
100
AcDbLine
 62
7
  6
CONTINUOUS
 10
36.9485077471
 20
46.6050846655
 11
35.0985207289
 21
47.6731510055
  0
LINE
  5
24B
100
AcDbEntity
  8
0
100
AcDbLine
 62
7
  6
CONTINUOUS
 10
18.2515709084
 20
59.2869072803
 11
21.3048796748
 21
57.5241185217
  0
LINE
  5
24C
100
AcDbEntity
  8
0
100
AcDbLine
 62
7
  6
CONTINUOUS
 10
28.7046325533
 20
53.2519658544
 11
31.7579413197
 21
51.4891770958
  0
LINE
  5
24D
100
AcDbEntity
  8
0
100
AcDbLine
 62
7
  6
CONTINUOUS
 10
26.4954461022
 20
46.4182776859
 11
26.4954461022
 21
50.3648643356
  0
LINE
  5
24E
100
AcDbEntity
  8
0
100
AcDbLine
 62
7
  6
CONTINUOUS
 10
27.1419778822
 20
44.800485898
 11
27.1419778822
 21
45.6154809507
  0
LINE
  5
24F
100
AcDbEntity
  8
0
100
AcDbLine
 62
7
  6
CONTINUOUS
 10
27.6270063054
 20
56.362850815
 11
27.6270063054
 21
50.1411024095
  0
LINE
  5
250
100
AcDbEntity
  8
0
100
AcDbLine
 62
7
  6
CONTINUOUS
 10
28.2555342774
 20
44.9725834105
 11
28.2555342774
 21
44.1575883578
  0
LINE
  5
251
100
AcDbEntity
  8
0
100
AcDbLine
 62
7
  6
CONTINUOUS
 10
28.7046325533
 20
49.7263084172
 11
28.7046325533
 21
55.7406970857
  0
LINE
  5
252
100
AcDbEntity
  8
0
100
AcDbLine
 62
7
  6
CONTINUOUS
 10
29.3331605253
 20
43.7427943655
 11
29.3331605253
 21
44.3504296812
  0
LINE
  5
253
100
AcDbEntity
  8
0
100
AcDbLine
 62
7
  6
CONTINUOUS
 10
11.4085962275
 20
72.5702656692
 11
31.6500092508
 21
84.2565811691
  0
LINE
  5
254
100
AcDbEntity
  8
0
100
AcDbLine
 62
7
  6
CONTINUOUS
 10
37.0561009278
 20
87.3777710231
 11
38.1696480507
 21
88.0206739166
  0
LINE
  5
255
100
AcDbEntity
  8
0
100
AcDbLine
 62
7
  6
CONTINUOUS
 10
40.6841092958
 20
89.4723901278
 11
41.7976564186
 21
90.1152930213
  0
LINE
  5
256
100
AcDbEntity
  8
0
100
AcDbLine
 62
7
  6
CONTINUOUS
 10
56.7946217021
 20
98.7737432808
 11
67.2655567443
 21
104.8191043601
  0
LINE
  5
257
100
AcDbEntity
  8
0
100
AcDbLine
 62
7
  6
CONTINUOUS
 10
31.7579413197
 20
53.4519205405
 11
30.4044317862
 21
54.2333519556
  0
LINE
  5
258
100
AcDbEntity
  8
0
100
AcDbLine
 62
7
  6
CONTINUOUS
 10
21.3048796748
 20
59.4868619664
 11
19.9513701413
 21
60.2682933816
  0
LINE
  5
259
100
AcDbEntity
  8
0
100
AcDbLine
 62
7
  6
CONTINUOUS
 10
16.4734817667
 20
62.7399780482
 11
11.4085962275
 21
65.6641249246
  0
LINE
  5
25A
100
AcDbEntity
  8
0
100
AcDbLine
 62
7
  6
CONTINUOUS
 10
31.7579413197
 20
53.9779083271
 11
27.6270063054
 21
56.362850815
  0
LINE
  5
25B
100
AcDbEntity
  8
0
100
AcDbLine
 62
7
  6
CONTINUOUS
 10
21.3048796748
 20
60.012849753
 11
17.1739446605
 21
62.3977922409
  0
LINE
  5
25C
100
AcDbEntity
  8
0
100
AcDbLine
 62
7
  6
CONTINUOUS
 10
30.4044317862
 20
54.2333519556
 11
30.4044317862
 21
54.7593397423
  0
LINE
  5
25D
100
AcDbEntity
  8
0
100
AcDbLine
 62
7
  6
CONTINUOUS
 10
31.7579413197
 20
47.7561599216
 11
31.7579413197
 21
53.9779083271
  0
LINE
  5
25E
100
AcDbEntity
  8
0
100
AcDbLine
 62
7
  6
CONTINUOUS
 10
32.3864692917
 20
41.7726458699
 11
32.3864692917
 21
42.5876409226
  0
LINE
  5
25F
100
AcDbEntity
  8
0
100
AcDbLine
 62
7
  6
CONTINUOUS
 10
32.6020889096
 20
60.3344737747
 11
32.6020889096
 21
47.2688021089
  0
LINE
  5
260
100
AcDbEntity
  8
0
100
AcDbLine
 62
7
  6
CONTINUOUS
 10
32.8175727328
 20
46.7148653976
 11
32.8175727328
 21
42.7682787479
  0
LINE
  5
261
100
AcDbEntity
  8
0
100
AcDbLine
 62
7
  6
CONTINUOUS
 10
20.8378423476
 20
75.732942627
 11
18.8621942264
 21
74.5923084611
  0
LINE
  5
262
100
AcDbEntity
  8
0
100
AcDbLine
 62
7
  6
CONTINUOUS
 10
56.7946217021
 20
95.8702606855
 11
44.3121820529
 21
88.663563812
  0
LINE
  5
263
100
AcDbEntity
  8
0
100
AcDbLine
 62
7
  6
CONTINUOUS
 10
37.0561009278
 20
84.4742884278
 11
34.164534885
 21
82.8048519598
  0
LINE
  5
264
100
AcDbEntity
  8
0
100
AcDbLine
 62
7
  6
CONTINUOUS
 10
73.1027348134
 20
103.2118678488
 11
71.5760976288
 21
102.3304687206
  0
LINE
  5
265
100
AcDbEntity
  8
0
100
AcDbLine
 62
7
  6
CONTINUOUS
 10
21.376676409
 20
73.140604338
 11
23.3523245302
 21
74.281238504
  0
LINE
  5
266
100
AcDbEntity
  8
0
100
AcDbLine
 62
7
  6
CONTINUOUS
 10
33.5000256869
 20
42.206280345
 11
33.5000256869
 21
41.1297483297
  0
LINE
  5
267
100
AcDbEntity
  8
0
100
AcDbLine
 62
7
  6
CONTINUOUS
 10
33.8951989807
 20
42.3534847556
 11
33.8951989807
 21
46.9784170173
  0
LINE
  5
268
100
AcDbEntity
  8
0
100
AcDbLine
 62
7
  6
CONTINUOUS
 10
34.5776519348
 20
40.7149543374
 11
34.5776519348
 21
41.9594792724
  0
LINE
  5
269
100
AcDbEntity
  8
0
100
AcDbLine
 62
7
  6
CONTINUOUS
 10
35.5949982137
 20
46.860528294
 11
35.5949982137
 21
47.3865160806
  0
LINE
  5
26A
100
AcDbEntity
  8
0
100
AcDbLine
 62
7
  6
CONTINUOUS
 10
38.0260086692
 20
81.819797286
 11
36.9483824213
 21
81.1976331955
  0
LINE
  5
26B
100
AcDbEntity
  8
0
100
AcDbLine
 62
7
  6
CONTINUOUS
 10
74.8090032922
 20
100.4639919909
 11
76.0662339148
 21
101.1898500965
  0
LINE
  5
26C
100
AcDbEntity
  8
0
100
AcDbLine
 62
7
  6
CONTINUOUS
 10
32.6020889096
 20
60.3344737747
 11
11.4085962275
 21
72.5702656692
  0
LINE
  5
26D
100
AcDbEntity
  8
0
100
AcDbLine
 62
7
  6
CONTINUOUS
 10
36.9485077471
 20
40.38333626
 11
36.9485077471
 21
46.6050846655
  0
LINE
  5
26E
100
AcDbEntity
  8
0
100
AcDbLine
 62
7
  6
CONTINUOUS
 10
37.0561009278
 20
87.3777710231
 11
37.0561009278
 21
84.4742884278
  0
LINE
  5
26F
100
AcDbEntity
  8
0
100
AcDbLine
 62
7
  6
CONTINUOUS
 10
37.6309607012
 20
38.7448058418
 11
37.6309607012
 21
39.5598008944
  0
LINE
  5
270
100
AcDbEntity
  8
0
100
AcDbLine
 62
7
  6
CONTINUOUS
 10
37.792655337
 20
49.228601062
 11
37.792655337
 21
39.8959784472
  0
LINE
  5
271
100
AcDbEntity
  8
0
100
AcDbLine
 62
7
  6
CONTINUOUS
 10
38.7445170963
 20
39.408574727
 11
38.7445170963
 21
38.1019083016
  0
LINE
  5
272
100
AcDbEntity
  8
0
100
AcDbLine
 62
7
  6
CONTINUOUS
 10
39.8221433443
 20
37.6871143092
 11
39.8221433443
 21
40.0307388175
  0
LINE
  5
273
100
AcDbEntity
  8
0
100
AcDbLine
 62
7
  6
CONTINUOUS
 10
40.6841092958
 20
89.4723901278
 11
40.6841092958
 21
86.8509294171
  0
LINE
  5
274
100
AcDbEntity
  8
0
100
AcDbLine
 62
7
  6
CONTINUOUS
 10
42.3005621275
 20
88.539151763
 11
42.3005621275
 21
87.1021847104
  0
LINE
  5
275
100
AcDbEntity
  8
0
100
AcDbLine
 62
7
  6
CONTINUOUS
 10
42.8754521107
 20
35.7169658136
 11
42.8754521107
 21
41.7935569331
  0
LINE
  5
276
100
AcDbEntity
  8
0
100
AcDbLine
 62
7
  6
CONTINUOUS
 10
82.1728335011
 20
97.6642829405
 11
80.9156028786
 21
96.9384248349
  0
LINE
  5
277
100
AcDbEntity
  8
0
100
AcDbLine
 62
7
  6
CONTINUOUS
 10
19.9513701413
 20
60.2682933816
 11
18.2515709084
 21
59.2869072803
  0
LINE
  5
278
100
AcDbEntity
  8
0
100
AcDbLine
 62
7
  6
CONTINUOUS
 10
43.7195997005
 20
42.2809228622
 11
43.7195997005
 21
35.2296080009
  0
LINE
  5
279
100
AcDbEntity
  8
0
100
AcDbLine
 62
7
  6
CONTINUOUS
 10
48.6227550103
 20
75.7019013387
 11
47.5451287624
 21
75.0797372482
  0
LINE
  5
27A
100
AcDbEntity
  8
0
100
AcDbLine
 62
7
  6
CONTINUOUS
 10
78.6705736195
 20
92.1166678119
 11
76.6949254983
 21
90.976033646
  0
LINE
  5
27B
100
AcDbEntity
  8
0
100
AcDbLine
 62
7
  6
CONTINUOUS
 10
84.1485085419
 20
95.0719481052
 11
85.6751457265
 21
95.9533472334
  0
LINE
  5
27C
100
AcDbEntity
  8
0
100
AcDbLine
 62
7
  6
CONTINUOUS
 10
71.6121149658
 20
86.9008191299
 11
72.6897412137
 21
87.5229832204
  0
LINE
  5
27D
100
AcDbEntity
  8
0
100
AcDbLine
 62
7
  6
CONTINUOUS
 10
18.0719665486
 20
55.6575558367
 11
18.2515709084
 21
55.7612498431
  0
LINE
  5
27E
100
AcDbEntity
  8
0
100
AcDbLine
 62
7
  6
CONTINUOUS
 10
48.6227550103
 20
74.4575835189
 11
48.6227550103
 21
75.7019013387
  0
LINE
  5
27F
100
AcDbEntity
  8
0
100
AcDbLine
 62
7
  6
CONTINUOUS
 10
61.0153686247
 20
93.433498305
 11
62.0929948726
 21
95.7147953072
  0
LINE
  5
280
100
AcDbEntity
  8
0
100
AcDbLine
 62
7
  6
CONTINUOUS
 10
79.209407681
 20
89.5243295229
 11
81.1850558021
 21
90.6649636888
  0
LINE
  5
281
100
AcDbEntity
  8
0
100
AcDbLine
 62
7
  6
CONTINUOUS
 10
88.4590494264
 20
92.5833124657
 11
77.9881143842
 21
86.5379513863
  0
LINE
  5
282
100
AcDbEntity
  8
0
100
AcDbLine
 62
7
  6
CONTINUOUS
 10
62.9911491007
 20
77.8795011268
 11
61.8776019779
 21
77.2365982333
  0
LINE
  5
283
100
AcDbEntity
  8
0
100
AcDbLine
 62
7
  6
CONTINUOUS
 10
59.3631407328
 20
75.7848820221
 11
58.2495936099
 21
75.1419791286
  0
LINE
  5
284
100
AcDbEntity
  8
0
100
AcDbLine
 62
7
  6
CONTINUOUS
 10
52.8435019329
 20
72.0207892746
 11
32.6020889096
 21
60.3344737747
  0
LINE
  5
285
100
AcDbEntity
  8
0
100
AcDbLine
 62
7
  6
CONTINUOUS
 10
60.2611491462
 20
62.8228571658
 11
61.8776019779
 21
61.8896188009
  0
LINE
  5
286
100
AcDbEntity
  8
0
100
AcDbLine
 62
7
  6
CONTINUOUS
 10
50.957655999
 20
55.5850226839
 11
50.957655999
 21
38.371518726
  0
LINE
  5
287
100
AcDbEntity
  8
0
100
AcDbLine
 62
7
  6
CONTINUOUS
 10
52.8435019329
 20
72.0207892746
 11
52.8435019329
 21
69.1173066793
  0
LINE
  5
288
100
AcDbEntity
  8
0
100
AcDbLine
 62
7
  6
CONTINUOUS
 10
52.8435019329
 20
69.1173066793
 11
58.2495936099
 21
72.2384965333
  0
LINE
  5
289
100
AcDbEntity
  8
0
100
AcDbLine
 62
7
  6
CONTINUOUS
 10
62.9911491007
 20
74.9760185315
 11
77.9881143842
 21
83.634468791
  0
LINE
  5
28A
100
AcDbEntity
  8
0
100
AcDbLine
 62
7
  6
CONTINUOUS
 10
23.6270954014
 20
52.020869921
 11
23.4421373358
 21
51.9140836187
  0
LINE
  5
28B
100
AcDbEntity
  8
0
100
AcDbLine
 62
7
  6
CONTINUOUS
 10
30.4044317862
 20
54.2333519556
 11
28.7046325533
 21
53.2519658544
  0
LINE
  5
28C
100
AcDbEntity
  8
0
100
AcDbLine
 62
7
  6
CONTINUOUS
 10
31.6500092508
 20
84.2565811691
 11
36.9483824213
 21
81.1976331955
  0
LINE
  5
28D
100
AcDbEntity
  8
0
100
AcDbLine
 62
7
  6
CONTINUOUS
 10
47.5451287624
 20
75.0797372482
 11
52.8435019329
 21
72.0207892746
  0
LINE
  5
28E
100
AcDbEntity
  8
0
100
AcDbLine
 62
7
  6
CONTINUOUS
 10
55.829455972
 20
58.3977409201
 11
55.829455972
 21
53.0054944493
  0
LINE
  5
28F
100
AcDbEntity
  8
0
100
AcDbLine
 62
7
  6
CONTINUOUS
 10
56.7946217021
 20
98.7737432808
 11
56.7946217021
 21
95.8702606855
  0
LINE
  5
290
100
AcDbEntity
  8
0
100
AcDbLine
 62
7
  6
CONTINUOUS
 10
23.2625329761
 20
48.284732175
 11
23.4421373358
 21
48.3884261815
  0
LINE
  5
291
100
AcDbEntity
  8
0
100
AcDbLine
 62
7
  6
CONTINUOUS
 10
88.4590494264
 20
85.6771717211
 11
80.5564569417
 21
81.1146350574
  0
LINE
  5
292
100
AcDbEntity
  8
0
100
AcDbLine
 62
7
  6
CONTINUOUS
 10
80.5564569417
 20
80.0153541404
 11
82.2806149584
 21
81.0107912935
  0
LINE
  5
293
100
AcDbEntity
  8
0
100
AcDbLine
 62
7
  6
CONTINUOUS
 10
28.5250281935
 20
49.6226144107
 11
28.7046325533
 21
49.7263084172
  0
LINE
  5
294
100
AcDbEntity
  8
0
100
AcDbLine
 62
7
  6
CONTINUOUS
 10
23.9090647561
 20
46.6669403871
 11
24.0886691159
 21
46.7706343936
  0
LINE
  5
295
100
AcDbEntity
  8
0
100
AcDbLine
 62
7
  6
CONTINUOUS
 10
48.6227550103
 20
75.7019013387
 11
38.0260086692
 21
81.819797286
  0
LINE
  5
296
100
AcDbEntity
  8
0
100
AcDbLine
 62
7
  6
CONTINUOUS
 10
58.2495936099
 20
72.2384965333
 11
37.0561009278
 21
84.4742884278
  0
LINE
  5
297
100
AcDbEntity
  8
0
100
AcDbLine
 62
7
  6
CONTINUOUS
 10
58.2495936099
 20
72.2384965333
 11
58.2495936099
 21
75.1419791286
  0
LINE
  5
298
100
AcDbEntity
  8
0
100
AcDbLine
 62
7
  6
CONTINUOUS
 10
58.9454754119
 20
54.804518373
 11
58.9454754119
 21
60.1967648437
  0
LINE
  5
299
100
AcDbEntity
  8
0
100
AcDbLine
 62
7
  6
CONTINUOUS
 10
59.3631407328
 20
75.7848820221
 11
59.3631407328
 21
60.4379025898
  0
LINE
  5
29A
100
AcDbEntity
  8
0
100
AcDbLine
 62
7
  6
CONTINUOUS
 10
60.2611491462
 20
62.8228571658
 11
60.2611491462
 21
78.1698365981
  0
LINE
  5
29B
100
AcDbEntity
  8
0
100
AcDbLine
 62
7
  6
CONTINUOUS
 10
58.2495936099
 20
75.1419791286
 11
37.0561009278
 21
87.3777710231
  0
LINE
  5
29C
100
AcDbEntity
  8
0
100
AcDbLine
 62
7
  6
CONTINUOUS
 10
38.1696480507
 20
88.0206739166
 11
39.7861008823
 21
87.0874355518
  0
LINE
  5
29D
100
AcDbEntity
  8
0
100
AcDbLine
 62
7
  6
CONTINUOUS
 10
57.7466879011
 20
76.718120387
 11
59.3631407328
 21
75.7848820221
  0
LINE
  5
29E
100
AcDbEntity
  8
0
100
AcDbLine
 62
7
  6
CONTINUOUS
 10
61.0153686247
 20
93.433498305
 11
61.0153686247
 21
93.0187150771
  0
LINE
  5
29F
100
AcDbEntity
  8
0
100
AcDbLine
 62
7
  6
CONTINUOUS
 10
61.8776019779
 20
61.8896188009
 11
61.8776019779
 21
77.2365982333
  0
LINE
  5
2A0
100
AcDbEntity
  8
0
100
AcDbLine
 62
7
  6
CONTINUOUS
 10
62.9911491007
 20
77.8795011268
 11
62.9911491007
 21
74.9760185315
  0
LINE
  5
2A1
100
AcDbEntity
  8
0
100
AcDbLine
 62
7
  6
CONTINUOUS
 10
72.6897412137
 20
89.5968993599
 11
71.6121149658
 21
87.3156023578
  0
LINE
  5
2A2
100
AcDbEntity
  8
0
100
AcDbLine
 62
7
  6
CONTINUOUS
 10
80.5564569417
 20
73.9181460533
 11
73.1747171435
 21
69.6563220334
  0
LINE
  5
2A3
100
AcDbEntity
  8
0
100
AcDbLine
 62
7
  6
CONTINUOUS
 10
33.5001107977
 20
46.7503141101
 11
37.792655337
 21
49.228601062
  0
LINE
  5
2A4
100
AcDbEntity
  8
0
100
AcDbLine
 62
7
  6
CONTINUOUS
 10
29.1535561656
 20
43.639100359
 11
29.3331605253
 21
43.7427943655
  0
LINE
  5
2A5
100
AcDbEntity
  8
0
100
AcDbLine
 62
7
  6
CONTINUOUS
 10
35.5949982137
 20
46.860528294
 11
33.8951989807
 21
45.8791421927
  0
LINE
  5
2A6
100
AcDbEntity
  8
0
100
AcDbLine
 62
7
  6
CONTINUOUS
 10
73.1747171435
 20
68.4119723497
 11
61.8776019779
 21
61.8896188009
  0
LINE
  5
2A7
100
AcDbEntity
  8
0
100
AcDbLine
 62
7
  6
CONTINUOUS
 10
59.3631407328
 20
60.4379025898
 11
50.957655999
 21
55.5850226839
  0
LINE
  5
2A8
100
AcDbEntity
  8
0
100
AcDbLine
 62
7
  6
CONTINUOUS
 10
61.8776019779
 20
77.2365982333
 11
60.2611491462
 21
78.1698365981
  0
LINE
  5
2A9
100
AcDbEntity
  8
0
100
AcDbLine
 62
7
  6
CONTINUOUS
 10
42.3005621275
 20
88.539151763
 11
40.6841092958
 21
89.4723901278
  0
LINE
  5
2AA
100
AcDbEntity
  8
0
100
AcDbLine
 62
7
  6
CONTINUOUS
 10
41.7976564186
 20
90.1152930213
 11
62.9911491007
 21
77.8795011268
  0
LINE
  5
2AB
100
AcDbEntity
  8
0
100
AcDbLine
 62
7
  6
CONTINUOUS
 10
69.9418114801
 20
63.5174416095
 11
76.1201849078
 21
67.0845058786
  0
LINE
  5
2AC
100
AcDbEntity
  8
0
100
AcDbLine
 62
7
  6
CONTINUOUS
 10
33.715594621
 20
42.2497907491
 11
33.8951989807
 21
42.3534847556
  0
LINE
  5
2AD
100
AcDbEntity
  8
0
100
AcDbLine
 62
7
  6
CONTINUOUS
 10
50.957655999
 20
50.1927762132
 11
55.829455972
 21
53.0054944493
  0
LINE
  5
2AE
100
AcDbEntity
  8
0
100
AcDbLine
 62
7
  6
CONTINUOUS
 10
58.9454754119
 20
54.804518373
 11
69.9418114801
 21
61.1532180655
  0
LINE
  5
2AF
100
AcDbEntity
  8
0
100
AcDbLine
 62
7
  6
CONTINUOUS
 10
34.398047575
 20
40.6112603309
 11
34.5776519348
 21
40.7149543374
  0
LINE
  5
2B0
100
AcDbEntity
  8
0
100
AcDbLine
 62
7
  6
CONTINUOUS
 10
69.9418114801
 20
61.1532180655
 11
69.9418114801
 21
66.5454645362
  0
LINE
  5
2B1
100
AcDbEntity
  8
0
100
AcDbLine
 62
7
  6
CONTINUOUS
 10
38.6906772252
 20
39.3774904484
 11
43.7195997005
 21
42.2809228622
  0
LINE
  5
2B2
100
AcDbEntity
  8
0
100
AcDbLine
 62
7
  6
CONTINUOUS
 10
71.6121149658
 20
87.3156023578
 11
71.6121149658
 21
86.9008191299
  0
LINE
  5
2B3
100
AcDbEntity
  8
0
100
AcDbLine
 62
7
  6
CONTINUOUS
 10
72.6897412137
 20
87.5229832204
 11
72.6897412137
 21
89.5968993599
  0
LINE
  5
2B4
100
AcDbEntity
  8
0
100
AcDbLine
 62
7
  6
CONTINUOUS
 10
73.1747171435
 20
69.6563220334
 11
73.1747171435
 21
68.4119723497
  0
LINE
  5
2B5
100
AcDbEntity
  8
0
100
AcDbLine
 62
7
  6
CONTINUOUS
 10
39.6425389845
 20
37.5834203028
 11
39.8221433443
 21
37.6871143092
  0
LINE
  5
2B6
100
AcDbEntity
  8
0
100
AcDbLine
 62
7
  6
CONTINUOUS
 10
76.0662339148
 20
99.7381459734
 11
76.0662339148
 21
101.1898500965
  0
LINE
  5
2B7
100
AcDbEntity
  8
0
100
AcDbLine
 62
7
  6
CONTINUOUS
 10
76.6949254983
 20
89.5389601687
 11
76.6949254983
 21
90.976033646
  0
LINE
  5
2B8
100
AcDbEntity
  8
0
100
AcDbLine
 62
7
  6
CONTINUOUS
 10
76.996306674
 20
100.6528844864
 11
76.996306674
 21
99.2011803632
  0
LINE
  5
2B9
100
AcDbEntity
  8
0
100
AcDbLine
 62
7
  6
CONTINUOUS
 10
77.0182067923
 20
68.6399340475
 11
77.0182067923
 21
71.875348571
  0
LINE
  5
2BA
100
AcDbEntity
  8
0
100
AcDbLine
 62
7
  6
CONTINUOUS
 10
77.9881143842
 20
83.634468791
 11
77.9881143842
 21
86.5379513863
  0
LINE
  5
2BB
100
AcDbEntity
  8
0
100
AcDbLine
 62
7
  6
CONTINUOUS
 10
81.3284956683
 20
98.6493614062
 11
81.2427607419
 21
98.2012485506
  0
LINE
  5
2BC
100
AcDbEntity
  8
0
100
AcDbLine
 62
7
  6
CONTINUOUS
 10
83.725435216
 20
98.1159191726
 11
83.9688742566
 21
99.1159974248
  0
LINE
  5
2BD
100
AcDbEntity
  8
0
100
AcDbLine
 62
7
  6
CONTINUOUS
 10
44.6176215887
 20
34.7111200021
 11
50.957655999
 21
38.371518726
  0
LINE
  5
2BE
100
AcDbEntity
  8
0
100
AcDbLine
 62
7
  6
CONTINUOUS
 10
71.6121149658
 20
86.9008191299
 11
61.0153686247
 21
93.0187150771
  0
LINE
  5
2BF
100
AcDbEntity
  8
0
100
AcDbLine
 62
7
  6
CONTINUOUS
 10
77.9881143842
 20
83.634468791
 11
71.9713053182
 21
87.1081965387
  0
LINE
  5
2C0
100
AcDbEntity
  8
0
100
AcDbLine
 62
7
  6
CONTINUOUS
 10
71.6121149658
 20
87.3156023578
 11
56.7946217021
 21
95.8702606855
  0
LINE
  5
2C1
100
AcDbEntity
  8
0
100
AcDbLine
 62
7
  6
CONTINUOUS
 10
78.6705736195
 20
92.1166678119
 11
78.6705736195
 21
89.33212803
  0
LINE
  5
2C2
100
AcDbEntity
  8
0
100
AcDbLine
 62
7
  6
CONTINUOUS
 10
80.5564569417
 20
81.1146350574
 11
80.5564569417
 21
73.9181460533
  0
LINE
  5
2C3
100
AcDbEntity
  8
0
100
AcDbLine
 62
7
  6
CONTINUOUS
 10
81.2427607419
 20
97.1273083878
 11
81.2427607419
 21
98.2012485506
  0
LINE
  5
2C4
100
AcDbEntity
  8
0
100
AcDbLine
 62
7
  6
CONTINUOUS
 10
78.580698151
 20
102.2267919742
 11
76.8484890704
 21
102.0862360604
  0
LINE
  5
2C5
100
AcDbEntity
  8
0
100
AcDbLine
 62
7
  6
CONTINUOUS
 10
77.9881143842
 20
86.5379513863
 11
56.7946217021
 21
98.7737432808
  0
LINE
  5
2C6
100
AcDbEntity
  8
0
100
AcDbLine
 62
7
  6
CONTINUOUS
 10
83.1786368429
 20
82.5662194624
 11
83.1786368429
 21
82.6285422924
  0
LINE
  5
2C7
100
AcDbEntity
  8
0
100
AcDbLine
 62
7
  6
CONTINUOUS
 10
83.9688742566
 20
97.9753727566
 11
83.9688742566
 21
99.1159974248
  0
LINE
  5
2C8
100
AcDbEntity
  8
0
100
AcDbLine
 62
7
  6
CONTINUOUS
 10
85.6751457265
 20
94.1905636553
 11
85.6751457265
 21
95.9533472334
  0
LINE
  5
2C9
100
AcDbEntity
  8
0
100
AcDbLine
 62
7
  6
CONTINUOUS
 10
88.4590494264
 20
85.6771717211
 11
88.4590494264
 21
92.5833124657
  0
LINE
  5
2CA
100
AcDbEntity
  8
0
100
AcDbLine
 62
7
  6
CONTINUOUS
 10
75.2832755142
 20
102.989892085
 11
73.1027348134
 21
103.2118678488
  0
LINE
  5
2CB
100
AcDbEntity
  8
0
100
AcDbLine
 62
7
  6
CONTINUOUS
 10
88.4590494264
 20
92.5833124657
 11
84.1485085419
 21
95.0719481052
  0
LINE
  5
2CC
100
AcDbEntity
  8
0
100
AcDbLine
 62
7
  6
CONTINUOUS
 10
80.9156028786
 20
96.9384248349
 11
74.8090032922
 21
100.4639919909
  0
LINE
  5
2CD
100
AcDbEntity
  8
0
100
AcDbLine
 62
7
  6
CONTINUOUS
 10
71.5760976288
 20
102.3304687206
 11
67.2655567443
 21
104.8191043601
  0
LINE
  5
2CE
100
AcDbEntity
  8
0
100
AcDbLine
 62
7
  6
CONTINUOUS
 10
76.0662339148
 20
101.1898500965
 11
76.996306674
 21
100.6528844864
  0
LINE
  5
2CF
100
AcDbEntity
  8
0
100
AcDbLine
 62
7
  6
CONTINUOUS
 10
81.2427607419
 20
98.2012485506
 11
82.1728335011
 21
97.6642829405
  0
LINE
  5
2D0
100
AcDbEntity
  8
0
100
AcDbLine
 62
7
  6
CONTINUOUS
 10
85.2906487722
 20
97.212263148
 11
83.725435216
 21
98.1159191726
  0
LINE
  5
2D1
100
AcDbEntity
  8
0
100
AcDbLine
 62
7
  6
CONTINUOUS
 10
76.8484890704
 20
102.0862360604
 11
75.2832755142
 21
102.989892085
  0
LINE
  5
2D2
100
AcDbEntity
  8
0
100
AcDbLine
 62
7
  6
CONTINUOUS
 10
85.6751457265
 20
95.9533472334
 11
85.2906487722
 21
97.212263148
  0
LINE
  5
2D3
100
AcDbEntity
  8
0
100
AcDbLine
 62
7
  6
CONTINUOUS
 10
83.9688742566
 20
99.1159974248
 11
78.580698151
 21
102.2267919742
  0
SPLINE
  5
2D4
100
AcDbEntity
  8
0
100
AcDbSpline
 62
7
  6
CONTINUOUS
 70
0
 71
3
 72
11
 73
7
 74
0
 42
0.0000001
 43
0.0000001
 44
0.0000000001
 40
0.0
 40
0.0
 40
0.0
 40
0.0
 40
0.2177648073
 40
0.4508950352
 40
0.7103684932
 40
1.0
 40
1.0
 40
1.0
 40
1.0
 10
23.8730461688
 20
75.0070906855
 30
0.0
 10
23.8730192713
 20
74.9393758424
 30
0.0
 10
23.8481014311
 20
74.7982190345
 30
0.0
 10
23.7410350317
 20
74.6015336886
 30
0.0
 10
23.5718466332
 20
74.4237864534
 30
0.0
 10
23.4303207041
 20
74.3262693472
 30
0.0
 10
23.3523245302
 20
74.281238504
 30
0.0
  0
SPLINE
  5
2D5
100
AcDbEntity
  8
0
100
AcDbSpline
 62
7
  6
CONTINUOUS
 70
0
 71
3
 72
11
 73
7
 74
0
 42
0.0000001
 43
0.0000001
 44
0.0000000001
 40
0.0
 40
0.0
 40
0.0
 40
0.0
 40
0.2177442243
 40
0.4508817657
 40
0.7104588049
 40
1.0
 40
1.0
 40
1.0
 40
1.0
 10
16.7365499458
 20
55.9991202492
 30
0.0
 10
16.6946651013
 20
56.0233019508
 30
0.0
 10
16.6162191762
 20
56.0890993848
 30
0.0
 10
16.5327719084
 20
56.2256004703
 30
0.0
 10
16.4833013829
 20
56.3937625922
 30
0.0
 10
16.4734817668
 20
56.516135775
 30
0.0
 10
16.4734817667
 20
56.5804471269
 30
0.0
  0
SPLINE
  5
2D6
100
AcDbEntity
  8
0
100
AcDbSpline
 62
7
  6
CONTINUOUS
 70
0
 71
3
 72
11
 73
7
 74
0
 42
0.0000001
 43
0.0000001
 44
0.0000000001
 40
0.0
 40
0.0
 40
0.0
 40
0.0
 40
0.2177456291
 40
0.4508837758
 40
0.7104602914
 40
1.0
 40
1.0
 40
1.0
 40
1.0
 10
17.4370128387
 20
55.5947169583
 30
0.0
 10
17.4788963073
 20
55.5705360808
 30
0.0
 10
17.5750984864
 20
55.5355012282
 30
0.0
 10
17.7350294418
 20
55.5314851338
 30
0.0
 10
17.905390292
 20
55.5727217209
 30
0.0
 10
18.0162736929
 20
55.6254017435
 30
0.0
 10
18.0719665486
 20
55.6575558367
 30
0.0
  0
SPLINE
  5
2D7
100
AcDbEntity
  8
0
100
AcDbSpline
 62
7
  6
CONTINUOUS
 70
0
 71
3
 72
11
 73
7
 74
0
 42
0.0000001
 43
0.0000001
 44
0.0000000001
 40
0.0
 40
0.0
 40
0.0
 40
0.0
 40
0.2177442243
 40
0.4508817657
 40
0.7104588049
 40
1.0
 40
1.0
 40
1.0
 40
1.0
 10
22.7891751975
 20
46.8840730177
 30
0.0
 10
22.747290353
 20
46.9082547193
 30
0.0
 10
22.6688444279
 20
46.9740521533
 30
0.0
 10
22.5853971601
 20
47.1105532388
 30
0.0
 10
22.5359266346
 20
47.2787153607
 30
0.0
 10
22.5261070185
 20
47.4010885435
 30
0.0
 10
22.5261070184
 20
47.4653998954
 30
0.0
  0
SPLINE
  5
2D8
100
AcDbEntity
  8
0
100
AcDbSpline
 62
7
  6
CONTINUOUS
 70
0
 71
3
 72
11
 73
7
 74
0
 42
0.0000001
 43
0.0000001
 44
0.0000000001
 40
0.0
 40
0.0
 40
0.0
 40
0.0
 40
0.2177456291
 40
0.4508837758
 40
0.7104602914
 40
1.0
 40
1.0
 40
1.0
 40
1.0
 10
23.2741110462
 20
46.6041015088
 30
0.0
 10
23.3159945148
 20
46.5799206313
 30
0.0
 10
23.4121966939
 20
46.5448857787
 30
0.0
 10
23.5721276492
 20
46.5408696843
 30
0.0
 10
23.7424884995
 20
46.5821062714
 30
0.0
 10
23.8533719004
 20
46.634786294
 30
0.0
 10
23.9090647561
 20
46.6669403871
 30
0.0
  0
SPLINE
  5
2D9
100
AcDbEntity
  8
0
100
AcDbSpline
 62
7
  6
CONTINUOUS
 70
0
 71
3
 72
11
 73
7
 74
0
 42
0.0000001
 43
0.0000001
 44
0.0000000001
 40
0.0
 40
0.0
 40
0.0
 40
0.0
 40
0.2177648073
 40
0.4508950352
 40
0.7103684932
 40
1.0
 40
1.0
 40
1.0
 40
1.0
 10
81.7057774407
 20
91.3908158704
 30
0.0
 10
81.7057505432
 20
91.3231010273
 30
0.0
 10
81.680832703
 20
91.1819442193
 30
0.0
 10
81.5737663036
 20
90.9852588735
 30
0.0
 10
81.4045779052
 20
90.8075116382
 30
0.0
 10
81.263051976
 20
90.709994532
 30
0.0
 10
81.1850558021
 20
90.6649636888
 30
0.0
  0
SPLINE
  5
2DA
100
AcDbEntity
  8
0
100
AcDbSpline
 62
7
  6
CONTINUOUS
 70
0
 71
3
 72
17
 73
13
 74
0
 42
0.0000001
 43
0.0000001
 44
0.0000000001
 40
0.0
 40
0.0
 40
0.0
 40
0.0
 40
0.128688448
 40
0.2702796817
 40
0.4174325464
 40
0.5617749928
 40
0.6954478191
 40
0.8127119577
 40
0.8646769781
 40
0.912510124
 40
0.9571398159
 40
1.0
 40
1.0
 40
1.0
 40
1.0
 10
21.376676409
 20
73.140604338
 30
0.0
 10
21.2450630014
 20
73.0646177553
 30
0.0
 10
20.9470663639
 20
72.9416653339
 30
0.0
 10
20.4613970821
 20
72.8444941763
 30
0.0
 10
19.9477119401
 20
72.8302741258
 30
0.0
 10
19.4479373158
 20
72.900500964
 30
0.0
 10
19.0025852405
 20
73.049253582
 30
0.0
 10
18.6928424974
 20
73.2377977386
 30
0.0
 10
18.5110707367
 20
73.4202296623
 30
0.0
 10
18.414502097
 20
73.5622617679
 30
0.0
 10
18.3549962655
 20
73.712077167
 30
0.0
 10
18.3414524825
 20
73.8158408079
 30
0.0
 10
18.3414725879
 20
73.8664562796
 30
0.0
  0
SPLINE
  5
2DB
100
AcDbEntity
  8
0
100
AcDbSpline
 62
7
  6
CONTINUOUS
 70
0
 71
3
 72
17
 73
13
 74
0
 42
0.0000001
 43
0.0000001
 44
0.0000000001
 40
0.0
 40
0.0
 40
0.0
 40
0.0
 40
0.0428571277
 40
0.087483909
 40
0.1353159407
 40
0.187279013
 40
0.3045397097
 40
0.4382076182
 40
0.5825507004
 40
0.7297102646
 40
0.8713099941
 40
1.0
 40
1.0
 40
1.0
 40
1.0
 10
42.8212997041
 20
87.8132936004
 30
0.0
 10
42.821320037
 20
87.7626818776
 30
0.0
 10
42.8077683583
 20
87.6589275397
 30
0.0
 10
42.7482824019
 20
87.5091142419
 30
0.0
 10
42.651710121
 20
87.36709284
 30
0.0
 10
42.4699604837
 20
87.1846526169
 30
0.0
 10
42.1602269465
 20
86.9961136461
 30
0.0
 10
41.714891039
 20
86.8473509037
 30
0.0
 10
41.2151154286
 20
86.7771153586
 30
0.0
 10
40.7014126735
 20
86.7913246696
 30
0.0
 10
40.2157240838
 20
86.8884955248
 30
0.0
 10
39.9177160689
 20
87.0114492074
 30
0.0
 10
39.7861008823
 20
87.0874355518
 30
0.0
  0
SPLINE
  5
2DC
100
AcDbEntity
  8
0
100
AcDbSpline
 62
7
  6
CONTINUOUS
 70
0
 71
3
 72
11
 73
7
 74
0
 42
0.0000001
 43
0.0000001
 44
0.0000000001
 40
0.0
 40
0.0
 40
0.0
 40
0.0
 40
0.2177442243
 40
0.4508817657
 40
0.7104588049
 40
1.0
 40
1.0
 40
1.0
 40
1.0
 10
43.1385202898
 20
35.135638936
 30
0.0
 10
43.0966354453
 20
35.1598206376
 30
0.0
 10
43.0181895201
 20
35.2256180716
 30
0.0
 10
42.9347422523
 20
35.3621191571
 30
0.0
 10
42.8852717268
 20
35.530281279
 30
0.0
 10
42.8754521108
 20
35.6526544618
 30
0.0
 10
42.8754521107
 20
35.7169658136
 30
0.0
  0
SPLINE
  5
2DD
100
AcDbEntity
  8
0
100
AcDbSpline
 62
7
  6
CONTINUOUS
 70
0
 71
3
 72
11
 73
7
 74
0
 42
0.0000001
 43
0.0000001
 44
0.0000000001
 40
0.0
 40
0.0
 40
0.0
 40
0.0
 40
0.2177456291
 40
0.4508837758
 40
0.7104602914
 40
1.0
 40
1.0
 40
1.0
 40
1.0
 10
43.9826678788
 20
34.6482811237
 30
0.0
 10
44.0245513474
 20
34.6241002462
 30
0.0
 10
44.1207535265
 20
34.5890653936
 30
0.0
 10
44.2806844818
 20
34.5850492992
 30
0.0
 10
44.4510453321
 20
34.6262858863
 30
0.0
 10
44.561928733
 20
34.6789659089
 30
0.0
 10
44.6176215887
 20
34.7111200021
 30
0.0
  0
SPLINE
  5
2DE
100
AcDbEntity
  8
0
100
AcDbSpline
 62
7
  6
CONTINUOUS
 70
0
 71
3
 72
11
 73
7
 74
0
 42
0.0000001
 43
0.0000001
 44
0.0000000001
 40
0.0
 40
0.0
 40
0.0
 40
0.0
 40
0.2177442243
 40
0.4508817657
 40
0.7104588049
 40
1.0
 40
1.0
 40
1.0
 40
1.0
 10
37.8940288803
 20
38.1634789641
 30
0.0
 10
37.8521440358
 20
38.1876606657
 30
0.0
 10
37.7736981107
 20
38.2534580997
 30
0.0
 10
37.6902508429
 20
38.3899591852
 30
0.0
 10
37.6407803173
 20
38.5581213071
 30
0.0
 10
37.6309607013
 20
38.6804944899
 30
0.0
 10
37.6309607012
 20
38.7448058418
 30
0.0
  0
SPLINE
  5
2DF
100
AcDbEntity
  8
0
100
AcDbSpline
 62
7
  6
CONTINUOUS
 70
0
 71
3
 72
11
 73
7
 74
0
 42
0.0000001
 43
0.0000001
 44
0.0000000001
 40
0.0
 40
0.0
 40
0.0
 40
0.0
 40
0.2177456291
 40
0.4508837758
 40
0.7104602914
 40
1.0
 40
1.0
 40
1.0
 40
1.0
 10
39.0075852746
 20
37.5205814244
 30
0.0
 10
39.0494687432
 20
37.4964005469
 30
0.0
 10
39.1456709223
 20
37.4613656943
 30
0.0
 10
39.3056018776
 20
37.4573495999
 30
0.0
 10
39.4759627279
 20
37.498586187
 30
0.0
 10
39.5868461288
 20
37.5512662096
 30
0.0
 10
39.6425389845
 20
37.5834203028
 30
0.0
  0
SPLINE
  5
2E0
100
AcDbEntity
  8
0
100
AcDbSpline
 62
7
  6
CONTINUOUS
 70
0
 71
3
 72
11
 73
7
 74
0
 42
0.0000001
 43
0.0000001
 44
0.0000000001
 40
0.0
 40
0.0
 40
0.0
 40
0.0
 40
0.2177442243
 40
0.4508817657
 40
0.7104588049
 40
1.0
 40
1.0
 40
1.0
 40
1.0
 10
32.6495374708
 20
41.1913189922
 30
0.0
 10
32.6076526263
 20
41.2155006939
 30
0.0
 10
32.5292067012
 20
41.2812981279
 30
0.0
 10
32.4457594334
 20
41.4177992133
 30
0.0
 10
32.3962889078
 20
41.5859613352
 30
0.0
 10
32.3864692918
 20
41.7083345181
 30
0.0
 10
32.3864692917
 20
41.7726458699
 30
0.0
  0
SPLINE
  5
2E1
100
AcDbEntity
  8
0
100
AcDbSpline
 62
7
  6
CONTINUOUS
 70
0
 71
3
 72
11
 73
7
 74
0
 42
0.0000001
 43
0.0000001
 44
0.0000000001
 40
0.0
 40
0.0
 40
0.0
 40
0.0
 40
0.2177456291
 40
0.4508837758
 40
0.7104602914
 40
1.0
 40
1.0
 40
1.0
 40
1.0
 10
33.7630938651
 20
40.5484214525
 30
0.0
 10
33.8049773337
 20
40.524240575
 30
0.0
 10
33.9011795128
 20
40.4892057224
 30
0.0
 10
34.0611104682
 20
40.485189628
 30
0.0
 10
34.2314713184
 20
40.5264262151
 30
0.0
 10
34.3423547193
 20
40.5791062377
 30
0.0
 10
34.398047575
 20
40.6112603309
 30
0.0
  0
SPLINE
  5
2E2
100
AcDbEntity
  8
0
100
AcDbSpline
 62
7
  6
CONTINUOUS
 70
0
 71
3
 72
11
 73
7
 74
0
 42
0.0000001
 43
0.0000001
 44
0.0000000001
 40
0.0
 40
0.0
 40
0.0
 40
0.0
 40
0.2177442243
 40
0.4508817657
 40
0.7104588049
 40
1.0
 40
1.0
 40
1.0
 40
1.0
 10
27.4050460613
 20
44.2191590204
 30
0.0
 10
27.3631612169
 20
44.243340722
 30
0.0
 10
27.2847152917
 20
44.309138156
 30
0.0
 10
27.2012680239
 20
44.4456392414
 30
0.0
 10
27.1517974984
 20
44.6138013633
 30
0.0
 10
27.1419778824
 20
44.7361745462
 30
0.0
 10
27.1419778822
 20
44.800485898
 30
0.0
  0
SPLINE
  5
2E3
100
AcDbEntity
  8
0
100
AcDbSpline
 62
7
  6
CONTINUOUS
 70
0
 71
3
 72
11
 73
7
 74
0
 42
0.0000001
 43
0.0000001
 44
0.0000000001
 40
0.0
 40
0.0
 40
0.0
 40
0.0
 40
0.2177456291
 40
0.4508837758
 40
0.7104602914
 40
1.0
 40
1.0
 40
1.0
 40
1.0
 10
28.5186024557
 20
43.5762614807
 30
0.0
 10
28.5604859243
 20
43.5520806032
 30
0.0
 10
28.6566881034
 20
43.5170457505
 30
0.0
 10
28.8166190587
 20
43.5130296561
 30
0.0
 10
28.986979909
 20
43.5542662432
 30
0.0
 10
29.0978633099
 20
43.6069462658
 30
0.0
 10
29.1535561656
 20
43.639100359
 30
0.0
  0
SPLINE
  5
2E4
100
AcDbEntity
  8
0
100
AcDbSpline
 62
7
  6
CONTINUOUS
 70
0
 71
3
 72
11
 73
7
 74
0
 42
0.0000001
 43
0.0000001
 44
0.0000000001
 40
0.0
 40
0.0
 40
0.0
 40
0.0
 40
0.2177442243
 40
0.4508817657
 40
0.7104588049
 40
1.0
 40
1.0
 40
1.0
 40
1.0
 10
37.2115759262
 20
39.8020093823
 30
0.0
 10
37.1696910817
 20
39.8261910839
 30
0.0
 10
37.0912451566
 20
39.8919885179
 30
0.0
 10
37.0077978888
 20
40.0284896034
 30
0.0
 10
36.9583273632
 20
40.1966517253
 30
0.0
 10
36.9485077472
 20
40.3190249081
 30
0.0
 10
36.9485077471
 20
40.38333626
 30
0.0
  0
SPLINE
  5
2E5
100
AcDbEntity
  8
0
100
AcDbSpline
 62
7
  6
CONTINUOUS
 70
0
 71
3
 72
11
 73
7
 74
0
 42
0.0000001
 43
0.0000001
 44
0.0000000001
 40
0.0
 40
0.0
 40
0.0
 40
0.0
 40
0.2177456291
 40
0.4508837758
 40
0.7104602914
 40
1.0
 40
1.0
 40
1.0
 40
1.0
 10
38.0557235153
 20
39.3146515701
 30
0.0
 10
38.0976069839
 20
39.2904706926
 30
0.0
 10
38.193809163
 20
39.25543584
 30
0.0
 10
38.3537401183
 20
39.2514197456
 30
0.0
 10
38.5241009686
 20
39.2926563327
 30
0.0
 10
38.6349843695
 20
39.3453363553
 30
0.0
 10
38.6906772252
 20
39.3774904484
 30
0.0
  0
SPLINE
  5
2E6
100
AcDbEntity
  8
0
100
AcDbSpline
 62
7
  6
CONTINUOUS
 70
0
 71
3
 72
11
 73
7
 74
0
 42
0.0000001
 43
0.0000001
 44
0.0000000001
 40
0.0
 40
0.0
 40
0.0
 40
0.0
 40
0.2177442243
 40
0.4508817657
 40
0.7104588049
 40
1.0
 40
1.0
 40
1.0
 40
1.0
 10
21.9271163733
 20
48.6262965876
 30
0.0
 10
21.8852315288
 20
48.6504782892
 30
0.0
 10
21.8067856037
 20
48.7162757232
 30
0.0
 10
21.7233383359
 20
48.8527768086
 30
0.0
 10
21.6738678103
 20
49.0209389306
 30
0.0
 10
21.6640481943
 20
49.1433121134
 30
0.0
 10
21.6640481942
 20
49.2076234652
 30
0.0
  0
SPLINE
  5
2E7
100
AcDbEntity
  8
0
100
AcDbSpline
 62
7
  6
CONTINUOUS
 70
0
 71
3
 72
11
 73
7
 74
0
 42
0.0000001
 43
0.0000001
 44
0.0000000001
 40
0.0
 40
0.0
 40
0.0
 40
0.0
 40
0.2177456291
 40
0.4508837758
 40
0.7104602914
 40
1.0
 40
1.0
 40
1.0
 40
1.0
 10
22.6275792662
 20
48.2218932967
 30
0.0
 10
22.6694627348
 20
48.1977124192
 30
0.0
 10
22.7656649139
 20
48.1626775665
 30
0.0
 10
22.9255958692
 20
48.1586614721
 30
0.0
 10
23.0959567195
 20
48.1998980592
 30
0.0
 10
23.2068401204
 20
48.2525780818
 30
0.0
 10
23.2625329761
 20
48.284732175
 30
0.0
  0
SPLINE
  5
2E8
100
AcDbEntity
  8
0
100
AcDbSpline
 62
7
  6
CONTINUOUS
 70
0
 71
3
 72
11
 73
7
 74
0
 42
0.0000001
 43
0.0000001
 44
0.0000000001
 40
0.0
 40
0.0
 40
0.0
 40
0.0
 40
0.2177442243
 40
0.4508817657
 40
0.7104588049
 40
1.0
 40
1.0
 40
1.0
 40
1.0
 10
26.7585142813
 20
45.8369508083
 30
0.0
 10
26.7166294368
 20
45.8611325099
 30
0.0
 10
26.6381835117
 20
45.9269299439
 30
0.0
 10
26.5547362439
 20
46.0634310293
 30
0.0
 10
26.5052657183
 20
46.2315931512
 30
0.0
 10
26.4954461023
 20
46.3539663341
 30
0.0
 10
26.4954461022
 20
46.4182776859
 30
0.0
  0
SPLINE
  5
2E9
100
AcDbEntity
  8
0
100
AcDbSpline
 62
7
  6
CONTINUOUS
 70
0
 71
3
 72
11
 73
7
 74
0
 42
0.0000001
 43
0.0000001
 44
0.0000000001
 40
0.0
 40
0.0
 40
0.0
 40
0.0
 40
0.2177456291
 40
0.4508837758
 40
0.7104602914
 40
1.0
 40
1.0
 40
1.0
 40
1.0
 10
33.0806409111
 20
42.1869518707
 30
0.0
 10
33.1225243797
 20
42.1627709932
 30
0.0
 10
33.2187265588
 20
42.1277361406
 30
0.0
 10
33.3786575141
 20
42.1237200462
 30
0.0
 10
33.5490183644
 20
42.1649566333
 30
0.0
 10
33.6599017653
 20
42.2176366559
 30
0.0
 10
33.715594621
 20
42.2497907491
 30
0.0
  0
SPLINE
  5
2EA
100
AcDbEntity
  8
0
100
AcDbSpline
 62
7
  6
CONTINUOUS
 70
0
 71
3
 72
11
 73
7
 74
0
 42
0.0000001
 43
0.0000001
 44
0.0000000001
 40
0.0
 40
0.0
 40
0.0
 40
0.0
 40
0.2177442243
 40
0.4508817657
 40
0.7104588049
 40
1.0
 40
1.0
 40
1.0
 40
1.0
 10
21.5679478539
 20
53.2097744699
 30
0.0
 10
21.5260630094
 20
53.2339561715
 30
0.0
 10
21.4476170842
 20
53.2997536055
 30
0.0
 10
21.3641698165
 20
53.4362546909
 30
0.0
 10
21.3146992909
 20
53.6044168129
 30
0.0
 10
21.3048796749
 20
53.7267899957
 30
0.0
 10
21.3048796748
 20
53.7911013475
 30
0.0
  0
SPLINE
  5
2EB
100
AcDbEntity
  8
0
100
AcDbSpline
 62
7
  6
CONTINUOUS
 70
0
 71
3
 72
11
 73
7
 74
0
 42
0.0000001
 43
0.0000001
 44
0.0000000001
 40
0.0
 40
0.0
 40
0.0
 40
0.0
 40
0.2177456291
 40
0.4508837758
 40
0.7104602914
 40
1.0
 40
1.0
 40
1.0
 40
1.0
 10
27.8900744836
 20
49.5597755324
 30
0.0
 10
27.9319579522
 20
49.5355946549
 30
0.0
 10
28.0281601313
 20
49.5005598023
 30
0.0
 10
28.1880910867
 20
49.4965437078
 30
0.0
 10
28.3584519369
 20
49.5377802949
 30
0.0
 10
28.4693353378
 20
49.5904603176
 30
0.0
 10
28.5250281935
 20
49.6226144107
 30
0.0
  0
SPLINE
  5
2EC
100
AcDbEntity
  8
0
100
AcDbSpline
 62
7
  6
CONTINUOUS
 70
0
 71
3
 72
11
 73
7
 74
0
 42
0.0000001
 43
0.0000001
 44
0.0000000001
 40
0.0
 40
0.0
 40
0.0
 40
0.0
 40
0.2177442243
 40
0.4508817657
 40
0.7104588049
 40
1.0
 40
1.0
 40
1.0
 40
1.0
 10
32.0210094988
 20
47.174833044
 30
0.0
 10
31.9791246543
 20
47.1990147456
 30
0.0
 10
31.9006787291
 20
47.2648121796
 30
0.0
 10
31.8172314614
 20
47.401313265
 30
0.0
 10
31.7677609358
 20
47.5694753869
 30
0.0
 10
31.7579413198
 20
47.6918485698
 30
0.0
 10
31.7579413197
 20
47.7561599216
 30
0.0
  0
SPLINE
  5
2ED
100
AcDbEntity
  8
0
100
AcDbSpline
 62
7
  6
CONTINUOUS
 70
0
 71
3
 72
11
 73
7
 74
0
 42
0.0000001
 43
0.0000001
 44
0.0000000001
 40
0.0
 40
0.0
 40
0.0
 40
0.0
 40
0.2177456291
 40
0.4508837758
 40
0.7104602914
 40
1.0
 40
1.0
 40
1.0
 40
1.0
 10
32.8651570878
 20
46.6874752317
 30
0.0
 10
32.9070405564
 20
46.6632943542
 30
0.0
 10
33.0032427355
 20
46.6282595016
 30
0.0
 10
33.1631736908
 20
46.6242434072
 30
0.0
 10
33.3335345411
 20
46.6654799943
 30
0.0
 10
33.444417942
 20
46.7181600169
 30
0.0
 10
33.5001107977
 20
46.7503141101
 30
0.0
  0
SPLINE
  5
2EE
100
AcDbEntity
  8
0
100
AcDbSpline
 62
7
  6
CONTINUOUS
 70
0
 71
3
 72
9
 73
5
 74
0
 42
0.0000001
 43
0.0000001
 44
0.0000000001
 40
0.0
 40
0.0
 40
0.0
 40
0.0
 40
0.4763921086
 40
1.0
 40
1.0
 40
1.0
 40
1.0
 10
60.2611491462
 20
62.8228571658
 30
0.0
 10
60.1332406928
 20
62.8967034752
 30
0.0
 10
59.8444288737
 20
63.0170868842
 30
0.0
 10
59.5392574957
 20
63.0805010422
 30
0.0
 10
59.3781623245
 20
63.1005126978
 30
0.0
  0
SPLINE
  5
2EF
100
AcDbEntity
  8
0
100
AcDbSpline
 62
7
  6
CONTINUOUS
 70
0
 71
3
 72
11
 73
7
 74
0
 42
0.0000001
 43
0.0000001
 44
0.0000000001
 40
0.0
 40
0.0
 40
0.0
 40
0.0
 40
0.2896433527
 40
0.5491132405
 40
0.7822372579
 40
1.0
 40
1.0
 40
1.0
 40
1.0
 10
57.7466879011
 20
76.718120387
 30
0.0
 10
57.6686870965
 20
76.7631531537
 30
0.0
 10
57.5271563087
 20
76.8606718598
 30
0.0
 10
57.3579638226
 20
77.0384221463
 30
0.0
 10
57.2509032302
 20
77.2351086919
 30
0.0
 10
57.2259775286
 20
77.37626338
 30
0.0
 10
57.2259503245
 20
77.4439785495
 30
0.0
  0
SPLINE
  5
2F0
100
AcDbEntity
  8
0
100
AcDbSpline
 62
7
  6
CONTINUOUS
 70
0
 71
3
 72
15
 73
11
 74
0
 42
0.0000001
 43
0.0000001
 44
0.0000000001
 40
0.0
 40
0.0
 40
0.0
 40
0.0
 40
0.1549324159
 40
0.3057925557
 40
0.4490851797
 40
0.5820641729
 40
0.7029193725
 40
0.8113256116
 40
0.9089995516
 40
1.0
 40
1.0
 40
1.0
 40
1.0
 10
58.9454754119
 20
54.804518373
 30
0.0
 10
58.7437592183
 20
54.8023743121
 30
0.0
 10
58.345493283
 20
54.7762950516
 30
0.0
 10
57.768772308
 20
54.6724691633
 30
0.0
 10
57.2359904769
 20
54.5076610805
 30
0.0
 10
56.7659492284
 20
54.2876369153
 30
0.0
 10
56.3749533311
 20
54.0193651652
 30
0.0
 10
56.0767117703
 20
53.7105336739
 30
0.0
 10
55.8838471506
 20
53.3695986641
 30
0.0
 10
55.8332306467
 20
53.1239201708
 30
0.0
 10
55.829455972
 20
53.0054944493
 30
0.0
  0
SPLINE
  5
2F1
100
AcDbEntity
  8
0
100
AcDbSpline
 62
7
  6
CONTINUOUS
 70
0
 71
3
 72
13
 73
9
 74
0
 42
0.0000001
 43
0.0000001
 44
0.0000000001
 40
0.0
 40
0.0
 40
0.0
 40
0.0
 40
0.1141755821
 40
0.2375692201
 40
0.4999985603
 40
0.7624286896
 40
0.8858231944
 40
1.0
 40
1.0
 40
1.0
 40
1.0
 10
76.1201849078
 20
67.0845058786
 30
0.0
 10
76.1816176318
 20
67.1199738668
 30
0.0
 10
76.3030264878
 20
67.2051660283
 30
0.0
 10
76.5304738391
 20
67.4178424375
 30
0.0
 10
76.7705013087
 20
67.7459941442
 30
0.0
 10
76.9346733982
 20
68.1179412052
 30
0.0
 10
77.0051325666
 20
68.4212564889
 30
0.0
 10
77.0182067922
 20
68.5689969936
 30
0.0
 10
77.0182067923
 20
68.6399340475
 30
0.0
  0
SPLINE
  5
2F2
100
AcDbEntity
  8
0
100
AcDbSpline
 62
7
  6
CONTINUOUS
 70
0
 71
3
 72
13
 73
9
 74
0
 42
0.0000001
 43
0.0000001
 44
0.0000000001
 40
0.0
 40
0.0
 40
0.0
 40
0.0
 40
0.1141755821
 40
0.2375692201
 40
0.4999985603
 40
0.7624286896
 40
0.8858231944
 40
1.0
 40
1.0
 40
1.0
 40
1.0
 10
82.2806149584
 20
81.0107912935
 30
0.0
 10
82.3420476824
 20
81.0462592817
 30
0.0
 10
82.4634565384
 20
81.1314514432
 30
0.0
 10
82.6909038897
 20
81.3441278524
 30
0.0
 10
82.9309313593
 20
81.6722795591
 30
0.0
 10
83.0951034487
 20
82.0442266201
 30
0.0
 10
83.1655626172
 20
82.3475419038
 30
0.0
 10
83.1786368428
 20
82.4952824085
 30
0.0
 10
83.1786368429
 20
82.5662194624
 30
0.0
  0
SPLINE
  5
2F3
100
AcDbEntity
  8
0
100
AcDbSpline
 62
7
  6
CONTINUOUS
 70
0
 71
3
 72
17
 73
13
 74
0
 42
0.0000001
 43
0.0000001
 44
0.0000000001
 40
0.0
 40
0.0
 40
0.0
 40
0.0
 40
0.128688448
 40
0.2702796817
 40
0.4174325464
 40
0.5617749928
 40
0.6954478191
 40
0.8127119577
 40
0.8646769781
 40
0.912510124
 40
0.9571398159
 40
1.0
 40
1.0
 40
1.0
 40
1.0
 10
79.209407681
 20
89.5243295229
 30
0.0
 10
79.0777942733
 20
89.4483429402
 30
0.0
 10
78.7797976359
 20
89.3253905187
 30
0.0
 10
78.294128354
 20
89.2282193611
 30
0.0
 10
77.780443212
 20
89.2139993107
 30
0.0
 10
77.2806685877
 20
89.2842261488
 30
0.0
 10
76.8353165124
 20
89.4329787669
 30
0.0
 10
76.5255737693
 20
89.6215229234
 30
0.0
 10
76.3438020086
 20
89.8039548472
 30
0.0
 10
76.2472333689
 20
89.9459869528
 30
0.0
 10
76.1877275375
 20
90.0958023518
 30
0.0
 10
76.1741837545
 20
90.1995659927
 30
0.0
 10
76.1742038598
 20
90.2501814644
 30
0.0
  0
SPLINE
  5
2F4
100
AcDbEntity
  8
0
100
AcDbSpline
 62
7
  6
CONTINUOUS
 70
0
 71
3
 72
11
 73
7
 74
0
 42
0.0000001
 43
0.0000001
 44
0.0000000001
 40
0.0
 40
0.0
 40
0.0
 40
0.0
 40
0.2895411593
 40
0.5491183968
 40
0.7822559146
 40
1.0
 40
1.0
 40
1.0
 40
1.0
 10
43.7195997005
 20
35.2296080009
 30
0.0
 10
43.7195997007
 20
35.165296658
 30
0.0
 10
43.7294193933
 20
35.0429234538
 30
0.0
 10
43.7788898404
 20
34.8747612736
 30
0.0
 10
43.8623371777
 20
34.738260227
 30
0.0
 10
43.9407830488
 20
34.6724627872
 30
0.0
 10
43.9826678788
 20
34.6482811237
 30
0.0
  0
SPLINE
  5
2F5
100
AcDbEntity
  8
0
100
AcDbSpline
 62
7
  6
CONTINUOUS
 70
0
 71
3
 72
11
 73
7
 74
0
 42
0.0000001
 43
0.0000001
 44
0.0000000001
 40
0.0
 40
0.0
 40
0.0
 40
0.0
 40
0.2896433527
 40
0.5491132405
 40
0.7822372579
 40
1.0
 40
1.0
 40
1.0
 40
1.0
 10
42.3005621275
 20
88.539151763
 30
0.0
 10
42.378562932
 20
88.4941189962
 30
0.0
 10
42.5200937198
 20
88.3966002901
 30
0.0
 10
42.6892862059
 20
88.2188500036
 30
0.0
 10
42.7963467983
 20
88.0221634581
 30
0.0
 10
42.8212725
 20
87.88100877
 30
0.0
 10
42.8212997041
 20
87.8132936004
 30
0.0
  0
SPLINE
  5
2F6
100
AcDbEntity
  8
0
100
AcDbSpline
 62
7
  6
CONTINUOUS
 70
0
 71
3
 72
11
 73
7
 74
0
 42
0.0000001
 43
0.0000001
 44
0.0000000001
 40
0.0
 40
0.0
 40
0.0
 40
0.0
 40
0.2895411593
 40
0.5491183968
 40
0.7822559146
 40
1.0
 40
1.0
 40
1.0
 40
1.0
 10
37.792655337
 20
39.8959784472
 30
0.0
 10
37.7926553371
 20
39.8316671044
 30
0.0
 10
37.8024750298
 20
39.7092939001
 30
0.0
 10
37.8519454769
 20
39.5411317199
 30
0.0
 10
37.9353928142
 20
39.4046306733
 30
0.0
 10
38.0138386853
 20
39.3388332335
 30
0.0
 10
38.0557235153
 20
39.3146515701
 30
0.0
  0
SPLINE
  5
2F7
100
AcDbEntity
  8
0
100
AcDbSpline
 62
7
  6
CONTINUOUS
 70
0
 71
3
 72
11
 73
7
 74
0
 42
0.0000001
 43
0.0000001
 44
0.0000000001
 40
0.0
 40
0.0
 40
0.0
 40
0.0
 40
0.2895411593
 40
0.5491183968
 40
0.7822559146
 40
1.0
 40
1.0
 40
1.0
 40
1.0
 10
32.8175727328
 20
42.7682787479
 30
0.0
 10
32.8175727329
 20
42.703967405
 30
0.0
 10
32.8273924256
 20
42.5815942007
 30
0.0
 10
32.8768628727
 20
42.4134320206
 30
0.0
 10
32.96031021
 20
42.276930974
 30
0.0
 10
33.0387560811
 20
42.2111335342
 30
0.0
 10
33.0806409111
 20
42.1869518707
 30
0.0
  0
SPLINE
  5
2F8
100
AcDbEntity
  8
0
100
AcDbSpline
 62
7
  6
CONTINUOUS
 70
0
 71
3
 72
17
 73
13
 74
0
 42
0.0000001
 43
0.0000001
 44
0.0000000001
 40
0.0
 40
0.0
 40
0.0
 40
0.0
 40
0.0428571277
 40
0.087483909
 40
0.1353159407
 40
0.187279013
 40
0.3045397097
 40
0.4382076182
 40
0.5825507004
 40
0.7297102646
 40
0.8713099941
 40
1.0
 40
1.0
 40
1.0
 40
1.0
 10
57.2259503245
 20
77.4439785495
 30
0.0
 10
57.2259299915
 20
77.4945902724
 30
0.0
 10
57.2394816702
 20
77.5983446103
 30
0.0
 10
57.2989676266
 20
77.748157908
 30
0.0
 10
57.3955399075
 20
77.8901793099
 30
0.0
 10
57.5772895448
 20
78.0726195331
 30
0.0
 10
57.887023082
 20
78.2611585039
 30
0.0
 10
58.3323589895
 20
78.4099212463
 30
0.0
 10
58.8321345999
 20
78.4801567914
 30
0.0
 10
59.345837355
 20
78.4659474803
 30
0.0
 10
59.8315259447
 20
78.3687766251
 30
0.0
 10
60.1295339596
 20
78.2458229425
 30
0.0
 10
60.2611491462
 20
78.1698365981
 30
0.0
  0
SPLINE
  5
2F9
100
AcDbEntity
  8
0
100
AcDbSpline
 62
7
  6
CONTINUOUS
 70
0
 71
3
 72
11
 73
7
 74
0
 42
0.0000001
 43
0.0000001
 44
0.0000000001
 40
0.0
 40
0.0
 40
0.0
 40
0.0
 40
0.2895411593
 40
0.5491183968
 40
0.7822559146
 40
1.0
 40
1.0
 40
1.0
 40
1.0
 10
32.6020889096
 20
47.2688021089
 30
0.0
 10
32.6020889097
 20
47.204490766
 30
0.0
 10
32.6119086023
 20
47.0821175617
 30
0.0
 10
32.6613790495
 20
46.9139553816
 30
0.0
 10
32.7448263867
 20
46.7774543349
 30
0.0
 10
32.8232722578
 20
46.7116568952
 30
0.0
 10
32.8651570878
 20
46.6874752317
 30
0.0
  0
SPLINE
  5
2FA
100
AcDbEntity
  8
0
100
AcDbSpline
 62
7
  6
CONTINUOUS
 70
0
 71
3
 72
17
 73
13
 74
0
 42
0.0000001
 43
0.0000001
 44
0.0000000001
 40
0.0
 40
0.0
 40
0.0
 40
0.0
 40
0.128688448
 40
0.2702796817
 40
0.4174325464
 40
0.5617749928
 40
0.6954478191
 40
0.8127119577
 40
0.8646769781
 40
0.912510124
 40
0.9571398159
 40
1.0
 40
1.0
 40
1.0
 40
1.0
 10
20.8378423476
 20
75.732942627
 30
0.0
 10
20.9694557552
 20
75.8089292098
 30
0.0
 10
21.2674523927
 20
75.9318816312
 30
0.0
 10
21.7531216745
 20
76.0290527888
 30
0.0
 10
22.2668068165
 20
76.0432728393
 30
0.0
 10
22.7665814408
 20
75.9730460011
 30
0.0
 10
23.2119335161
 20
75.8242933831
 30
0.0
 10
23.5216762592
 20
75.6357492265
 30
0.0
 10
23.7034480199
 20
75.4533173027
 30
0.0
 10
23.8000166596
 20
75.3112851972
 30
0.0
 10
23.8595224911
 20
75.1614697981
 30
0.0
 10
23.8730662741
 20
75.0577061572
 30
0.0
 10
23.8730461688
 20
75.0070906855
 30
0.0
  0
SPLINE
  5
2FB
100
AcDbEntity
  8
0
100
AcDbSpline
 62
7
  6
CONTINUOUS
 70
0
 71
3
 72
11
 73
7
 74
0
 42
0.0000001
 43
0.0000001
 44
0.0000000001
 40
0.0
 40
0.0
 40
0.0
 40
0.0
 40
0.2895411593
 40
0.5491183968
 40
0.7822559146
 40
1.0
 40
1.0
 40
1.0
 40
1.0
 10
28.2555342774
 20
44.1575883578
 30
0.0
 10
28.2555342775
 20
44.0932770149
 30
0.0
 10
28.2653539702
 20
43.9709038107
 30
0.0
 10
28.3148244173
 20
43.8027416305
 30
0.0
 10
28.3982717546
 20
43.6662405839
 30
0.0
 10
28.4767176257
 20
43.6004431441
 30
0.0
 10
28.5186024557
 20
43.5762614807
 30
0.0
  0
SPLINE
  5
2FC
100
AcDbEntity
  8
0
100
AcDbSpline
 62
7
  6
CONTINUOUS
 70
0
 71
3
 72
11
 73
7
 74
0
 42
0.0000001
 43
0.0000001
 44
0.0000000001
 40
0.0
 40
0.0
 40
0.0
 40
0.0
 40
0.2177648073
 40
0.4508950352
 40
0.7103684932
 40
1.0
 40
1.0
 40
1.0
 40
1.0
 10
76.1742038598
 20
90.2501814644
 30
0.0
 10
76.1742307573
 20
90.3178963075
 30
0.0
 10
76.1991485974
 20
90.4590531155
 30
0.0
 10
76.3062149969
 20
90.6557384613
 30
0.0
 10
76.4754033953
 20
90.8334856966
 30
0.0
 10
76.6169293244
 20
90.9310028028
 30
0.0
 10
76.6949254983
 20
90.976033646
 30
0.0
  0
SPLINE
  5
2FD
100
AcDbEntity
  8
0
100
AcDbSpline
 62
7
  6
CONTINUOUS
 70
0
 71
3
 72
11
 73
7
 74
0
 42
0.0000001
 43
0.0000001
 44
0.0000000001
 40
0.0
 40
0.0
 40
0.0
 40
0.0
 40
0.2895411593
 40
0.5491183968
 40
0.7822559146
 40
1.0
 40
1.0
 40
1.0
 40
1.0
 10
17.1739446605
 20
56.1760438354
 30
0.0
 10
17.1739446606
 20
56.1117324926
 30
0.0
 10
17.1837643533
 20
55.9893592883
 30
0.0
 10
17.2332348004
 20
55.8211971082
 30
0.0
 10
17.3166821376
 20
55.6846960615
 30
0.0
 10
17.3951280087
 20
55.6188986218
 30
0.0
 10
17.4370128387
 20
55.5947169583
 30
0.0
  0
SPLINE
  5
2FE
100
AcDbEntity
  8
0
100
AcDbSpline
 62
7
  6
CONTINUOUS
 70
0
 71
3
 72
11
 73
7
 74
0
 42
0.0000001
 43
0.0000001
 44
0.0000000001
 40
0.0
 40
0.0
 40
0.0
 40
0.0
 40
0.2895411593
 40
0.5491183968
 40
0.7822559146
 40
1.0
 40
1.0
 40
1.0
 40
1.0
 10
33.5000256869
 20
41.1297483297
 30
0.0
 10
33.500025687
 20
41.0654369868
 30
0.0
 10
33.5098453797
 20
40.9430637825
 30
0.0
 10
33.5593158268
 20
40.7749016024
 30
0.0
 10
33.642763164
 20
40.6384005557
 30
0.0
 10
33.7212090351
 20
40.572603116
 30
0.0
 10
33.7630938651
 20
40.5484214525
 30
0.0
  0
SPLINE
  5
2FF
100
AcDbEntity
  8
0
100
AcDbSpline
 62
7
  6
CONTINUOUS
 70
0
 71
3
 72
11
 73
7
 74
0
 42
0.0000001
 43
0.0000001
 44
0.0000000001
 40
0.0
 40
0.0
 40
0.0
 40
0.0
 40
0.2895411593
 40
0.5491183968
 40
0.7822559146
 40
1.0
 40
1.0
 40
1.0
 40
1.0
 10
38.7445170963
 20
38.1019083016
 30
0.0
 10
38.7445170965
 20
38.0375969587
 30
0.0
 10
38.7543367891
 20
37.9152237544
 30
0.0
 10
38.8038072363
 20
37.7470615743
 30
0.0
 10
38.8872545735
 20
37.6105605276
 30
0.0
 10
38.9657004446
 20
37.5447630879
 30
0.0
 10
39.0075852746
 20
37.5205814244
 30
0.0
  0
SPLINE
  5
300
100
AcDbEntity
  8
0
100
AcDbSpline
 62
7
  6
CONTINUOUS
 70
0
 71
3
 72
11
 73
7
 74
0
 42
0.0000001
 43
0.0000001
 44
0.0000000001
 40
0.0
 40
0.0
 40
0.0
 40
0.0
 40
0.2177648073
 40
0.4508950352
 40
0.7103684932
 40
1.0
 40
1.0
 40
1.0
 40
1.0
 10
18.3414725879
 20
73.8664562796
 30
0.0
 10
18.3414994853
 20
73.9341711227
 30
0.0
 10
18.3664173255
 20
74.0753279306
 30
0.0
 10
18.4734837249
 20
74.2720132765
 30
0.0
 10
18.6426721234
 20
74.4497605117
 30
0.0
 10
18.7841980525
 20
74.5472776179
 30
0.0
 10
18.8621942264
 20
74.5923084611
 30
0.0
  0
SPLINE
  5
301
100
AcDbEntity
  8
0
100
AcDbSpline
 62
7
  6
CONTINUOUS
 70
0
 71
3
 72
11
 73
7
 74
0
 42
0.0000001
 43
0.0000001
 44
0.0000000001
 40
0.0
 40
0.0
 40
0.0
 40
0.0
 40
0.2895411593
 40
0.5491183968
 40
0.7822559146
 40
1.0
 40
1.0
 40
1.0
 40
1.0
 10
23.0110428679
 20
47.1854283859
 30
0.0
 10
23.0110428681
 20
47.1211170431
 30
0.0
 10
23.0208625607
 20
46.9987438388
 30
0.0
 10
23.0703330078
 20
46.8305816586
 30
0.0
 10
23.1537803451
 20
46.694080612
 30
0.0
 10
23.2322262162
 20
46.6282831722
 30
0.0
 10
23.2741110462
 20
46.6041015088
 30
0.0
  0
SPLINE
  5
302
100
AcDbEntity
  8
0
100
AcDbSpline
 62
7
  6
CONTINUOUS
 70
0
 71
3
 72
17
 73
13
 74
0
 42
0.0000001
 43
0.0000001
 44
0.0000000001
 40
0.0
 40
0.0
 40
0.0
 40
0.0
 40
0.128688448
 40
0.2702796817
 40
0.4174325464
 40
0.5617749928
 40
0.6954478191
 40
0.8127119577
 40
0.8646769781
 40
0.912510124
 40
0.9571398159
 40
1.0
 40
1.0
 40
1.0
 40
1.0
 10
78.6705736195
 20
92.1166678119
 30
0.0
 10
78.8021870271
 20
92.1926543946
 30
0.0
 10
79.1001836646
 20
92.3156068161
 30
0.0
 10
79.5858529464
 20
92.4127779737
 30
0.0
 10
80.0995380884
 20
92.4269980241
 30
0.0
 10
80.5993127127
 20
92.356771186
 30
0.0
 10
81.044664788
 20
92.2080185679
 30
0.0
 10
81.3544075311
 20
92.0194744114
 30
0.0
 10
81.5361792918
 20
91.8370424876
 30
0.0
 10
81.6327479315
 20
91.695010382
 30
0.0
 10
81.692253763
 20
91.545194983
 30
0.0
 10
81.705797546
 20
91.4414313421
 30
0.0
 10
81.7057774407
 20
91.3908158704
 30
0.0
  0
SPLINE
  5
303
100
AcDbEntity
  8
0
100
AcDbSpline
 62
7
  6
CONTINUOUS
 70
0
 71
3
 72
17
 73
13
 74
0
 42
0.0000001
 43
0.0000001
 44
0.0000000001
 40
0.0
 40
0.0
 40
0.0
 40
0.0
 40
0.1505401211
 40
0.3009935026
 40
0.4464222043
 40
0.5824195896
 40
0.7056947484
 40
0.7621056404
 40
0.8150099997
 40
0.9112701546
 40
0.9561608128
 40
1.0
 40
1.0
 40
1.0
 40
1.0
 10
76.996306674
 20
100.6528844864
 30
0.0
 10
77.2578970782
 20
100.6866648401
 30
0.0
 10
77.7860277289
 20
100.7192222848
 30
0.0
 10
78.5685314283
 20
100.6675551964
 30
0.0
 10
79.3129114967
 20
100.5184238272
 30
0.0
 10
79.9831612962
 20
100.2789101657
 30
0.0
 10
80.4680900039
 20
100.0049400751
 30
0.0
 10
80.7854881249
 20
99.7477226701
 30
0.0
 10
81.0357905716
 20
99.4880687044
 30
0.0
 10
81.2204544295
 20
99.1943223811
 30
0.0
 10
81.3131628847
 20
98.8820536014
 30
0.0
 10
81.3285157767
 20
98.7261723772
 30
0.0
 10
81.3284972736
 20
98.649361406
 30
0.0
  0
SPLINE
  5
304
100
AcDbEntity
  8
0
100
AcDbSpline
 62
7
  6
CONTINUOUS
 70
0
 71
3
 72
11
 73
7
 74
0
 42
0.0000001
 43
0.0000001
 44
0.0000000001
 40
0.0
 40
0.0
 40
0.0
 40
0.0
 40
0.2895411593
 40
0.5491183968
 40
0.7822559146
 40
1.0
 40
1.0
 40
1.0
 40
1.0
 10
22.3645110879
 20
48.8032201738
 30
0.0
 10
22.364511088
 20
48.738908831
 30
0.0
 10
22.3743307807
 20
48.6165356267
 30
0.0
 10
22.4238012278
 20
48.4483734465
 30
0.0
 10
22.5072485651
 20
48.3118723999
 30
0.0
 10
22.5856944362
 20
48.2460749601
 30
0.0
 10
22.6275792662
 20
48.2218932967
 30
0.0
  0
SPLINE
  5
305
100
AcDbEntity
  8
0
100
AcDbSpline
 62
7
  6
CONTINUOUS
 70
0
 71
3
 72
11
 73
7
 74
0
 42
0.0000001
 43
0.0000001
 44
0.0000000001
 40
0.0
 40
0.0
 40
0.0
 40
0.0
 40
0.2895411593
 40
0.5491183968
 40
0.7822559146
 40
1.0
 40
1.0
 40
1.0
 40
1.0
 10
27.6270063054
 20
50.1411024095
 30
0.0
 10
27.6270063055
 20
50.0767910667
 30
0.0
 10
27.6368259982
 20
49.9544178624
 30
0.0
 10
27.6862964453
 20
49.7862556822
 30
0.0
 10
27.7697437825
 20
49.6497546356
 30
0.0
 10
27.8481896536
 20
49.5839571958
 30
0.0
 10
27.8900744836
 20
49.5597755324
 30
0.0
  0
ENDSEC
  0
SECTION
  2
OBJECTS
  0
DICTIONARY
  5
C
100
AcDbDictionary
280
0
281
1
  3
ACAD_GROUP
350
D
  3
ACAD_MLINESTYLE
350
17
  3
ACAD_LAYOUT
350
1A
  3
ACAD_PLOTSETTINGS
350
19
  3
ACAD_PLOTSTYLENAME
350
E
  0
DICTIONARY
  5
D
102
{ACAD_REACTORS
330
C
102
}
100
AcDbDictionary
280
0
281
1
  0
ACDBDICTIONARYWDFLT
  5
E
102
{ACAD_REACTORS
330
C
102
}
100
AcDbDictionary
281
1
  3
Normal
350
F
100
AcDbDictionaryWithDefault
340
F
  0
DICTIONARY
  5
17
102
{ACAD_REACTORS
330
C
102
}
100
AcDbDictionary
280
0
281
1
  3
Standard
350
18
  0
DICTIONARY
  5
19
102
{ACAD_REACTORS
330
C
102
}
100
AcDbDictionary
281
1
  0
DICTIONARY
  5
1A
102
{ACAD_REACTORS
330
C
102
}
100
AcDbDictionary
281
1
  3
Model
350
306
  3
Layout1
350
307
  0
ACDBPLACEHOLDER
  5
F
102
{ACAD_REACTORS
330
E
102
}
  0
MLINESTYLE
  5
18
102
{ACAD_REACTORS
330
17
102
}
100
AcDbMlineStyle
  2
STANDARD
 70
0
  3

 62
256
 51
90.0
 52
90.0
 71
2
 49
0.5
 62
256
  6
BYLAYER
 49
-0.5
 62
256
  6
BYLAYER
  0
LAYOUT
  5
306
102
{ACAD_REACTORS
330
1A
102
}
100
AcDbPlotSettings
  1

  2
none_device
  4

  6

 40
0.0
 41
0.0
 42
0.0
 43
0.0
 44
210.0
 45
297.0
 46
0.0
 47
0.0
 48
0.0
 49
0.0
140
0.0
141
0.0
142
1.0
143
1.0
 70
1024
 72
1
 73
0
 74
0
  7

 75
0
147
1.0
148
0.0
149
0.0
100
AcDbLayout
  1
Model
 70
0
 71
0
 10
0.0
 20
0.0
 11
210.0
 21
297.0
 12
0.0
 22
0.0
 32
0.0
 14
0.0
 24
0.0
 34
0.0
 15
0.0
 25
0.0
 35
0.0
146
0.0
 13
0.0
 23
0.0
 33
0.0
 16
1.0
 26
0.0
 36
0.0
 17
0.0
 27
1.0
 37
0.0
 76
0
330
210
345
0
346
0
  0
LAYOUT
  5
307
102
{ACAD_REACTORS
330
1A
102
}
100
AcDbPlotSettings
  1

  2
none_device
  4

  6

 40
0.0
 41
0.0
 42
0.0
 43
0.0
 44
210.0
 45
297.0
 46
0.0
 47
0.0
 48
0.0
 49
0.0
140
0.0
141
0.0
142
1.0
143
1.0
 70
0
 72
1
 73
0
 74
0
  7

 75
0
147
1.0
148
0.0
149
0.0
100
AcDbLayout
  1
Layout1
 70
0
 71
1
 10
0.0
 20
0.0
 11
210.0
 21
297.0
 12
0.0
 22
0.0
 32
0.0
 14
0.0
 24
0.0
 34
0.0
 15
0.0
 25
0.0
 35
0.0
146
0.0
 13
0.0
 23
0.0
 33
0.0
 16
1.0
 26
0.0
 36
0.0
 17
0.0
 27
1.0
 37
0.0
 76
0
330
211
345
0
346
0
  0
ENDSEC
  0
EOF
