999
DXF file: C:\Users\sesa63760\Dev\_Creo\CAD\MCADID0003942_3D-CAD\drw0001_6.dxf
999
Pro/ENGINEER 2019471 by Parametric Technology Corporation
  0
SECTION
  2
HEADER
  9
$ACADVER
  1
AC1024
  9
$DWGCODEPAGE
  3
ANSI_1252
  9
$EXTMAX
 10
77.1078398868
 20
109.0525164114
 30
0.0
  9
$EXTMIN
 10
0.0
 20
0.0
 30
0.0
  9
$LIMMIN
 10
0.0
 20
0.0
  9
$LIMMAX
 10
77.1078398868
 20
109.0525164114
  9
$VIEWCTR
 10
38.5539199434
 20
54.5262582057
  9
$VIEWSIZE
 40
109.0525164114
  9
$CLAYER
  8
0
  9
$LTSCALE
 40
7.1086084772
  9
$CELTYPE
  6
BYLAYER
  9
$DIMSCALE
 40
1.0
  9
$DIMASZ
 40
0.9179504748
  9
$DIMEXO
 40
1.0
  9
$DIMDLI
 40
4.9114022206
  9
$DIMEXE
 40
1.0
  9
$DIMCEN
 40
1.1632268417
  9
$DIMLFAC
 40
1.0
  9
$DIMBLK
  1
_FILLED
  9
$DIMALT
 70
0
  9
$DIMALTF
 40
0.0393700787
  9
$DIMTXT
 40
1.2851306648
  9
$DIMTOL
 70
1
  9
$DIMLIM
 70
0
  9
$DIMTFAC
 40
1.0
  9
$DIMTP
 40
0.01
  9
$DIMTM
 40
0.01
  9
$DIMGAP
 40
0.625
  9
$DIMDSEP
 70
46
  9
$AUNITS
 70
0
  9
$PDMODE
 70
3
  9
$PDSIZE
 40
0.3125
  9
$HANDSEED
  5
28C
  9
$TILEMODE
 70
1
  9
$MEASUREMENT
 70
1
  9
$INSUNITS
 70
4
  0
ENDSEC
  0
SECTION
  2
CLASSES
  0
CLASS
  1
ACDBDICTIONARYWDFLT
  2
AcDbDictionaryWithDefault
  3
AutoCAD 2000
 90
0
 91
1
280
0
281
0
  0
CLASS
  1
ACDBPLACEHOLDER
  2
AcDbPlaceHolder
  3
AutoCAD 2000
 90
0
 91
1
280
0
281
0
  0
CLASS
  1
LAYOUT
  2
AcDbLayout
  3
AutoCAD 2000
 90
0
 91
0
280
0
281
0
  0
ENDSEC
  0
SECTION
  2
TABLES
  0
TABLE
  2
VPORT
  5
8
100
AcDbSymbolTable
 70
2
  0
VPORT
  5
1F4
100
AcDbSymbolTableRecord
100
AcDbViewportTableRecord
  2
*ACTIVE
 70
0
 10
0.0
 20
0.0
 11
1.0
 21
1.0
 12
38.5539199434
 22
54.5262582057
 13
0.0
 23
0.0
 14
1.0
 24
1.0
 15
0.0
 25
0.0
 16
0.0
 26
0.0
 36
1.0
 17
0.0
 27
0.0
 37
0.0
 40
109.0525164114
 41
0.7070707071
 42
50.0
 43
0.0
 44
0.0
 50
0.0
 51
0.0
 71
0
 72
100
 73
1
 74
1
 75
0
 76
0
 77
0
 78
0
  0
ENDTAB
  0
TABLE
  2
LTYPE
  5
5
100
AcDbSymbolTable
 70
6
  0
LTYPE
  5
14
100
AcDbSymbolTableRecord
100
AcDbLinetypeTableRecord
  2
BYBLOCK
 70
0
  3

 72
65
 73
0
 40
0.0
  0
LTYPE
  5
15
100
AcDbSymbolTableRecord
100
AcDbLinetypeTableRecord
  2
BYLAYER
 70
0
  3

 72
65
 73
0
 40
0.0
  0
LTYPE
  5
16
100
AcDbSymbolTableRecord
100
AcDbLinetypeTableRecord
  2
CONTINUOUS
 70
64
  3
Solid line
 72
65
 73
0
 40
0.0
  0
LTYPE
  5
1F5
100
AcDbSymbolTableRecord
100
AcDbLinetypeTableRecord
  2
CENTER
 70
64
  3
____ _ ____ _ ____ _ ____ _ ____ _ ____ _ ____
 72
65
 73
4
 40
0.6
 49
0.375
 74
0
 49
-0.075
 74
0
 49
0.075
 74
0
 49
-0.075
 74
0
  0
LTYPE
  5
1F6
100
AcDbSymbolTableRecord
100
AcDbLinetypeTableRecord
  2
HIDDEN
 70
64
  3
- - - - - - - - - - - - - - - - - - - -
 72
65
 73
2
 40
0.2
 49
0.1
 74
0
 49
-0.1
 74
0
  0
LTYPE
  5
1F7
100
AcDbSymbolTableRecord
100
AcDbLinetypeTableRecord
  2
PHANTOM
 70
64
  3
_____ _ _ _____ _ _ _____ _ _ _____
 72
65
 73
6
 40
0.8
 49
0.45
 74
0
 49
-0.05
 74
0
 49
0.1
 74
0
 49
-0.05
 74
0
 49
0.1
 74
0
 49
-0.05
 74
0
  0
LTYPE
  5
1F8
100
AcDbSymbolTableRecord
100
AcDbLinetypeTableRecord
  2
DOT
 70
64
  3
. . . . . . . . . . . . . . . . . . . .
 72
65
 73
2
 40
0.2
 49
0.1
 74
0
 49
-0.1
 74
0
  0
LTYPE
  5
1F9
100
AcDbSymbolTableRecord
100
AcDbLinetypeTableRecord
  2
DASHED
 70
64
  3
- - - - - - - - - - - - - - - - - - - -
 72
65
 73
2
 40
0.2
 49
0.1
 74
0
 49
-0.1
 74
0
  0
ENDTAB
  0
TABLE
  2
LAYER
  5
2
100
AcDbSymbolTable
 70
36
  0
LAYER
  5
10
100
AcDbSymbolTableRecord
100
AcDbLayerTableRecord
  2
0
 70
0
 62
7
  6
CONTINUOUS
370
-3
390
F
  0
LAYER
  5
1FA
100
AcDbSymbolTableRecord
100
AcDbLayerTableRecord
  2
DEFAULT_1
 70
0
 62
7
  6
CENTER
370
-3
390
F
  0
LAYER
  5
1FB
100
AcDbSymbolTableRecord
100
AcDbLayerTableRecord
  2
DEFAULT_2
 70
0
 62
7
  6
HIDDEN
370
-3
390
F
  0
LAYER
  5
1FC
100
AcDbSymbolTableRecord
100
AcDbLayerTableRecord
  2
DEFAULT_3
 70
0
 62
7
  6
PHANTOM
370
-3
390
F
  0
LAYER
  5
1FD
100
AcDbSymbolTableRecord
100
AcDbLayerTableRecord
  2
00_COMPONENTS
 70
0
 62
7
  6
CONTINUOUS
370
-3
390
F
  0
LAYER
  5
1FE
100
AcDbSymbolTableRecord
100
AcDbLayerTableRecord
  2
01_1_DEFAULT_DATUMS
 70
0
 62
7
  6
CONTINUOUS
370
-3
390
F
  0
LAYER
  5
1FF
100
AcDbSymbolTableRecord
100
AcDbLayerTableRecord
  2
01_PLANES
 70
0
 62
7
  6
CONTINUOUS
370
-3
390
F
  0
LAYER
  5
200
100
AcDbSymbolTableRecord
100
AcDbLayerTableRecord
  2
02_COORD_SYS
 70
0
 62
7
  6
CONTINUOUS
370
-3
390
F
  0
LAYER
  5
201
100
AcDbSymbolTableRecord
100
AcDbLayerTableRecord
  2
03_AXES
 70
0
 62
7
  6
CONTINUOUS
370
-3
390
F
  0
LAYER
  5
202
100
AcDbSymbolTableRecord
100
AcDbLayerTableRecord
  2
04_POINTS
 70
0
 62
7
  6
CONTINUOUS
370
-3
390
F
  0
LAYER
  5
203
100
AcDbSymbolTableRecord
100
AcDbLayerTableRecord
  2
05_CURVES
 70
0
 62
7
  6
CONTINUOUS
370
-3
390
F
  0
LAYER
  5
204
100
AcDbSymbolTableRecord
100
AcDbLayerTableRecord
  2
06_SURFS
 70
0
 62
7
  6
CONTINUOUS
370
-3
390
F
  0
LAYER
  5
205
100
AcDbSymbolTableRecord
100
AcDbLayerTableRecord
  2
07_COSMETICS
 70
0
 62
7
  6
CONTINUOUS
370
-3
390
F
  0
LAYER
  5
206
100
AcDbSymbolTableRecord
100
AcDbLayerTableRecord
  2
10_NOTES
 70
0
 62
7
  6
CONTINUOUS
370
-3
390
F
  0
LAYER
  5
207
100
AcDbSymbolTableRecord
100
AcDbLayerTableRecord
  2
11_NOTES_PUB
 70
0
 62
7
  6
CONTINUOUS
370
-3
390
F
  0
LAYER
  5
208
100
AcDbSymbolTableRecord
100
AcDbLayerTableRecord
  2
13_REF_GTOL
 70
0
 62
7
  6
CONTINUOUS
370
-3
390
F
  0
LAYER
  5
209
100
AcDbSymbolTableRecord
100
AcDbLayerTableRecord
  2
16_MISC
 70
0
 62
7
  6
CONTINUOUS
370
-3
390
F
  0
LAYER
  5
20A
100
AcDbSymbolTableRecord
100
AcDbLayerTableRecord
  2
17_NO_PRINT
 70
0
 62
7
  6
CONTINUOUS
370
-3
390
F
  0
LAYER
  5
20B
100
AcDbSymbolTableRecord
100
AcDbLayerTableRecord
  2
18_DATUM_CAMS_JOINTS
 70
0
 62
7
  6
CONTINUOUS
370
-3
390
F
  0
LAYER
  5
20C
100
AcDbSymbolTableRecord
100
AcDbLayerTableRecord
  2
19_DATUM_FUNCTIONAL
 70
0
 62
7
  6
CONTINUOUS
370
-3
390
F
  0
LAYER
  5
20D
100
AcDbSymbolTableRecord
100
AcDbLayerTableRecord
  2
20_DATUM_KINEMATIC_SCHEME
 70
0
 62
7
  6
CONTINUOUS
370
-3
390
F
  0
ENDTAB
  0
TABLE
  2
STYLE
  5
3
100
AcDbSymbolTable
 70
1
  0
STYLE
  5
11
100
AcDbSymbolTableRecord
100
AcDbTextStyleTableRecord
  2
STANDARD
 70
0
 40
0.0
 41
1.0
 50
0.0
 71
0
 42
0.2
  3
ARIAL.TTF
  4

  0
STYLE
  5
20E
100
AcDbSymbolTableRecord
100
AcDbTextStyleTableRecord
  2
TEXTSTYLE_1
 70
0
 40
0.0
 41
0.8
 50
0.0
 71
0
 42
0.2
  3
gdt
  4

  0
ENDTAB
  0
TABLE
  2
VIEW
  5
6
100
AcDbSymbolTable
 70
0
  0
ENDTAB
  0
TABLE
  2
UCS
  5
7
100
AcDbSymbolTable
 70
0
  0
ENDTAB
  0
TABLE
  2
APPID
  5
9
100
AcDbSymbolTable
 70
1
  0
APPID
  5
20F
100
AcDbSymbolTableRecord
100
AcDbRegAppTableRecord
  2
ACAD
 70
0
  0
ENDTAB
  0
TABLE
  2
BLOCK_RECORD
  5
1
100
AcDbSymbolTable
 70
0
  0
BLOCK_RECORD
  5
210
100
AcDbSymbolTableRecord
100
AcDbBlockTableRecord
  2
*Model_Space
  0
BLOCK_RECORD
  5
211
100
AcDbSymbolTableRecord
100
AcDbBlockTableRecord
  2
*Paper_Space
  0
BLOCK_RECORD
  5
212
100
AcDbSymbolTableRecord
100
AcDbBlockTableRecord
  2
_FILLED
  0
ENDTAB
  0
TABLE
  2
DIMSTYLE
  5
A
100
AcDbSymbolTable
 70
1
100
AcDbDimStyleTable
 71
0
  0
DIMSTYLE
105
213
100
AcDbSymbolTableRecord
100
AcDbDimStyleTableRecord
  2
STANDARD
 70
0
  3

  4

 40
1.0
 41
0.9179504748
 42
1.0
 43
0.38
 44
1.0
 45
0.0
 46
0.0
 47
0.01
 48
0.01
140
1.2851306648
141
0.09
142
0.0
143
25.4
144
1.0
145
0.0
146
1.0
147
0.625
 71
1
 72
0
 73
0
 74
0
 75
0
 76
0
 77
1
 78
8
 79
2
170
0
171
1
172
0
173
0
174
0
175
0
176
0
177
0
178
0
270
2
179
2
271
2
272
2
273
2
274
2
275
0
280
0
281
0
282
0
283
1
284
8
285
0
286
0
287
3
288
0
340
11
278
46
341
212
342
212
343
212
344
212
  0
ENDTAB
  0
ENDSEC
  0
SECTION
  2
BLOCKS
  0
BLOCK
  5
20
100
AcDbEntity
  8
0
100
AcDbBlockBegin
  2
*Model_Space
 70
0
 10
0.0
 20
0.0
 30
0.0
  3
*Model_Space
  1

  0
ENDBLK
  5
21
100
AcDbEntity
  8
0
100
AcDbBlockEnd
  0
BLOCK
  5
1C
100
AcDbEntity
  8
0
100
AcDbBlockBegin
  2
*Paper_Space
 70
0
 10
0.0
 20
0.0
 30
0.0
  3
*Paper_Space
  1

  0
ENDBLK
  5
1D
100
AcDbEntity
  8
0
100
AcDbBlockEnd
  0
BLOCK
  5
214
100
AcDbEntity
  8
0
100
AcDbBlockBegin
  2
_FILLED
 70
64
 10
0.0
 20
0.0
  3
_FILLED
  1

  0
SOLID
  5
215
100
AcDbEntity
  8
0
  6
BYBLOCK
 62
0
100
AcDbTrace
 10
0.0
 20
0.0
 11
-1.0
 21
0.25
 12
-1.0
 22
-0.25
 13
-1.0
 23
-0.25
  0
ENDBLK
  5
216
100
AcDbEntity
  8
0
  6
BYBLOCK
 62
0
100
AcDbBlockEnd
  0
ENDSEC
  0
SECTION
  2
ENTITIES
  0
LINE
  5
217
100
AcDbEntity
  8
0
100
AcDbLine
 62
7
  6
BYLAYER
 10
8.7213160047
 20
49.5733208358
 11
8.7213160047
 21
59.4791844479
  0
LINE
  5
218
100
AcDbEntity
  8
0
100
AcDbLine
 62
7
  6
BYLAYER
 10
8.8865863692
 20
49.3763416562
 11
8.8865863692
 21
59.6761747551
  0
LINE
  5
219
100
AcDbEntity
  8
0
100
AcDbLine
 62
7
  6
BYLAYER
 10
10.0213160047
 20
49.1762582057
 11
10.0213160047
 21
59.8762582057
  0
LINE
  5
21A
100
AcDbEntity
  8
0
100
AcDbLine
 62
7
  6
BYLAYER
 10
10.6713160047
 20
59.8762582057
 11
10.6713160047
 21
49.1762582057
  0
LINE
  5
21B
100
AcDbEntity
  8
0
100
AcDbLine
 62
7
  6
BYLAYER
 10
11.3213160047
 20
48.5262582057
 11
11.3213160047
 21
60.5262582057
  0
LINE
  5
21C
100
AcDbEntity
  8
0
100
AcDbLine
 62
7
  6
BYLAYER
 10
10.6713160047
 20
59.8762582057
 11
11.3213160047
 21
60.5262582057
  0
LINE
  5
21D
100
AcDbEntity
  8
0
100
AcDbLine
 62
7
  6
BYLAYER
 10
10.6713160047
 20
49.1762582057
 11
11.3213160047
 21
48.5262582057
  0
LINE
  5
21E
100
AcDbEntity
  8
0
100
AcDbLine
 62
7
  6
BYLAYER
 10
16.8213160047
 20
60.5262582057
 11
16.8213160047
 21
48.5262582057
  0
LINE
  5
21F
100
AcDbEntity
  8
0
100
AcDbLine
 62
7
  6
BYLAYER
 10
17.4713160047
 20
49.1762582057
 11
17.4713160047
 21
59.8762582057
  0
LINE
  5
220
100
AcDbEntity
  8
0
100
AcDbLine
 62
7
  6
BYLAYER
 10
20.2213160047
 20
59.8762380441
 11
20.2213160047
 21
49.1762508798
  0
LINE
  5
221
100
AcDbEntity
  8
0
100
AcDbLine
 62
7
  6
BYLAYER
 10
20.4213160047
 20
49.2762582057
 11
20.4213160047
 21
59.7762582057
  0
LINE
  5
222
100
AcDbEntity
  8
0
100
AcDbLine
 62
7
  6
BYLAYER
 10
26.2213160047
 20
59.7762582057
 11
26.2213160047
 21
49.2762582057
  0
LINE
  5
223
100
AcDbEntity
  8
0
100
AcDbLine
 62
7
  6
BYLAYER
 10
26.2213160047
 20
59.7762582057
 11
26.3213160047
 21
59.8762582057
  0
LINE
  5
224
100
AcDbEntity
  8
0
100
AcDbLine
 62
7
  6
BYLAYER
 10
26.2213160047
 20
49.2762582057
 11
26.3213160047
 21
49.1762582057
  0
LINE
  5
225
100
AcDbEntity
  8
0
100
AcDbLine
 62
7
  6
BYLAYER
 10
26.9713160047
 20
49.1762582057
 11
26.9713160047
 21
59.8762582057
  0
LINE
  5
226
100
AcDbEntity
  8
0
100
AcDbLine
 62
7
  6
BYLAYER
 10
17.4713160047
 20
49.1762582057
 11
16.8213160047
 21
48.5262582057
  0
LINE
  5
227
100
AcDbEntity
  8
0
100
AcDbLine
 62
7
  6
BYLAYER
 10
17.4713160047
 20
59.8762582057
 11
16.8213160047
 21
60.5262582057
  0
LINE
  5
228
100
AcDbEntity
  8
0
100
AcDbLine
 62
7
  6
BYLAYER
 10
56.0467135818
 20
44.8613036295
 11
53.3959184276
 21
44.8613036295
  0
LINE
  5
229
100
AcDbEntity
  8
0
100
AcDbLine
 62
7
  6
BYLAYER
 10
61.3959185642
 20
44.8613036295
 11
64.0467134452
 21
44.8613036295
  0
LINE
  5
22A
100
AcDbEntity
  8
0
100
AcDbLine
 62
7
  6
BYLAYER
 10
8.8865863692
 20
49.3763416562
 11
10.0213160047
 21
49.1762582057
  0
LINE
  5
22B
100
AcDbEntity
  8
0
100
AcDbLine
 62
7
  6
BYLAYER
 10
32.2213160047
 20
48.5262620411
 11
32.2213160047
 21
49.1762582057
  0
LINE
  5
22C
100
AcDbEntity
  8
0
100
AcDbLine
 62
7
  6
BYLAYER
 10
32.2213160047
 20
59.8762582057
 11
32.2213160047
 21
60.5262543703
  0
LINE
  5
22D
100
AcDbEntity
  8
0
100
AcDbLine
 62
7
  6
BYLAYER
 10
69.1213160047
 20
48.5262582057
 11
64.7213160047
 21
48.5262582057
  0
LINE
  5
22E
100
AcDbEntity
  8
0
100
AcDbLine
 62
7
  6
BYLAYER
 10
60.7213160047
 20
48.5262582057
 11
56.7213160047
 21
48.5262582057
  0
LINE
  5
22F
100
AcDbEntity
  8
0
100
AcDbLine
 62
7
  6
BYLAYER
 10
52.7213160047
 20
48.5262582057
 11
32.2213160047
 21
48.5262582057
  0
LINE
  5
230
100
AcDbEntity
  8
0
100
AcDbLine
 62
7
  6
BYLAYER
 10
16.8213160047
 20
48.5262582057
 11
11.3213160047
 21
48.5262582057
  0
LINE
  5
231
100
AcDbEntity
  8
0
100
AcDbLine
 62
7
  6
BYLAYER
 10
20.2213160047
 20
49.1762582057
 11
17.4713160047
 21
49.1762582057
  0
LINE
  5
232
100
AcDbEntity
  8
0
100
AcDbLine
 62
7
  6
BYLAYER
 10
10.6713160047
 20
49.1762582057
 11
10.0213160047
 21
49.1762582057
  0
LINE
  5
233
100
AcDbEntity
  8
0
100
AcDbLine
 62
7
  6
BYLAYER
 10
26.3219869325
 20
49.1762582057
 11
32.2213160047
 21
49.1762582057
  0
LINE
  5
234
100
AcDbEntity
  8
0
100
AcDbLine
 62
7
  6
BYLAYER
 10
26.2213160047
 20
49.2762582057
 11
20.4213160047
 21
49.2762582057
  0
LINE
  5
235
100
AcDbEntity
  8
0
100
AcDbLine
 62
7
  6
BYLAYER
 10
69.3213160047
 20
49.3262582057
 11
69.653603581
 21
49.3262582057
  0
LINE
  5
236
100
AcDbEntity
  8
0
100
AcDbLine
 62
7
  6
BYLAYER
 10
56.046713446
 20
49.4687809176
 11
53.3959185634
 21
49.4687809176
  0
LINE
  5
237
100
AcDbEntity
  8
0
100
AcDbLine
 62
7
  6
BYLAYER
 10
61.3959184264
 20
49.4687809176
 11
64.046713583
 21
49.4687809176
  0
LINE
  5
238
100
AcDbEntity
  8
0
100
AcDbLine
 62
7
  6
BYLAYER
 10
56.1008083516
 20
50.1187809176
 11
53.3418236578
 21
50.1187809176
  0
LINE
  5
239
100
AcDbEntity
  8
0
100
AcDbLine
 62
7
  6
BYLAYER
 10
61.3418237227
 20
50.1187809176
 11
64.1008082847
 21
50.1187809176
  0
LINE
  5
23A
100
AcDbEntity
  8
0
100
AcDbLine
 62
7
  6
BYLAYER
 10
56.1008082867
 20
58.9337354938
 11
53.3418237247
 21
58.9337354938
  0
LINE
  5
23B
100
AcDbEntity
  8
0
100
AcDbLine
 62
7
  6
BYLAYER
 10
61.3418236578
 20
58.9337354938
 11
64.1008083516
 21
58.9337354938
  0
LINE
  5
23C
100
AcDbEntity
  8
0
100
AcDbLine
 62
7
  6
BYLAYER
 10
56.0467135818
 20
59.5837354938
 11
53.3959184276
 21
59.5837354938
  0
LINE
  5
23D
100
AcDbEntity
  8
0
100
AcDbLine
 62
7
  6
BYLAYER
 10
61.3959185642
 20
59.5837354938
 11
64.0467134452
 21
59.5837354938
  0
LINE
  5
23E
100
AcDbEntity
  8
0
100
AcDbLine
 62
7
  6
BYLAYER
 10
69.653603581
 20
59.7262582057
 11
69.3213160047
 21
59.7262582057
  0
LINE
  5
23F
100
AcDbEntity
  8
0
100
AcDbLine
 62
7
  6
BYLAYER
 10
26.2213160047
 20
59.7762582057
 11
20.4213160047
 21
59.7762582057
  0
LINE
  5
240
100
AcDbEntity
  8
0
100
AcDbLine
 62
7
  6
BYLAYER
 10
32.2213160047
 20
59.8762582057
 11
26.3219869325
 21
59.8762582057
  0
LINE
  5
241
100
AcDbEntity
  8
0
100
AcDbLine
 62
7
  6
BYLAYER
 10
20.2213160047
 20
59.8762582057
 11
17.4713160047
 21
59.8762582057
  0
LINE
  5
242
100
AcDbEntity
  8
0
100
AcDbLine
 62
7
  6
BYLAYER
 10
10.6713160047
 20
59.8762582057
 11
10.0213160047
 21
59.8762582057
  0
LINE
  5
243
100
AcDbEntity
  8
0
100
AcDbLine
 62
7
  6
BYLAYER
 10
69.1213160047
 20
60.5262582057
 11
64.7213160047
 21
60.5262582057
  0
LINE
  5
244
100
AcDbEntity
  8
0
100
AcDbLine
 62
7
  6
BYLAYER
 10
60.7213160047
 20
60.5262582057
 11
56.7213160047
 21
60.5262582057
  0
LINE
  5
245
100
AcDbEntity
  8
0
100
AcDbLine
 62
7
  6
BYLAYER
 10
52.7213160047
 20
60.5262582057
 11
32.2213160047
 21
60.5262582057
  0
LINE
  5
246
100
AcDbEntity
  8
0
100
AcDbLine
 62
7
  6
BYLAYER
 10
16.8213160047
 20
60.5262582057
 11
11.3213160047
 21
60.5262582057
  0
LINE
  5
247
100
AcDbEntity
  8
0
100
AcDbLine
 62
7
  6
BYLAYER
 10
52.7213160047
 20
63.0262582057
 11
53.3722522078
 21
64.1537127819
  0
LINE
  5
248
100
AcDbEntity
  8
0
100
AcDbLine
 62
7
  6
BYLAYER
 10
52.7213160047
 20
46.0262582057
 11
53.3722522078
 21
44.8988036295
  0
LINE
  5
249
100
AcDbEntity
  8
0
100
AcDbLine
 62
7
  6
BYLAYER
 10
8.8865863692
 20
59.6761747551
 11
10.0213160047
 21
59.8762582057
  0
LINE
  5
24A
100
AcDbEntity
  8
0
100
AcDbLine
 62
7
  6
BYLAYER
 10
56.046713446
 20
64.1912127819
 11
53.3959185634
 21
64.1912127819
  0
LINE
  5
24B
100
AcDbEntity
  8
0
100
AcDbLine
 62
7
  6
BYLAYER
 10
61.3959184264
 20
64.1912127819
 11
64.046713583
 21
64.1912127819
  0
LINE
  5
24C
100
AcDbEntity
  8
0
100
AcDbLine
 62
7
  6
BYLAYER
 10
52.7213160047
 20
46.0262610732
 11
52.7213160047
 21
63.0262553381
  0
LINE
  5
24D
100
AcDbEntity
  8
0
100
AcDbLine
 62
7
  6
BYLAYER
 10
60.7213160047
 20
63.0262582057
 11
61.3722522078
 21
64.1537127819
  0
LINE
  5
24E
100
AcDbEntity
  8
0
100
AcDbLine
 62
7
  6
BYLAYER
 10
60.7213160047
 20
46.0262582057
 11
61.3722522078
 21
44.8988036295
  0
LINE
  5
24F
100
AcDbEntity
  8
0
100
AcDbLine
 62
7
  6
BYLAYER
 10
56.7213160047
 20
63.0262553381
 11
56.7213160047
 21
46.0262610732
  0
LINE
  5
250
100
AcDbEntity
  8
0
100
AcDbLine
 62
7
  6
BYLAYER
 10
56.7213160047
 20
46.0262582057
 11
56.0703798016
 21
44.8988036295
  0
LINE
  5
251
100
AcDbEntity
  8
0
100
AcDbLine
 62
7
  6
BYLAYER
 10
56.7213160047
 20
63.0262582057
 11
56.0703798016
 21
64.1537127819
  0
LINE
  5
252
100
AcDbEntity
  8
0
100
AcDbLine
 62
7
  6
BYLAYER
 10
60.7213160047
 20
46.0262610732
 11
60.7213160047
 21
63.0262553381
  0
LINE
  5
253
100
AcDbEntity
  8
0
100
AcDbLine
 62
7
  6
BYLAYER
 10
64.7213160047
 20
63.0262553381
 11
64.7213160047
 21
46.0262610732
  0
LINE
  5
254
100
AcDbEntity
  8
0
100
AcDbLine
 62
7
  6
BYLAYER
 10
69.3213160047
 20
48.7262582057
 11
69.1213160047
 21
48.5262582057
  0
LINE
  5
255
100
AcDbEntity
  8
0
100
AcDbLine
 62
7
  6
BYLAYER
 10
69.3213160047
 20
60.3262582057
 11
69.1213160047
 21
60.5262582057
  0
LINE
  5
256
100
AcDbEntity
  8
0
100
AcDbLine
 62
7
  6
BYLAYER
 10
64.7213160047
 20
46.0262582057
 11
64.0703798016
 21
44.8988036295
  0
LINE
  5
257
100
AcDbEntity
  8
0
100
AcDbLine
 62
7
  6
BYLAYER
 10
64.7213160047
 20
63.0262582057
 11
64.0703798016
 21
64.1537127819
  0
LINE
  5
258
100
AcDbEntity
  8
0
100
AcDbLine
 62
7
  6
BYLAYER
 10
69.1213160047
 20
60.5262582057
 11
69.1213160047
 21
48.5262582057
  0
LINE
  5
259
100
AcDbEntity
  8
0
100
AcDbLine
 62
7
  6
BYLAYER
 10
69.3213160047
 20
60.3262340141
 11
69.3213160047
 21
48.7263716654
  0
LINE
  5
25A
100
AcDbEntity
  8
0
100
AcDbLine
 62
7
  6
BYLAYER
 10
69.5213160047
 20
59.7262582057
 11
69.5213160047
 21
49.3262582057
  0
LINE
  5
25B
100
AcDbEntity
  8
0
100
AcDbLine
 62
7
  6
BYLAYER
 10
69.7213160047
 20
59.5762621451
 11
69.7213160047
 21
49.4762586192
  0
ARC
  5
25C
100
AcDbEntity
  8
0
100
AcDbCircle
 62
7
  6
BYLAYER
 10
76.1387561157
 20
58.029545443
 40
14.8245327013
100
AcDbArc
 50
173.9821058872
 51
176.5031984695
  0
ARC
  5
25D
100
AcDbEntity
  8
0
100
AcDbCircle
 62
7
  6
BYLAYER
 10
49.3038758941
 20
58.0295454431
 40
14.8245327008
100
AcDbArc
 50
3.4968015304
 51
6.0178941128
  0
ARC
  5
25E
100
AcDbEntity
  8
0
100
AcDbCircle
 62
7
  6
BYLAYER
 10
49.3038760733
 20
51.0229709266
 40
14.8245325194
100
AcDbArc
 50
353.9821059754
 51
356.5031985883
  0
ARC
  5
25F
100
AcDbEntity
  8
0
100
AcDbCircle
 62
7
  6
BYLAYER
 10
76.1387559358
 20
51.0229709266
 40
14.8245325192
100
AcDbArc
 50
183.4968014117
 51
186.0178940246
  0
ARC
  5
260
100
AcDbEntity
  8
0
100
AcDbCircle
 62
7
  6
BYLAYER
 10
68.1152180383
 20
58.0315043448
 40
14.8009189772
100
AcDbArc
 50
173.9800944532
 51
176.5052098948
  0
ARC
  5
261
100
AcDbEntity
  8
0
100
AcDbCircle
 62
7
  6
BYLAYER
 10
41.3274139715
 20
58.0315043448
 40
14.8009189768
100
AcDbArc
 50
3.4947901051
 51
6.0199055468
  0
ARC
  5
262
100
AcDbEntity
  8
0
100
AcDbCircle
 62
7
  6
BYLAYER
 10
41.3274141442
 20
51.0210120243
 40
14.8009188018
100
AcDbArc
 50
353.9800945462
 51
356.5052100174
  0
ARC
  5
263
100
AcDbEntity
  8
0
100
AcDbCircle
 62
7
  6
BYLAYER
 10
68.1152178649
 20
51.0210120243
 40
14.8009188015
100
AcDbArc
 50
183.4947899826
 51
186.0199054538
  0
ARC
  5
264
100
AcDbEntity
  8
0
100
AcDbCircle
 62
7
  6
BYLAYER
 10
69.5213160047
 20
59.5762582057
 40
0.2
100
AcDbArc
 50
0.0
 51
48.5903778907
  0
ARC
  5
265
100
AcDbEntity
  8
0
100
AcDbCircle
 62
7
  6
BYLAYER
 10
69.5213160047
 20
49.4762582057
 40
0.2
100
AcDbArc
 50
311.4096221093
 51
360.0
  0
ARC
  5
266
100
AcDbEntity
  8
0
100
AcDbCircle
 62
7
  6
BYLAYER
 10
8.9213160047
 20
49.5733032068
 40
0.2
100
AcDbArc
 50
180.0
 51
260.0
  0
ARC
  5
267
100
AcDbEntity
  8
0
100
AcDbCircle
 62
7
  6
BYLAYER
 10
8.9213160047
 20
59.4792132045
 40
0.2
100
AcDbArc
 50
100.0
 51
180.0
  0
ARC
  5
268
100
AcDbEntity
  8
0
100
AcDbCircle
 62
7
  6
BYLAYER
 10
20.4213160047
 20
49.4762582057
 40
0.2
100
AcDbArc
 50
180.0
 51
270.0
  0
ARC
  5
269
100
AcDbEntity
  8
0
100
AcDbCircle
 62
7
  6
BYLAYER
 10
20.4213160047
 20
59.5762582057
 40
0.2
100
AcDbArc
 50
90.0
 51
180.0
  0
SPLINE
  5
26A
100
AcDbEntity
  8
0
100
AcDbSpline
 62
7
  6
BYLAYER
 70
0
 71
3
 72
9
 73
5
 74
0
 42
0.0000001
 43
0.0000001
 44
0.0000000001
 40
0.0
 40
0.0
 40
0.0
 40
0.0
 40
0.2456243928
 40
1.0
 40
1.0
 40
1.0
 40
1.0
 10
53.3722471747
 20
64.1537128412
 30
0.0
 10
53.3740620465
 20
64.1568581347
 30
0.0
 10
53.3815834176
 20
64.169586721
 30
0.0
 10
53.3896180105
 20
64.182010107
 30
0.0
 10
53.3959184264
 20
64.1912127819
 30
0.0
  0
SPLINE
  5
26B
100
AcDbEntity
  8
0
100
AcDbSpline
 62
7
  6
BYLAYER
 70
0
 71
3
 72
9
 73
5
 74
0
 42
0.0000001
 43
0.0000001
 44
0.0000000001
 40
0.0
 40
0.0
 40
0.0
 40
0.0
 40
0.2456243938
 40
1.0
 40
1.0
 40
1.0
 40
1.0
 10
56.0703848355
 20
44.8988035702
 30
0.0
 10
56.0685699635
 20
44.8956582767
 30
0.0
 10
56.0610485916
 20
44.8829296904
 30
0.0
 10
56.0530139977
 20
44.8705063046
 30
0.0
 10
56.0467135818
 20
44.8613036295
 30
0.0
  0
SPLINE
  5
26C
100
AcDbEntity
  8
0
100
AcDbSpline
 62
7
  6
BYLAYER
 70
0
 71
3
 72
9
 73
5
 74
0
 42
0.0000001
 43
0.0000001
 44
0.0000000001
 40
0.0
 40
0.0
 40
0.0
 40
0.0
 40
0.2544714856
 40
1.0
 40
1.0
 40
1.0
 40
1.0
 10
56.046713583
 20
64.1912127819
 30
0.0
 10
56.0488388731
 20
64.1881084861
 30
0.0
 10
56.057082084
 20
64.1758357692
 30
0.0
 10
56.064876298
 20
64.1632595014
 30
0.0
 10
56.0703848347
 20
64.1537128412
 30
0.0
  0
SPLINE
  5
26D
100
AcDbEntity
  8
0
100
AcDbSpline
 62
7
  6
BYLAYER
 70
0
 71
3
 72
9
 73
5
 74
0
 42
0.0000001
 43
0.0000001
 44
0.0000000001
 40
0.0
 40
0.0
 40
0.0
 40
0.0
 40
0.2544714823
 40
1.0
 40
1.0
 40
1.0
 40
1.0
 10
53.3959184276
 20
44.8613036295
 30
0.0
 10
53.3937931375
 20
44.8644079253
 30
0.0
 10
53.3855499262
 20
44.8766806424
 30
0.0
 10
53.3777557111
 20
44.8892569099
 30
0.0
 10
53.3722471739
 20
44.8988035702
 30
0.0
  0
SPLINE
  5
26E
100
AcDbEntity
  8
0
100
AcDbSpline
 62
7
  6
BYLAYER
 70
0
 71
3
 72
13
 73
9
 74
0
 42
0.0000001
 43
0.0000001
 44
0.0000000001
 40
0.0
 40
0.0
 40
0.0
 40
0.0
 40
0.2606524721
 40
0.5130924331
 40
0.6365954991
 40
0.7586214311
 40
0.8795925772
 40
1.0
 40
1.0
 40
1.0
 40
1.0
 10
56.046713446
 20
49.4687809176
 30
0.0
 10
56.1483242728
 20
49.2841246227
 30
0.0
 10
56.3342762775
 20
48.9125656733
 30
0.0
 10
56.5166845615
 20
48.4298421546
 30
0.0
 10
56.6217893653
 20
48.0408428079
 30
0.0
 10
56.6788102904
 20
47.7497468475
 30
0.0
 10
56.7135150808
 20
47.4576736061
 30
0.0
 10
56.7213143445
 20
47.262405235
 30
0.0
 10
56.721313087
 20
47.1650422402
 30
0.0
  0
SPLINE
  5
26F
100
AcDbEntity
  8
0
100
AcDbSpline
 62
7
  6
BYLAYER
 70
0
 71
3
 72
11
 73
7
 74
0
 42
0.0000001
 43
0.0000001
 44
0.0000000001
 40
0.0
 40
0.0
 40
0.0
 40
0.0
 40
0.2499942108
 40
0.4999900508
 40
0.7499919184
 40
1.0
 40
1.0
 40
1.0
 40
1.0
 10
56.7213160047
 20
54.5262582057
 30
0.0
 10
56.7213160047
 20
54.1543528445
 30
0.0
 10
56.6929118904
 20
53.4102464128
 30
0.0
 10
56.5684180755
 20
52.3005929047
 30
0.0
 10
56.3701988916
 20
51.2018691251
 30
0.0
 10
56.1963379574
 20
50.4782291451
 30
0.0
 10
56.1008082847
 20
50.1187809176
 30
0.0
  0
SPLINE
  5
270
100
AcDbEntity
  8
0
100
AcDbSpline
 62
7
  6
BYLAYER
 70
0
 71
3
 72
11
 73
7
 74
0
 42
0.0000001
 43
0.0000001
 44
0.0000000001
 40
0.0
 40
0.0
 40
0.0
 40
0.0
 40
0.2499942108
 40
0.4999900508
 40
0.7499919184
 40
1.0
 40
1.0
 40
1.0
 40
1.0
 10
52.7213160047
 20
54.5262582057
 30
0.0
 10
52.7213160047
 20
54.8981635669
 30
0.0
 10
52.749720119
 20
55.6422699986
 30
0.0
 10
52.8742139339
 20
56.7519235067
 30
0.0
 10
53.0724331178
 20
57.8506472863
 30
0.0
 10
53.2462940519
 20
58.5742872663
 30
0.0
 10
53.3418237247
 20
58.9337354938
 30
0.0
  0
SPLINE
  5
271
100
AcDbEntity
  8
0
100
AcDbSpline
 62
7
  6
BYLAYER
 70
0
 71
3
 72
13
 73
9
 74
0
 42
0.0000001
 43
0.0000001
 44
0.0000000001
 40
0.0
 40
0.0
 40
0.0
 40
0.0
 40
0.2606524703
 40
0.5130924323
 40
0.6365954993
 40
0.7586214316
 40
0.8795925774
 40
1.0
 40
1.0
 40
1.0
 40
1.0
 10
53.3959185642
 20
59.5837354938
 30
0.0
 10
53.2943077408
 20
59.7683917824
 30
0.0
 10
53.1083557564
 20
60.1399507288
 30
0.0
 10
52.9259474653
 20
60.6226742285
 30
0.0
 10
52.8208426435
 20
61.0116735612
 30
0.0
 10
52.763821709
 20
61.3027695127
 30
0.0
 10
52.7291169242
 20
61.5948427471
 30
0.0
 10
52.7213176666
 20
61.7901111124
 30
0.0
 10
52.7213189224
 20
61.8874741045
 30
0.0
  0
SPLINE
  5
272
100
AcDbEntity
  8
0
100
AcDbSpline
 62
7
  6
BYLAYER
 70
0
 71
3
 72
11
 73
7
 74
0
 42
0.0000001
 43
0.0000001
 44
0.0000000001
 40
0.0
 40
0.0
 40
0.0
 40
0.0
 40
0.2500022721
 40
0.5000027068
 40
0.7500024686
 40
1.0
 40
1.0
 40
1.0
 40
1.0
 10
56.1008082867
 20
58.9337354938
 30
0.0
 10
56.1963357555
 20
58.574295559
 30
0.0
 10
56.3702146472
 20
57.8506704255
 30
0.0
 10
56.5684032268
 20
56.7519460112
 30
0.0
 10
56.6929221657
 20
55.6422867828
 30
0.0
 10
56.7213160047
 20
54.8981685688
 30
0.0
 10
56.7213160047
 20
54.5262582057
 30
0.0
  0
SPLINE
  5
273
100
AcDbEntity
  8
0
100
AcDbSpline
 62
7
  6
BYLAYER
 70
0
 71
3
 72
13
 73
9
 74
0
 42
0.0000001
 43
0.0000001
 44
0.0000000001
 40
0.0
 40
0.0
 40
0.0
 40
0.0
 40
0.1204074335
 40
0.2413786046
 40
0.3634045453
 40
0.4869076091
 40
0.7393475591
 40
1.0
 40
1.0
 40
1.0
 40
1.0
 10
56.721313087
 20
61.8874741045
 30
0.0
 10
56.721314342
 20
61.7901111037
 30
0.0
 10
56.7135150343
 20
61.5948427124
 30
0.0
 10
56.6788103194
 20
61.3027694344
 30
0.0
 10
56.6217893447
 20
61.0116734639
 30
0.0
 10
56.5166845146
 20
60.6226741404
 30
0.0
 10
56.3342761987
 20
60.13995069
 30
0.0
 10
56.1483242569
 20
59.7683917614
 30
0.0
 10
56.0467134452
 20
59.5837354938
 30
0.0
  0
SPLINE
  5
274
100
AcDbEntity
  8
0
100
AcDbSpline
 62
7
  6
BYLAYER
 70
0
 71
3
 72
13
 73
9
 74
0
 42
0.0000001
 43
0.0000001
 44
0.0000000001
 40
0.0
 40
0.0
 40
0.0
 40
0.0
 40
0.2606524721
 40
0.5130924331
 40
0.6365954991
 40
0.7586214311
 40
0.8795925772
 40
1.0
 40
1.0
 40
1.0
 40
1.0
 10
56.046713446
 20
64.1912127819
 30
0.0
 10
56.1483242728
 20
64.006556487
 30
0.0
 10
56.3342762775
 20
63.6349975376
 30
0.0
 10
56.5166845615
 20
63.152274019
 30
0.0
 10
56.6217893653
 20
62.7632746722
 30
0.0
 10
56.6788102904
 20
62.4721787118
 30
0.0
 10
56.7135150808
 20
62.1801054704
 30
0.0
 10
56.7213143445
 20
61.9848370994
 30
0.0
 10
56.721313087
 20
61.8874741045
 30
0.0
  0
SPLINE
  5
275
100
AcDbEntity
  8
0
100
AcDbSpline
 62
7
  6
BYLAYER
 70
0
 71
3
 72
13
 73
9
 74
0
 42
0.0000001
 43
0.0000001
 44
0.0000000001
 40
0.0
 40
0.0
 40
0.0
 40
0.0
 40
0.1204074337
 40
0.2413786051
 40
0.3634045455
 40
0.4869076083
 40
0.7393475573
 40
1.0
 40
1.0
 40
1.0
 40
1.0
 10
52.7213189224
 20
61.8874741045
 30
0.0
 10
52.7213176656
 20
61.9848371081
 30
0.0
 10
52.7291169795
 20
62.1801055051
 30
0.0
 10
52.7638217
 20
62.4721787901
 30
0.0
 10
52.8208426651
 20
62.7632747695
 30
0.0
 10
52.9259474773
 20
63.152274107
 30
0.0
 10
53.1083557861
 20
63.6349975764
 30
0.0
 10
53.2943077482
 20
64.006556508
 30
0.0
 10
53.3959185634
 20
64.1912127819
 30
0.0
  0
SPLINE
  5
276
100
AcDbEntity
  8
0
100
AcDbSpline
 62
7
  6
BYLAYER
 70
0
 71
3
 72
13
 73
9
 74
0
 42
0.0000001
 43
0.0000001
 44
0.0000000001
 40
0.0
 40
0.0
 40
0.0
 40
0.0
 40
0.1204074335
 40
0.2413786046
 40
0.3634045453
 40
0.4869076091
 40
0.7393475591
 40
1.0
 40
1.0
 40
1.0
 40
1.0
 10
56.721313087
 20
47.1650422402
 30
0.0
 10
56.721314342
 20
47.0676792393
 30
0.0
 10
56.7135150343
 20
46.872410848
 30
0.0
 10
56.6788103194
 20
46.5803375701
 30
0.0
 10
56.6217893447
 20
46.2892415996
 30
0.0
 10
56.5166845146
 20
45.9002422761
 30
0.0
 10
56.3342761987
 20
45.4175188256
 30
0.0
 10
56.1483242569
 20
45.0459598971
 30
0.0
 10
56.0467134452
 20
44.8613036295
 30
0.0
  0
SPLINE
  5
277
100
AcDbEntity
  8
0
100
AcDbSpline
 62
7
  6
BYLAYER
 70
0
 71
3
 72
13
 73
9
 74
0
 42
0.0000001
 43
0.0000001
 44
0.0000000001
 40
0.0
 40
0.0
 40
0.0
 40
0.0
 40
0.1204074337
 40
0.2413786051
 40
0.3634045455
 40
0.4869076083
 40
0.7393475573
 40
1.0
 40
1.0
 40
1.0
 40
1.0
 10
52.7213189224
 20
47.1650422402
 30
0.0
 10
52.7213176656
 20
47.2624052438
 30
0.0
 10
52.7291169795
 20
47.4576736408
 30
0.0
 10
52.7638217
 20
47.7497469258
 30
0.0
 10
52.8208426651
 20
48.0408429052
 30
0.0
 10
52.9259474773
 20
48.4298422427
 30
0.0
 10
53.1083557861
 20
48.9125657121
 30
0.0
 10
53.2943077482
 20
49.2841246437
 30
0.0
 10
53.3959185634
 20
49.4687809176
 30
0.0
  0
SPLINE
  5
278
100
AcDbEntity
  8
0
100
AcDbSpline
 62
7
  6
BYLAYER
 70
0
 71
3
 72
11
 73
7
 74
0
 42
0.0000001
 43
0.0000001
 44
0.0000000001
 40
0.0
 40
0.0
 40
0.0
 40
0.0
 40
0.2500022721
 40
0.5000027068
 40
0.7500024686
 40
1.0
 40
1.0
 40
1.0
 40
1.0
 10
53.3418237227
 20
50.1187809176
 30
0.0
 10
53.2462962539
 20
50.4782208524
 30
0.0
 10
53.0724173621
 20
51.2018459859
 30
0.0
 10
52.8742287825
 20
52.3005704002
 30
0.0
 10
52.7497098437
 20
53.4102296286
 30
0.0
 10
52.7213160047
 20
54.1543478426
 30
0.0
 10
52.7213160047
 20
54.5262582057
 30
0.0
  0
SPLINE
  5
279
100
AcDbEntity
  8
0
100
AcDbSpline
 62
7
  6
BYLAYER
 70
0
 71
3
 72
13
 73
9
 74
0
 42
0.0000001
 43
0.0000001
 44
0.0000000001
 40
0.0
 40
0.0
 40
0.0
 40
0.0
 40
0.2606524703
 40
0.5130924323
 40
0.6365954993
 40
0.7586214316
 40
0.8795925774
 40
1.0
 40
1.0
 40
1.0
 40
1.0
 10
53.3959185642
 20
44.8613036295
 30
0.0
 10
53.2943077408
 20
45.0459599181
 30
0.0
 10
53.1083557564
 20
45.4175188644
 30
0.0
 10
52.9259474653
 20
45.9002423642
 30
0.0
 10
52.8208426435
 20
46.2892416968
 30
0.0
 10
52.763821709
 20
46.5803376484
 30
0.0
 10
52.7291169242
 20
46.8724108828
 30
0.0
 10
52.7213176666
 20
47.0676792481
 30
0.0
 10
52.7213189224
 20
47.1650422402
 30
0.0
  0
SPLINE
  5
27A
100
AcDbEntity
  8
0
100
AcDbSpline
 62
7
  6
BYLAYER
 70
0
 71
3
 72
9
 73
5
 74
0
 42
0.0000001
 43
0.0000001
 44
0.0000000001
 40
0.0
 40
0.0
 40
0.0
 40
0.0
 40
0.2456458236
 40
1.0
 40
1.0
 40
1.0
 40
1.0
 10
64.0703811991
 20
64.1537127984
 30
0.0
 10
64.0685656446
 20
64.1568578779
 30
0.0
 10
64.0610438466
 20
64.1695854018
 30
0.0
 10
64.0530135407
 20
64.1820107761
 30
0.0
 10
64.046713583
 20
64.1912127819
 30
0.0
  0
SPLINE
  5
27B
100
AcDbEntity
  8
0
100
AcDbSpline
 62
7
  6
BYLAYER
 70
0
 71
3
 72
9
 73
5
 74
0
 42
0.0000001
 43
0.0000001
 44
0.0000000001
 40
0.0
 40
0.0
 40
0.0
 40
0.0
 40
0.2456458246
 40
1.0
 40
1.0
 40
1.0
 40
1.0
 10
61.3722508095
 20
44.898803613
 30
0.0
 10
61.3740663642
 20
44.8956585334
 30
0.0
 10
61.381588163
 20
44.8829310096
 30
0.0
 10
61.3896184698
 20
44.8705056354
 30
0.0
 10
61.3959184276
 20
44.8613036295
 30
0.0
  0
SPLINE
  5
27C
100
AcDbEntity
  8
0
100
AcDbSpline
 62
7
  6
BYLAYER
 70
0
 71
3
 72
9
 73
5
 74
0
 42
0.0000001
 43
0.0000001
 44
0.0000000001
 40
0.0
 40
0.0
 40
0.0
 40
0.0
 40
0.2544691177
 40
1.0
 40
1.0
 40
1.0
 40
1.0
 10
61.3959184264
 20
64.1912127819
 30
0.0
 10
61.3937932475
 20
64.1881086486
 30
0.0
 10
61.3855516025
 20
64.1758356002
 30
0.0
 10
61.3777609628
 20
64.1632580188
 30
0.0
 10
61.3722508103
 20
64.1537127984
 30
0.0
  0
SPLINE
  5
27D
100
AcDbEntity
  8
0
100
AcDbSpline
 62
7
  6
BYLAYER
 70
0
 71
3
 72
9
 73
5
 74
0
 42
0.0000001
 43
0.0000001
 44
0.0000000001
 40
0.0
 40
0.0
 40
0.0
 40
0.0
 40
0.2544691145
 40
1.0
 40
1.0
 40
1.0
 40
1.0
 10
64.0467135818
 20
44.8613036295
 30
0.0
 10
64.0488387607
 20
44.8644077628
 30
0.0
 10
64.0570804061
 20
44.8766808113
 30
0.0
 10
64.0648710468
 20
44.8892583925
 30
0.0
 10
64.0703811999
 20
44.898803613
 30
0.0
  0
SPLINE
  5
27E
100
AcDbEntity
  8
0
100
AcDbSpline
 62
7
  6
BYLAYER
 70
0
 71
3
 72
13
 73
9
 74
0
 42
0.0000001
 43
0.0000001
 44
0.0000000001
 40
0.0
 40
0.0
 40
0.0
 40
0.0
 40
0.1204074337
 40
0.2413786051
 40
0.3634045455
 40
0.4869076083
 40
0.7393475573
 40
1.0
 40
1.0
 40
1.0
 40
1.0
 10
60.7213189224
 20
61.8874741045
 30
0.0
 10
60.7213176656
 20
61.9848371081
 30
0.0
 10
60.7291169795
 20
62.1801055051
 30
0.0
 10
60.7638217
 20
62.4721787901
 30
0.0
 10
60.8208426651
 20
62.7632747695
 30
0.0
 10
60.9259474773
 20
63.152274107
 30
0.0
 10
61.1083557861
 20
63.6349975764
 30
0.0
 10
61.2943077482
 20
64.006556508
 30
0.0
 10
61.3959185634
 20
64.1912127819
 30
0.0
  0
SPLINE
  5
27F
100
AcDbEntity
  8
0
100
AcDbSpline
 62
7
  6
BYLAYER
 70
0
 71
3
 72
11
 73
7
 74
0
 42
0.0000001
 43
0.0000001
 44
0.0000000001
 40
0.0
 40
0.0
 40
0.0
 40
0.0
 40
0.2499942108
 40
0.4999900508
 40
0.7499919184
 40
1.0
 40
1.0
 40
1.0
 40
1.0
 10
60.7213160047
 20
54.5262582057
 30
0.0
 10
60.7213160047
 20
54.8981635669
 30
0.0
 10
60.749720119
 20
55.6422699986
 30
0.0
 10
60.8742139339
 20
56.7519235067
 30
0.0
 10
61.0724331177
 20
57.8506472863
 30
0.0
 10
61.246294052
 20
58.5742872663
 30
0.0
 10
61.3418237247
 20
58.9337354938
 30
0.0
  0
SPLINE
  5
280
100
AcDbEntity
  8
0
100
AcDbSpline
 62
7
  6
BYLAYER
 70
0
 71
3
 72
13
 73
9
 74
0
 42
0.0000001
 43
0.0000001
 44
0.0000000001
 40
0.0
 40
0.0
 40
0.0
 40
0.0
 40
0.2606524721
 40
0.5130924331
 40
0.6365954991
 40
0.7586214311
 40
0.8795925772
 40
1.0
 40
1.0
 40
1.0
 40
1.0
 10
64.046713446
 20
64.1912127819
 30
0.0
 10
64.1483242727
 20
64.006556487
 30
0.0
 10
64.3342762775
 20
63.6349975376
 30
0.0
 10
64.5166845615
 20
63.152274019
 30
0.0
 10
64.6217893653
 20
62.7632746723
 30
0.0
 10
64.6788102904
 20
62.4721787118
 30
0.0
 10
64.7135150808
 20
62.1801054704
 30
0.0
 10
64.7213143445
 20
61.9848370994
 30
0.0
 10
64.721313087
 20
61.8874741045
 30
0.0
  0
SPLINE
  5
281
100
AcDbEntity
  8
0
100
AcDbSpline
 62
7
  6
BYLAYER
 70
0
 71
3
 72
13
 73
9
 74
0
 42
0.0000001
 43
0.0000001
 44
0.0000000001
 40
0.0
 40
0.0
 40
0.0
 40
0.0
 40
0.2606524703
 40
0.5130924323
 40
0.6365954993
 40
0.7586214316
 40
0.8795925774
 40
1.0
 40
1.0
 40
1.0
 40
1.0
 10
61.3959185642
 20
44.8613036295
 30
0.0
 10
61.2943077408
 20
45.0459599181
 30
0.0
 10
61.1083557564
 20
45.4175188644
 30
0.0
 10
60.9259474653
 20
45.9002423642
 30
0.0
 10
60.8208426435
 20
46.2892416968
 30
0.0
 10
60.763821709
 20
46.5803376484
 30
0.0
 10
60.7291169242
 20
46.8724108828
 30
0.0
 10
60.7213176666
 20
47.0676792481
 30
0.0
 10
60.7213189224
 20
47.1650422402
 30
0.0
  0
SPLINE
  5
282
100
AcDbEntity
  8
0
100
AcDbSpline
 62
7
  6
BYLAYER
 70
0
 71
3
 72
13
 73
9
 74
0
 42
0.0000001
 43
0.0000001
 44
0.0000000001
 40
0.0
 40
0.0
 40
0.0
 40
0.0
 40
0.1204074335
 40
0.2413786046
 40
0.3634045453
 40
0.4869076091
 40
0.7393475591
 40
1.0
 40
1.0
 40
1.0
 40
1.0
 10
64.721313087
 20
47.1650422402
 30
0.0
 10
64.721314342
 20
47.0676792393
 30
0.0
 10
64.7135150343
 20
46.872410848
 30
0.0
 10
64.6788103194
 20
46.5803375701
 30
0.0
 10
64.6217893447
 20
46.2892415996
 30
0.0
 10
64.5166845146
 20
45.9002422761
 30
0.0
 10
64.3342761987
 20
45.4175188256
 30
0.0
 10
64.148324257
 20
45.0459598971
 30
0.0
 10
64.0467134452
 20
44.8613036295
 30
0.0
  0
SPLINE
  5
283
100
AcDbEntity
  8
0
100
AcDbSpline
 62
7
  6
BYLAYER
 70
0
 71
3
 72
13
 73
9
 74
0
 42
0.0000001
 43
0.0000001
 44
0.0000000001
 40
0.0
 40
0.0
 40
0.0
 40
0.0
 40
0.2606524703
 40
0.5130924323
 40
0.6365954993
 40
0.7586214316
 40
0.8795925774
 40
1.0
 40
1.0
 40
1.0
 40
1.0
 10
61.3959185642
 20
59.5837354938
 30
0.0
 10
61.2943077408
 20
59.7683917824
 30
0.0
 10
61.1083557564
 20
60.1399507288
 30
0.0
 10
60.9259474653
 20
60.6226742285
 30
0.0
 10
60.8208426435
 20
61.0116735612
 30
0.0
 10
60.763821709
 20
61.3027695127
 30
0.0
 10
60.7291169242
 20
61.5948427471
 30
0.0
 10
60.7213176666
 20
61.7901111124
 30
0.0
 10
60.7213189224
 20
61.8874741045
 30
0.0
  0
SPLINE
  5
284
100
AcDbEntity
  8
0
100
AcDbSpline
 62
7
  6
BYLAYER
 70
0
 71
3
 72
11
 73
7
 74
0
 42
0.0000001
 43
0.0000001
 44
0.0000000001
 40
0.0
 40
0.0
 40
0.0
 40
0.0
 40
0.2500022721
 40
0.5000027068
 40
0.7500024686
 40
1.0
 40
1.0
 40
1.0
 40
1.0
 10
61.3418237227
 20
50.1187809176
 30
0.0
 10
61.2462962539
 20
50.4782208524
 30
0.0
 10
61.0724173621
 20
51.2018459858
 30
0.0
 10
60.8742287825
 20
52.3005704002
 30
0.0
 10
60.7497098437
 20
53.4102296286
 30
0.0
 10
60.7213160047
 20
54.1543478426
 30
0.0
 10
60.7213160047
 20
54.5262582057
 30
0.0
  0
SPLINE
  5
285
100
AcDbEntity
  8
0
100
AcDbSpline
 62
7
  6
BYLAYER
 70
0
 71
3
 72
11
 73
7
 74
0
 42
0.0000001
 43
0.0000001
 44
0.0000000001
 40
0.0
 40
0.0
 40
0.0
 40
0.0
 40
0.2500022721
 40
0.5000027068
 40
0.7500024686
 40
1.0
 40
1.0
 40
1.0
 40
1.0
 10
64.1008082867
 20
58.9337354938
 30
0.0
 10
64.1963357554
 20
58.574295559
 30
0.0
 10
64.3702146472
 20
57.8506704255
 30
0.0
 10
64.5684032268
 20
56.7519460112
 30
0.0
 10
64.6929221657
 20
55.6422867828
 30
0.0
 10
64.7213160047
 20
54.8981685688
 30
0.0
 10
64.7213160047
 20
54.5262582057
 30
0.0
  0
SPLINE
  5
286
100
AcDbEntity
  8
0
100
AcDbSpline
 62
7
  6
BYLAYER
 70
0
 71
3
 72
13
 73
9
 74
0
 42
0.0000001
 43
0.0000001
 44
0.0000000001
 40
0.0
 40
0.0
 40
0.0
 40
0.0
 40
0.1204074337
 40
0.2413786051
 40
0.3634045455
 40
0.4869076083
 40
0.7393475573
 40
1.0
 40
1.0
 40
1.0
 40
1.0
 10
60.7213189224
 20
47.1650422402
 30
0.0
 10
60.7213176656
 20
47.2624052438
 30
0.0
 10
60.7291169795
 20
47.4576736408
 30
0.0
 10
60.7638217
 20
47.7497469258
 30
0.0
 10
60.8208426651
 20
48.0408429052
 30
0.0
 10
60.9259474773
 20
48.4298422427
 30
0.0
 10
61.1083557861
 20
48.9125657121
 30
0.0
 10
61.2943077482
 20
49.2841246437
 30
0.0
 10
61.3959185634
 20
49.4687809176
 30
0.0
  0
SPLINE
  5
287
100
AcDbEntity
  8
0
100
AcDbSpline
 62
7
  6
BYLAYER
 70
0
 71
3
 72
13
 73
9
 74
0
 42
0.0000001
 43
0.0000001
 44
0.0000000001
 40
0.0
 40
0.0
 40
0.0
 40
0.0
 40
0.1204074335
 40
0.2413786046
 40
0.3634045453
 40
0.4869076091
 40
0.7393475591
 40
1.0
 40
1.0
 40
1.0
 40
1.0
 10
64.721313087
 20
61.8874741045
 30
0.0
 10
64.721314342
 20
61.7901111037
 30
0.0
 10
64.7135150343
 20
61.5948427124
 30
0.0
 10
64.6788103194
 20
61.3027694344
 30
0.0
 10
64.6217893447
 20
61.0116734639
 30
0.0
 10
64.5166845146
 20
60.6226741404
 30
0.0
 10
64.3342761987
 20
60.13995069
 30
0.0
 10
64.148324257
 20
59.7683917614
 30
0.0
 10
64.0467134452
 20
59.5837354938
 30
0.0
  0
SPLINE
  5
288
100
AcDbEntity
  8
0
100
AcDbSpline
 62
7
  6
BYLAYER
 70
0
 71
3
 72
13
 73
9
 74
0
 42
0.0000001
 43
0.0000001
 44
0.0000000001
 40
0.0
 40
0.0
 40
0.0
 40
0.0
 40
0.2606524721
 40
0.5130924331
 40
0.6365954991
 40
0.7586214311
 40
0.8795925772
 40
1.0
 40
1.0
 40
1.0
 40
1.0
 10
64.046713446
 20
49.4687809176
 30
0.0
 10
64.1483242727
 20
49.2841246227
 30
0.0
 10
64.3342762775
 20
48.9125656733
 30
0.0
 10
64.5166845615
 20
48.4298421546
 30
0.0
 10
64.6217893653
 20
48.0408428079
 30
0.0
 10
64.6788102904
 20
47.7497468475
 30
0.0
 10
64.7135150808
 20
47.4576736061
 30
0.0
 10
64.7213143445
 20
47.262405235
 30
0.0
 10
64.721313087
 20
47.1650422402
 30
0.0
  0
SPLINE
  5
289
100
AcDbEntity
  8
0
100
AcDbSpline
 62
7
  6
BYLAYER
 70
0
 71
3
 72
11
 73
7
 74
0
 42
0.0000001
 43
0.0000001
 44
0.0000000001
 40
0.0
 40
0.0
 40
0.0
 40
0.0
 40
0.2499942108
 40
0.4999900508
 40
0.7499919184
 40
1.0
 40
1.0
 40
1.0
 40
1.0
 10
64.7213160047
 20
54.5262582057
 30
0.0
 10
64.7213160047
 20
54.1543528445
 30
0.0
 10
64.6929118904
 20
53.4102464128
 30
0.0
 10
64.5684180755
 20
52.3005929047
 30
0.0
 10
64.3701988916
 20
51.2018691251
 30
0.0
 10
64.1963379574
 20
50.4782291451
 30
0.0
 10
64.1008082847
 20
50.1187809176
 30
0.0
  0
ENDSEC
  0
SECTION
  2
OBJECTS
  0
DICTIONARY
  5
C
100
AcDbDictionary
280
0
281
1
  3
ACAD_GROUP
350
D
  3
ACAD_MLINESTYLE
350
17
  3
ACAD_LAYOUT
350
1A
  3
ACAD_PLOTSETTINGS
350
19
  3
ACAD_PLOTSTYLENAME
350
E
  0
DICTIONARY
  5
D
102
{ACAD_REACTORS
330
C
102
}
100
AcDbDictionary
280
0
281
1
  0
ACDBDICTIONARYWDFLT
  5
E
102
{ACAD_REACTORS
330
C
102
}
100
AcDbDictionary
281
1
  3
Normal
350
F
100
AcDbDictionaryWithDefault
340
F
  0
DICTIONARY
  5
17
102
{ACAD_REACTORS
330
C
102
}
100
AcDbDictionary
280
0
281
1
  3
Standard
350
18
  0
DICTIONARY
  5
19
102
{ACAD_REACTORS
330
C
102
}
100
AcDbDictionary
281
1
  0
DICTIONARY
  5
1A
102
{ACAD_REACTORS
330
C
102
}
100
AcDbDictionary
281
1
  3
Model
350
28A
  3
Layout1
350
28B
  0
ACDBPLACEHOLDER
  5
F
102
{ACAD_REACTORS
330
E
102
}
  0
MLINESTYLE
  5
18
102
{ACAD_REACTORS
330
17
102
}
100
AcDbMlineStyle
  2
STANDARD
 70
0
  3

 62
256
 51
90.0
 52
90.0
 71
2
 49
0.5
 62
256
  6
BYLAYER
 49
-0.5
 62
256
  6
BYLAYER
  0
LAYOUT
  5
28A
102
{ACAD_REACTORS
330
1A
102
}
100
AcDbPlotSettings
  1

  2
none_device
  4

  6

 40
0.0
 41
0.0
 42
0.0
 43
0.0
 44
210.0
 45
297.0
 46
0.0
 47
0.0
 48
0.0
 49
0.0
140
0.0
141
0.0
142
1.0
143
1.0
 70
1024
 72
1
 73
0
 74
0
  7

 75
0
147
1.0
148
0.0
149
0.0
100
AcDbLayout
  1
Model
 70
0
 71
0
 10
0.0
 20
0.0
 11
210.0
 21
297.0
 12
0.0
 22
0.0
 32
0.0
 14
0.0
 24
0.0
 34
0.0
 15
0.0
 25
0.0
 35
0.0
146
0.0
 13
0.0
 23
0.0
 33
0.0
 16
1.0
 26
0.0
 36
0.0
 17
0.0
 27
1.0
 37
0.0
 76
0
330
210
345
0
346
0
  0
LAYOUT
  5
28B
102
{ACAD_REACTORS
330
1A
102
}
100
AcDbPlotSettings
  1

  2
none_device
  4

  6

 40
0.0
 41
0.0
 42
0.0
 43
0.0
 44
210.0
 45
297.0
 46
0.0
 47
0.0
 48
0.0
 49
0.0
140
0.0
141
0.0
142
1.0
143
1.0
 70
0
 72
1
 73
0
 74
0
  7

 75
0
147
1.0
148
0.0
149
0.0
100
AcDbLayout
  1
Layout1
 70
0
 71
1
 10
0.0
 20
0.0
 11
210.0
 21
297.0
 12
0.0
 22
0.0
 32
0.0
 14
0.0
 24
0.0
 34
0.0
 15
0.0
 25
0.0
 35
0.0
146
0.0
 13
0.0
 23
0.0
 33
0.0
 16
1.0
 26
0.0
 36
0.0
 17
0.0
 27
1.0
 37
0.0
 76
0
330
211
345
0
346
0
  0
ENDSEC
  0
EOF
