999
DXF file: C:\Users\sesa63760\Dev\_Creo\CAD\MCADID0004816_3D-CAD\drw0001_5.dxf
999
Pro/ENGINEER 2019471 by Parametric Technology Corporation
  0
SECTION
  2
HEADER
  9
$ACADVER
  1
AC1024
  9
$DWGCODEPAGE
  3
ANSI_1252
  9
$EXTMAX
 10
57.3466295609
 20
81.1045189504
 30
0.0
  9
$EXTMIN
 10
0.0
 20
0.0
 30
0.0
  9
$LIMMIN
 10
0.0
 20
0.0
  9
$LIMMAX
 10
57.3466295609
 20
81.1045189504
  9
$VIEWCTR
 10
28.6733147805
 20
40.5522594752
  9
$VIEWSIZE
 40
81.1045189504
  9
$CLAYER
  8
0
  9
$LTSCALE
 40
5.2868130871
  9
$CELTYPE
  6
BYLAYER
  9
$DIMSCALE
 40
1.0
  9
$DIMASZ
 40
0.682697971
  9
$DIMEXO
 40
1.0
  9
$DIMDLI
 40
3.6527072238
  9
$DIMEXE
 40
1.0
  9
$DIMCEN
 40
0.8651148688
  9
$DIMLFAC
 40
1.0
  9
$DIMBLK
  1
_FILLED
  9
$DIMALT
 70
0
  9
$DIMALTF
 40
0.0393700787
  9
$DIMTXT
 40
0.9557771593
  9
$DIMTOL
 70
1
  9
$DIMLIM
 70
0
  9
$DIMTFAC
 40
1.0
  9
$DIMTP
 40
0.01
  9
$DIMTM
 40
0.01
  9
$DIMGAP
 40
0.625
  9
$DIMDSEP
 70
46
  9
$AUNITS
 70
0
  9
$PDMODE
 70
3
  9
$PDSIZE
 40
0.3125
  9
$HANDSEED
  5
2B0
  9
$TILEMODE
 70
1
  9
$MEASUREMENT
 70
1
  9
$INSUNITS
 70
4
  0
ENDSEC
  0
SECTION
  2
CLASSES
  0
CLASS
  1
ACDBDICTIONARYWDFLT
  2
AcDbDictionaryWithDefault
  3
AutoCAD 2000
 90
0
 91
1
280
0
281
0
  0
CLASS
  1
ACDBPLACEHOLDER
  2
AcDbPlaceHolder
  3
AutoCAD 2000
 90
0
 91
1
280
0
281
0
  0
CLASS
  1
LAYOUT
  2
AcDbLayout
  3
AutoCAD 2000
 90
0
 91
0
280
0
281
0
  0
ENDSEC
  0
SECTION
  2
TABLES
  0
TABLE
  2
VPORT
  5
8
100
AcDbSymbolTable
 70
2
  0
VPORT
  5
1F4
100
AcDbSymbolTableRecord
100
AcDbViewportTableRecord
  2
*ACTIVE
 70
0
 10
0.0
 20
0.0
 11
1.0
 21
1.0
 12
28.6733147805
 22
40.5522594752
 13
0.0
 23
0.0
 14
1.0
 24
1.0
 15
0.0
 25
0.0
 16
0.0
 26
0.0
 36
1.0
 17
0.0
 27
0.0
 37
0.0
 40
81.1045189504
 41
0.7070707071
 42
50.0
 43
0.0
 44
0.0
 50
0.0
 51
0.0
 71
0
 72
100
 73
1
 74
1
 75
0
 76
0
 77
0
 78
0
  0
ENDTAB
  0
TABLE
  2
LTYPE
  5
5
100
AcDbSymbolTable
 70
6
  0
LTYPE
  5
14
100
AcDbSymbolTableRecord
100
AcDbLinetypeTableRecord
  2
BYBLOCK
 70
0
  3

 72
65
 73
0
 40
0.0
  0
LTYPE
  5
15
100
AcDbSymbolTableRecord
100
AcDbLinetypeTableRecord
  2
BYLAYER
 70
0
  3

 72
65
 73
0
 40
0.0
  0
LTYPE
  5
16
100
AcDbSymbolTableRecord
100
AcDbLinetypeTableRecord
  2
CONTINUOUS
 70
64
  3
Solid line
 72
65
 73
0
 40
0.0
  0
LTYPE
  5
1F5
100
AcDbSymbolTableRecord
100
AcDbLinetypeTableRecord
  2
CENTER
 70
64
  3
____ _ ____ _ ____ _ ____ _ ____ _ ____ _ ____
 72
65
 73
4
 40
0.6
 49
0.375
 74
0
 49
-0.075
 74
0
 49
0.075
 74
0
 49
-0.075
 74
0
  0
LTYPE
  5
1F6
100
AcDbSymbolTableRecord
100
AcDbLinetypeTableRecord
  2
HIDDEN
 70
64
  3
- - - - - - - - - - - - - - - - - - - -
 72
65
 73
2
 40
0.2
 49
0.1
 74
0
 49
-0.1
 74
0
  0
LTYPE
  5
1F7
100
AcDbSymbolTableRecord
100
AcDbLinetypeTableRecord
  2
PHANTOM
 70
64
  3
_____ _ _ _____ _ _ _____ _ _ _____
 72
65
 73
6
 40
0.8
 49
0.45
 74
0
 49
-0.05
 74
0
 49
0.1
 74
0
 49
-0.05
 74
0
 49
0.1
 74
0
 49
-0.05
 74
0
  0
LTYPE
  5
1F8
100
AcDbSymbolTableRecord
100
AcDbLinetypeTableRecord
  2
DOT
 70
64
  3
. . . . . . . . . . . . . . . . . . . .
 72
65
 73
2
 40
0.2
 49
0.1
 74
0
 49
-0.1
 74
0
  0
LTYPE
  5
1F9
100
AcDbSymbolTableRecord
100
AcDbLinetypeTableRecord
  2
DASHED
 70
64
  3
- - - - - - - - - - - - - - - - - - - -
 72
65
 73
2
 40
0.2
 49
0.1
 74
0
 49
-0.1
 74
0
  0
ENDTAB
  0
TABLE
  2
LAYER
  5
2
100
AcDbSymbolTable
 70
36
  0
LAYER
  5
10
100
AcDbSymbolTableRecord
100
AcDbLayerTableRecord
  2
0
 70
0
 62
7
  6
CONTINUOUS
370
-3
390
F
  0
LAYER
  5
1FA
100
AcDbSymbolTableRecord
100
AcDbLayerTableRecord
  2
DEFAULT_1
 70
0
 62
7
  6
CENTER
370
-3
390
F
  0
LAYER
  5
1FB
100
AcDbSymbolTableRecord
100
AcDbLayerTableRecord
  2
DEFAULT_2
 70
0
 62
7
  6
HIDDEN
370
-3
390
F
  0
LAYER
  5
1FC
100
AcDbSymbolTableRecord
100
AcDbLayerTableRecord
  2
DEFAULT_3
 70
0
 62
7
  6
PHANTOM
370
-3
390
F
  0
LAYER
  5
1FD
100
AcDbSymbolTableRecord
100
AcDbLayerTableRecord
  2
00_COMPONENTS
 70
0
 62
7
  6
CONTINUOUS
370
-3
390
F
  0
LAYER
  5
1FE
100
AcDbSymbolTableRecord
100
AcDbLayerTableRecord
  2
01_1_DEFAULT_DATUMS
 70
0
 62
7
  6
CONTINUOUS
370
-3
390
F
  0
LAYER
  5
1FF
100
AcDbSymbolTableRecord
100
AcDbLayerTableRecord
  2
01_PLANES
 70
0
 62
7
  6
CONTINUOUS
370
-3
390
F
  0
LAYER
  5
200
100
AcDbSymbolTableRecord
100
AcDbLayerTableRecord
  2
02_COORD_SYS
 70
0
 62
7
  6
CONTINUOUS
370
-3
390
F
  0
LAYER
  5
201
100
AcDbSymbolTableRecord
100
AcDbLayerTableRecord
  2
03_AXES
 70
0
 62
7
  6
CONTINUOUS
370
-3
390
F
  0
LAYER
  5
202
100
AcDbSymbolTableRecord
100
AcDbLayerTableRecord
  2
04_POINTS
 70
0
 62
7
  6
CONTINUOUS
370
-3
390
F
  0
LAYER
  5
203
100
AcDbSymbolTableRecord
100
AcDbLayerTableRecord
  2
05_CURVES
 70
0
 62
7
  6
CONTINUOUS
370
-3
390
F
  0
LAYER
  5
204
100
AcDbSymbolTableRecord
100
AcDbLayerTableRecord
  2
06_SURFS
 70
0
 62
7
  6
CONTINUOUS
370
-3
390
F
  0
LAYER
  5
205
100
AcDbSymbolTableRecord
100
AcDbLayerTableRecord
  2
07_COSMETICS
 70
0
 62
7
  6
CONTINUOUS
370
-3
390
F
  0
LAYER
  5
206
100
AcDbSymbolTableRecord
100
AcDbLayerTableRecord
  2
10_NOTES
 70
0
 62
7
  6
CONTINUOUS
370
-3
390
F
  0
LAYER
  5
207
100
AcDbSymbolTableRecord
100
AcDbLayerTableRecord
  2
11_NOTES_PUB
 70
0
 62
7
  6
CONTINUOUS
370
-3
390
F
  0
LAYER
  5
208
100
AcDbSymbolTableRecord
100
AcDbLayerTableRecord
  2
13_REF_GTOL
 70
0
 62
7
  6
CONTINUOUS
370
-3
390
F
  0
LAYER
  5
209
100
AcDbSymbolTableRecord
100
AcDbLayerTableRecord
  2
16_MISC
 70
0
 62
7
  6
CONTINUOUS
370
-3
390
F
  0
LAYER
  5
20A
100
AcDbSymbolTableRecord
100
AcDbLayerTableRecord
  2
17_NO_PRINT
 70
0
 62
7
  6
CONTINUOUS
370
-3
390
F
  0
LAYER
  5
20B
100
AcDbSymbolTableRecord
100
AcDbLayerTableRecord
  2
18_DATUM_CAMS_JOINTS
 70
0
 62
7
  6
CONTINUOUS
370
-3
390
F
  0
LAYER
  5
20C
100
AcDbSymbolTableRecord
100
AcDbLayerTableRecord
  2
19_DATUM_FUNCTIONAL
 70
0
 62
7
  6
CONTINUOUS
370
-3
390
F
  0
LAYER
  5
20D
100
AcDbSymbolTableRecord
100
AcDbLayerTableRecord
  2
20_DATUM_KINEMATIC_SCHEME
 70
0
 62
7
  6
CONTINUOUS
370
-3
390
F
  0
ENDTAB
  0
TABLE
  2
STYLE
  5
3
100
AcDbSymbolTable
 70
1
  0
STYLE
  5
11
100
AcDbSymbolTableRecord
100
AcDbTextStyleTableRecord
  2
STANDARD
 70
0
 40
0.0
 41
1.0
 50
0.0
 71
0
 42
0.2
  3
ARIAL.TTF
  4

  0
STYLE
  5
20E
100
AcDbSymbolTableRecord
100
AcDbTextStyleTableRecord
  2
TEXTSTYLE_1
 70
0
 40
0.0
 41
0.8
 50
0.0
 71
0
 42
0.2
  3
gdt
  4

  0
ENDTAB
  0
TABLE
  2
VIEW
  5
6
100
AcDbSymbolTable
 70
0
  0
ENDTAB
  0
TABLE
  2
UCS
  5
7
100
AcDbSymbolTable
 70
0
  0
ENDTAB
  0
TABLE
  2
APPID
  5
9
100
AcDbSymbolTable
 70
1
  0
APPID
  5
20F
100
AcDbSymbolTableRecord
100
AcDbRegAppTableRecord
  2
ACAD
 70
0
  0
ENDTAB
  0
TABLE
  2
BLOCK_RECORD
  5
1
100
AcDbSymbolTable
 70
0
  0
BLOCK_RECORD
  5
210
100
AcDbSymbolTableRecord
100
AcDbBlockTableRecord
  2
*Model_Space
  0
BLOCK_RECORD
  5
211
100
AcDbSymbolTableRecord
100
AcDbBlockTableRecord
  2
*Paper_Space
  0
BLOCK_RECORD
  5
212
100
AcDbSymbolTableRecord
100
AcDbBlockTableRecord
  2
_FILLED
  0
ENDTAB
  0
TABLE
  2
DIMSTYLE
  5
A
100
AcDbSymbolTable
 70
1
100
AcDbDimStyleTable
 71
0
  0
DIMSTYLE
105
213
100
AcDbSymbolTableRecord
100
AcDbDimStyleTableRecord
  2
STANDARD
 70
0
  3

  4

 40
1.0
 41
0.682697971
 42
1.0
 43
0.38
 44
1.0
 45
0.0
 46
0.0
 47
0.01
 48
0.01
140
0.9557771593
141
0.09
142
0.0
143
25.4
144
1.0
145
0.0
146
1.0
147
0.625
 71
1
 72
0
 73
0
 74
0
 75
0
 76
0
 77
1
 78
8
 79
2
170
0
171
1
172
0
173
0
174
0
175
0
176
0
177
0
178
0
270
2
179
2
271
2
272
2
273
2
274
2
275
0
280
0
281
0
282
0
283
1
284
8
285
0
286
0
287
3
288
0
340
11
278
46
341
212
342
212
343
212
344
212
  0
ENDTAB
  0
ENDSEC
  0
SECTION
  2
BLOCKS
  0
BLOCK
  5
20
100
AcDbEntity
  8
0
100
AcDbBlockBegin
  2
*Model_Space
 70
0
 10
0.0
 20
0.0
 30
0.0
  3
*Model_Space
  1

  0
ENDBLK
  5
21
100
AcDbEntity
  8
0
100
AcDbBlockEnd
  0
BLOCK
  5
1C
100
AcDbEntity
  8
0
100
AcDbBlockBegin
  2
*Paper_Space
 70
0
 10
0.0
 20
0.0
 30
0.0
  3
*Paper_Space
  1

  0
ENDBLK
  5
1D
100
AcDbEntity
  8
0
100
AcDbBlockEnd
  0
BLOCK
  5
214
100
AcDbEntity
  8
0
100
AcDbBlockBegin
  2
_FILLED
 70
64
 10
0.0
 20
0.0
  3
_FILLED
  1

  0
SOLID
  5
215
100
AcDbEntity
  8
0
  6
BYBLOCK
 62
0
100
AcDbTrace
 10
0.0
 20
0.0
 11
-1.0
 21
0.25
 12
-1.0
 22
-0.25
 13
-1.0
 23
-0.25
  0
ENDBLK
  5
216
100
AcDbEntity
  8
0
  6
BYBLOCK
 62
0
100
AcDbBlockEnd
  0
ENDSEC
  0
SECTION
  2
ENTITIES
  0
LINE
  5
217
100
AcDbEntity
  8
0
100
AcDbLine
 62
7
  6
BYLAYER
 10
13.5174838767
 20
6.6015306122
 11
45.4174838767
 21
6.6015306122
  0
LINE
  5
218
100
AcDbEntity
  8
0
100
AcDbLine
 62
7
  6
BYLAYER
 10
21.9599577989
 20
71.6015306122
 11
22.3174838767
 21
71.9015306122
  0
LINE
  5
219
100
AcDbEntity
  8
0
100
AcDbLine
 62
7
  6
BYLAYER
 10
22.3174838767
 20
71.601019174
 11
21.9599577989
 21
71.3041843534
  0
LINE
  5
21A
100
AcDbEntity
  8
0
100
AcDbLine
 62
7
  6
BYLAYER
 10
21.9599577989
 20
71.5826489855
 11
22.3174838767
 21
71.8769844975
  0
LINE
  5
21B
100
AcDbEntity
  8
0
100
AcDbLine
 62
7
  6
BYLAYER
 10
13.5174838767
 20
16.1015306122
 11
45.4174838767
 21
16.1015306122
  0
LINE
  5
21C
100
AcDbEntity
  8
0
100
AcDbLine
 62
7
  6
BYLAYER
 10
13.5174838767
 20
16.1015306122
 11
13.5174838767
 21
6.6015306122
  0
LINE
  5
21D
100
AcDbEntity
  8
0
100
AcDbLine
 62
7
  6
BYLAYER
 10
14.4674838767
 20
29.7015306122
 11
14.4674838767
 21
72.9015306122
  0
LINE
  5
21E
100
AcDbEntity
  8
0
100
AcDbLine
 62
7
  6
BYLAYER
 10
14.5674838767
 20
29.5015306405
 11
14.5674838767
 21
29.6015306122
  0
LINE
  5
21F
100
AcDbEntity
  8
0
100
AcDbLine
 62
7
  6
BYLAYER
 10
39.3674838639
 20
24.5015306122
 11
19.5674838894
 21
24.5015306122
  0
LINE
  5
220
100
AcDbEntity
  8
0
100
AcDbLine
 62
7
  6
BYLAYER
 10
39.3674838613
 20
25.0015306124
 11
19.567483892
 21
25.0015306124
  0
LINE
  5
221
100
AcDbEntity
  8
0
100
AcDbLine
 62
7
  6
BYLAYER
 10
15.0674838769
 20
29.5015306292
 11
15.0674838767
 21
29.6015306122
  0
LINE
  5
222
100
AcDbEntity
  8
0
100
AcDbLine
 62
7
  6
BYLAYER
 10
15.4424838767
 20
26.6758871098
 11
15.4424838767
 21
16.1015306122
  0
LINE
  5
223
100
AcDbEntity
  8
0
100
AcDbLine
 62
7
  6
BYLAYER
 10
15.5174838767
 20
29.7015306122
 11
15.5174838767
 21
29.6015306122
  0
LINE
  5
224
100
AcDbEntity
  8
0
100
AcDbLine
 62
7
  6
BYLAYER
 10
17.2174838767
 20
29.6015306122
 11
17.2174838767
 21
29.7015306122
  0
LINE
  5
225
100
AcDbEntity
  8
0
100
AcDbLine
 62
7
  6
BYLAYER
 10
19.2174838767
 20
72.7015306122
 11
19.2174838767
 21
71.0515306122
  0
LINE
  5
226
100
AcDbEntity
  8
0
100
AcDbLine
 62
7
  6
BYLAYER
 10
19.3174838767
 20
71.4187004683
 11
19.3174838767
 21
72.1459358259
  0
LINE
  5
227
100
AcDbEntity
  8
0
100
AcDbLine
 62
7
  6
BYLAYER
 10
19.3356016361
 20
72.1713200095
 11
19.3356016361
 21
71.5826489855
  0
LINE
  5
228
100
AcDbEntity
  8
0
100
AcDbLine
 62
7
  6
BYLAYER
 10
19.4639304861
 20
72.2014543128
 11
19.4639304861
 21
71.6014829251
  0
LINE
  5
229
100
AcDbEntity
  8
0
100
AcDbLine
 62
7
  6
BYLAYER
 10
19.4755616774
 20
71.6015306122
 11
19.4755616774
 21
72.2015306122
  0
LINE
  5
22A
100
AcDbEntity
  8
0
100
AcDbLine
 62
7
  6
BYLAYER
 10
19.5674838894
 20
24.5015306124
 11
19.567483892
 21
25.0015306124
  0
LINE
  5
22B
100
AcDbEntity
  8
0
100
AcDbLine
 62
7
  6
BYLAYER
 10
14.5674838771
 20
29.5015306405
 11
15.0674838769
 21
29.5015306292
  0
LINE
  5
22C
100
AcDbEntity
  8
0
100
AcDbLine
 62
7
  6
BYLAYER
 10
44.3674838765
 20
29.5015306264
 11
43.8674838764
 21
29.5015306292
  0
LINE
  5
22D
100
AcDbEntity
  8
0
100
AcDbLine
 62
7
  6
BYLAYER
 10
14.5674838767
 20
29.6015306122
 11
44.3674838767
 21
29.6015306122
  0
LINE
  5
22E
100
AcDbEntity
  8
0
100
AcDbLine
 62
7
  6
BYLAYER
 10
14.4674838767
 20
29.7015306122
 11
44.4674838767
 21
29.7015306122
  0
LINE
  5
22F
100
AcDbEntity
  8
0
100
AcDbLine
 62
7
  6
BYLAYER
 10
20.3174838767
 20
72.2015306122
 11
20.3174838767
 21
71.6015306122
  0
LINE
  5
230
100
AcDbEntity
  8
0
100
AcDbLine
 62
7
  6
BYLAYER
 10
20.4174838767
 20
6.6015306122
 11
20.4174838767
 21
16.1015306122
  0
LINE
  5
231
100
AcDbEntity
  8
0
100
AcDbLine
 62
7
  6
BYLAYER
 10
20.4924838767
 20
16.1015306122
 11
20.4924838767
 21
24.5015306122
  0
LINE
  5
232
100
AcDbEntity
  8
0
100
AcDbLine
 62
7
  6
BYLAYER
 10
20.5674838767
 20
71.176623497
 11
20.5674838767
 21
71.5348880162
  0
LINE
  5
233
100
AcDbEntity
  8
0
100
AcDbLine
 62
7
  6
BYLAYER
 10
20.6260625206
 20
71.5300509184
 11
20.6260625206
 21
71.2059488878
  0
LINE
  5
234
100
AcDbEntity
  8
0
100
AcDbLine
 62
7
  6
BYLAYER
 10
20.6924838767
 20
71.0515306122
 11
20.6924838767
 21
71.1455337619
  0
LINE
  5
235
100
AcDbEntity
  8
0
100
AcDbLine
 62
7
  6
BYLAYER
 10
20.7174838767
 20
71.0515306122
 11
20.7174838767
 21
71.1455337619
  0
LINE
  5
236
100
AcDbEntity
  8
0
100
AcDbLine
 62
7
  6
BYLAYER
 10
20.7174838767
 20
71.2227657771
 11
20.7174838767
 21
71.499828847
  0
LINE
  5
237
100
AcDbEntity
  8
0
100
AcDbLine
 62
7
  6
BYLAYER
 10
21.4674838767
 20
74.7015306122
 11
21.4674838767
 21
74.1947734925
  0
LINE
  5
238
100
AcDbEntity
  8
0
100
AcDbLine
 62
7
  6
BYLAYER
 10
21.9599577989
 20
71.5826489855
 11
21.9599577989
 21
71.3041725373
  0
LINE
  5
239
100
AcDbEntity
  8
0
100
AcDbLine
 62
7
  6
BYLAYER
 10
20.6881950331
 20
71.5119199563
 11
20.6880337836
 21
71.2137608585
  0
LINE
  5
23A
100
AcDbEntity
  8
0
100
AcDbLine
 62
7
  6
BYLAYER
 10
22.3174838767
 20
71.8769844975
 11
22.3174838767
 21
71.601019174
  0
LINE
  5
23B
100
AcDbEntity
  8
0
100
AcDbLine
 62
7
  6
BYLAYER
 10
22.3174838767
 20
71.9015306122
 11
22.3174838767
 21
72.2015306122
  0
LINE
  5
23C
100
AcDbEntity
  8
0
100
AcDbLine
 62
7
  6
BYLAYER
 10
22.4924838767
 20
70.7015306122
 11
22.4924838767
 21
71.0515306122
  0
LINE
  5
23D
100
AcDbEntity
  8
0
100
AcDbLine
 62
7
  6
BYLAYER
 10
23.7674838767
 20
70.9516434551
 11
23.7674838767
 21
71.5550528882
  0
LINE
  5
23E
100
AcDbEntity
  8
0
100
AcDbLine
 62
7
  6
BYLAYER
 10
23.9674838767
 20
70.7015306122
 11
23.9674838767
 21
72.7015306122
  0
LINE
  5
23F
100
AcDbEntity
  8
0
100
AcDbLine
 62
7
  6
BYLAYER
 10
28.5744553217
 20
74.6952408681
 11
28.5744553217
 21
74.7015306122
  0
LINE
  5
240
100
AcDbEntity
  8
0
100
AcDbLine
 62
7
  6
BYLAYER
 10
30.3605124316
 20
74.7015306122
 11
30.3605124316
 21
74.6952408681
  0
LINE
  5
241
100
AcDbEntity
  8
0
100
AcDbLine
 62
7
  6
BYLAYER
 10
34.9674838767
 20
72.7015306122
 11
34.9674838767
 21
70.7015306122
  0
LINE
  5
242
100
AcDbEntity
  8
0
100
AcDbLine
 62
7
  6
BYLAYER
 10
35.1674838767
 20
70.9516434704
 11
35.1674838767
 21
71.5550528882
  0
LINE
  5
243
100
AcDbEntity
  8
0
100
AcDbLine
 62
7
  6
BYLAYER
 10
36.4424838767
 20
70.7015306122
 11
36.4424838767
 21
71.0515306122
  0
LINE
  5
244
100
AcDbEntity
  8
0
100
AcDbLine
 62
7
  6
BYLAYER
 10
36.6174838767
 20
71.601019174
 11
36.6174838767
 21
72.2015306122
  0
LINE
  5
245
100
AcDbEntity
  8
0
100
AcDbLine
 62
7
  6
BYLAYER
 10
36.9750099544
 20
71.3040955648
 11
36.9750099544
 21
71.6015306122
  0
LINE
  5
246
100
AcDbEntity
  8
0
100
AcDbLine
 62
7
  6
BYLAYER
 10
37.4674838767
 20
74.1947734925
 11
37.4674838767
 21
74.7015306122
  0
LINE
  5
247
100
AcDbEntity
  8
0
100
AcDbLine
 62
7
  6
BYLAYER
 10
38.2174838767
 20
71.499828847
 11
38.2174838767
 21
71.2227657771
  0
LINE
  5
248
100
AcDbEntity
  8
0
100
AcDbLine
 62
7
  6
BYLAYER
 10
38.2174838767
 20
71.1455337619
 11
38.2174838767
 21
71.0515306122
  0
LINE
  5
249
100
AcDbEntity
  8
0
100
AcDbLine
 62
7
  6
BYLAYER
 10
38.2424838767
 20
71.0515306122
 11
38.2424838767
 21
71.1455337619
  0
LINE
  5
24A
100
AcDbEntity
  8
0
100
AcDbLine
 62
7
  6
BYLAYER
 10
38.2467731988
 20
71.5119089607
 11
38.2467731988
 21
71.2137536088
  0
LINE
  5
24B
100
AcDbEntity
  8
0
100
AcDbLine
 62
7
  6
BYLAYER
 10
38.3089052329
 20
71.5300505065
 11
38.3089052329
 21
71.2059358354
  0
LINE
  5
24C
100
AcDbEntity
  8
0
100
AcDbLine
 62
7
  6
BYLAYER
 10
38.3674838767
 20
71.5349089341
 11
38.3674838767
 21
71.1885361337
  0
LINE
  5
24D
100
AcDbEntity
  8
0
100
AcDbLine
 62
7
  6
BYLAYER
 10
38.4424838767
 20
24.5015306122
 11
38.4424838767
 21
16.1015306122
  0
LINE
  5
24E
100
AcDbEntity
  8
0
100
AcDbLine
 62
7
  6
BYLAYER
 10
38.5174838767
 20
16.1015306122
 11
38.5174838767
 21
6.6015306122
  0
LINE
  5
24F
100
AcDbEntity
  8
0
100
AcDbLine
 62
7
  6
BYLAYER
 10
38.6174838767
 20
72.2015306122
 11
38.6174838767
 21
71.6015306122
  0
LINE
  5
250
100
AcDbEntity
  8
0
100
AcDbLine
 62
7
  6
BYLAYER
 10
39.3674838639
 20
24.5015306124
 11
39.3674838613
 21
25.0015306124
  0
LINE
  5
251
100
AcDbEntity
  8
0
100
AcDbLine
 62
7
  6
BYLAYER
 10
39.459406076
 20
72.2015306122
 11
39.459406076
 21
71.6015306122
  0
LINE
  5
252
100
AcDbEntity
  8
0
100
AcDbLine
 62
7
  6
BYLAYER
 10
39.4710372673
 20
72.2014543128
 11
39.4710372673
 21
71.6014829251
  0
LINE
  5
253
100
AcDbEntity
  8
0
100
AcDbLine
 62
7
  6
BYLAYER
 10
39.5993661172
 20
72.1713200095
 11
39.5993661172
 21
71.5826489855
  0
LINE
  5
254
100
AcDbEntity
  8
0
100
AcDbLine
 62
7
  6
BYLAYER
 10
39.6174838767
 20
72.1459358259
 11
39.6174838767
 21
71.4187004683
  0
LINE
  5
255
100
AcDbEntity
  8
0
100
AcDbLine
 62
7
  6
BYLAYER
 10
39.7174838767
 20
71.0515306122
 11
39.7174838767
 21
72.7015306122
  0
LINE
  5
256
100
AcDbEntity
  8
0
100
AcDbLine
 62
7
  6
BYLAYER
 10
41.7174838767
 20
29.7015306122
 11
41.7174838767
 21
29.6015306122
  0
LINE
  5
257
100
AcDbEntity
  8
0
100
AcDbLine
 62
7
  6
BYLAYER
 10
43.4174838767
 20
29.6015306122
 11
43.4174838767
 21
29.7015306122
  0
LINE
  5
258
100
AcDbEntity
  8
0
100
AcDbLine
 62
7
  6
BYLAYER
 10
43.4924838767
 20
16.1015306122
 11
43.4924838767
 21
26.6758871098
  0
LINE
  5
259
100
AcDbEntity
  8
0
100
AcDbLine
 62
7
  6
BYLAYER
 10
43.8674838767
 20
29.6015306122
 11
43.8674838764
 21
29.5015306292
  0
LINE
  5
25A
100
AcDbEntity
  8
0
100
AcDbLine
 62
7
  6
BYLAYER
 10
44.3674838767
 20
29.6015306122
 11
44.3674838767
 21
29.5015306264
  0
LINE
  5
25B
100
AcDbEntity
  8
0
100
AcDbLine
 62
7
  6
BYLAYER
 10
44.4674838767
 20
29.7015306122
 11
44.4674838767
 21
72.9015306122
  0
LINE
  5
25C
100
AcDbEntity
  8
0
100
AcDbLine
 62
7
  6
BYLAYER
 10
45.4174838767
 20
6.6015306122
 11
45.4174838767
 21
16.1015306122
  0
LINE
  5
25D
100
AcDbEntity
  8
0
100
AcDbLine
 62
7
  6
BYLAYER
 10
38.2467731986
 20
71.153311637
 11
38.3089052329
 21
71.1602716802
  0
LINE
  5
25E
100
AcDbEntity
  8
0
100
AcDbLine
 62
7
  6
BYLAYER
 10
22.4924838767
 20
70.7015306122
 11
23.9674838767
 21
70.7015306122
  0
LINE
  5
25F
100
AcDbEntity
  8
0
100
AcDbLine
 62
7
  6
BYLAYER
 10
34.9674838767
 20
70.7015306122
 11
36.4424838767
 21
70.7015306122
  0
LINE
  5
260
100
AcDbEntity
  8
0
100
AcDbLine
 62
7
  6
BYLAYER
 10
36.4424838767
 20
70.9515306122
 11
35.2399039772
 21
70.9515306122
  0
LINE
  5
261
100
AcDbEntity
  8
0
100
AcDbLine
 62
7
  6
BYLAYER
 10
23.6950637761
 20
70.9515306122
 11
22.4924838767
 21
70.9515306122
  0
LINE
  5
262
100
AcDbEntity
  8
0
100
AcDbLine
 62
7
  6
BYLAYER
 10
19.2174838767
 20
71.0515306122
 11
22.4924838767
 21
71.0515306122
  0
LINE
  5
263
100
AcDbEntity
  8
0
100
AcDbLine
 62
7
  6
BYLAYER
 10
36.4424838767
 20
71.0515306122
 11
39.7174838767
 21
71.0515306122
  0
LINE
  5
264
100
AcDbEntity
  8
0
100
AcDbLine
 62
7
  6
BYLAYER
 10
20.6260625204
 20
71.1602716802
 11
20.6881945548
 21
71.153311637
  0
LINE
  5
265
100
AcDbEntity
  8
0
100
AcDbLine
 62
7
  6
BYLAYER
 10
36.6174838767
 20
71.8769844975
 11
36.9750099544
 21
71.5826489855
  0
LINE
  5
266
100
AcDbEntity
  8
0
100
AcDbLine
 62
7
  6
BYLAYER
 10
36.9750099544
 20
71.3041843534
 11
36.6174838767
 21
71.601019174
  0
LINE
  5
267
100
AcDbEntity
  8
0
100
AcDbLine
 62
7
  6
BYLAYER
 10
36.6174838767
 20
71.9015306122
 11
36.9750099544
 21
71.6015306122
  0
LINE
  5
268
100
AcDbEntity
  8
0
100
AcDbLine
 62
7
  6
BYLAYER
 10
20.6881945548
 20
71.2137405594
 11
20.6260625204
 21
71.2059358354
  0
LINE
  5
269
100
AcDbEntity
  8
0
100
AcDbLine
 62
7
  6
BYLAYER
 10
39.5993661172
 20
71.5826489855
 11
36.9750099544
 21
71.5826489855
  0
LINE
  5
26A
100
AcDbEntity
  8
0
100
AcDbLine
 62
7
  6
BYLAYER
 10
21.9599577989
 20
71.5826489855
 11
19.3356016361
 21
71.5826489855
  0
LINE
  5
26B
100
AcDbEntity
  8
0
100
AcDbLine
 62
7
  6
BYLAYER
 10
19.4755616774
 20
71.6015306122
 11
21.9599577989
 21
71.6015306122
  0
LINE
  5
26C
100
AcDbEntity
  8
0
100
AcDbLine
 62
7
  6
BYLAYER
 10
36.9750099544
 20
71.6015306122
 11
39.459406076
 21
71.6015306122
  0
LINE
  5
26D
100
AcDbEntity
  8
0
100
AcDbLine
 62
7
  6
BYLAYER
 10
36.6174838767
 20
72.1713200095
 11
34.9674838767
 21
72.1713200095
  0
LINE
  5
26E
100
AcDbEntity
  8
0
100
AcDbLine
 62
7
  6
BYLAYER
 10
23.9674838767
 20
72.1713200095
 11
22.3174838767
 21
72.1713200095
  0
LINE
  5
26F
100
AcDbEntity
  8
0
100
AcDbLine
 62
7
  6
BYLAYER
 10
19.2174838767
 20
72.2015306122
 11
19.4639304861
 21
72.2015306122
  0
LINE
  5
270
100
AcDbEntity
  8
0
100
AcDbLine
 62
7
  6
BYLAYER
 10
19.4755616774
 20
72.2015306122
 11
23.9674838767
 21
72.2015306122
  0
LINE
  5
271
100
AcDbEntity
  8
0
100
AcDbLine
 62
7
  6
BYLAYER
 10
34.9674838767
 20
72.2015306122
 11
39.459406076
 21
72.2015306122
  0
LINE
  5
272
100
AcDbEntity
  8
0
100
AcDbLine
 62
7
  6
BYLAYER
 10
39.4710372673
 20
72.2015306122
 11
39.7174838767
 21
72.2015306122
  0
LINE
  5
273
100
AcDbEntity
  8
0
100
AcDbLine
 62
7
  6
BYLAYER
 10
19.2174838767
 20
72.7015306122
 11
23.9674838767
 21
72.7015306122
  0
LINE
  5
274
100
AcDbEntity
  8
0
100
AcDbLine
 62
7
  6
BYLAYER
 10
34.9674838767
 20
72.7015306122
 11
39.7174838767
 21
72.7015306122
  0
LINE
  5
275
100
AcDbEntity
  8
0
100
AcDbLine
 62
7
  6
BYLAYER
 10
38.3089052329
 20
71.2059358354
 11
38.2467731985
 21
71.2137405594
  0
LINE
  5
276
100
AcDbEntity
  8
0
100
AcDbLine
 62
7
  6
BYLAYER
 10
21.4674838767
 20
74.7015306122
 11
37.4674838767
 21
74.7015306122
  0
ARC
  5
277
100
AcDbEntity
  8
0
100
AcDbCircle
 62
7
  6
BYLAYER
 10
49.4078832548
 20
171.9422716141
 40
101.0001906634
100
AcDbArc
 50
263.810017815
 51
264.4373295891
  0
ARC
  5
278
100
AcDbEntity
  8
0
100
AcDbCircle
 62
7
  6
BYLAYER
 10
9.5329106734
 20
171.8856641443
 40
100.9432850147
100
AcDbArc
 50
275.5624935892
 51
276.1901590068
  0
ARC
  5
279
100
AcDbEntity
  8
0
100
AcDbCircle
 62
7
  6
BYLAYER
 10
29.4674838767
 20
11.3015306122
 40
63.4
100
AcDbArc
 50
90.8070734904
 51
103.6855468253
  0
ARC
  5
27A
100
AcDbEntity
  8
0
100
AcDbCircle
 62
7
  6
BYLAYER
 10
29.4674838767
 20
11.3015306122
 40
63.4
100
AcDbArc
 50
76.3144531747
 51
89.1929265096
  0
ARC
  5
27B
100
AcDbEntity
  8
0
100
AcDbCircle
 62
7
  6
BYLAYER
 10
23.6966387448
 20
94.1264301696
 40
23.1748963403
100
AcDbArc
 50
269.996109949
 51
270.1751487882
  0
ARC
  5
27C
100
AcDbEntity
  8
0
100
AcDbCircle
 62
7
  6
BYLAYER
 10
35.2378460141
 20
93.8032522413
 40
22.8517184511
100
AcDbArc
 50
269.8235851922
 51
270.0051560704
  0
ARC
  5
27D
100
AcDbEntity
  8
0
100
AcDbCircle
 62
7
  6
BYLAYER
 10
39.3674838767
 20
29.5015306122
 40
5.0
100
AcDbArc
 50
270.0
 51
0.0000002425
  0
ARC
  5
27E
100
AcDbEntity
  8
0
100
AcDbCircle
 62
7
  6
BYLAYER
 10
19.5674838767
 20
29.5015306122
 40
5.0
100
AcDbArc
 50
179.9999997575
 51
270.0
  0
ARC
  5
27F
100
AcDbEntity
  8
0
100
AcDbCircle
 62
7
  6
BYLAYER
 10
39.3674838767
 20
29.5015306122
 40
4.5
100
AcDbArc
 50
270.0000000189
 51
0.0000001821
  0
ARC
  5
280
100
AcDbEntity
  8
0
100
AcDbCircle
 62
7
  6
BYLAYER
 10
19.5674838767
 20
29.5015306122
 40
4.5
100
AcDbArc
 50
180.000000034
 51
270.0000001762
  0
CIRCLE
  5
281
100
AcDbEntity
  8
0
100
AcDbCircle
 62
7
  6
BYLAYER
 10
19.4674838767
 20
64.7015306122
 40
4.075
  0
CIRCLE
  5
282
100
AcDbEntity
  8
0
100
AcDbCircle
 62
7
  6
BYLAYER
 10
39.4674838767
 20
64.7015306122
 40
4.075
  0
CIRCLE
  5
283
100
AcDbEntity
  8
0
100
AcDbCircle
 62
7
  6
BYLAYER
 10
19.4674838767
 20
64.7015306122
 40
2.125
  0
CIRCLE
  5
284
100
AcDbEntity
  8
0
100
AcDbCircle
 62
7
  6
BYLAYER
 10
39.4674838767
 20
64.7015306122
 40
2.125
  0
ARC
  5
285
100
AcDbEntity
  8
0
100
AcDbCircle
 62
7
  6
BYLAYER
 10
19.4755617998
 20
70.18301815
 40
1.4185124622
100
AcDbArc
 50
90.0000049442
 51
90.4698109252
  0
ARC
  5
286
100
AcDbEntity
  8
0
100
AcDbCircle
 62
7
  6
BYLAYER
 10
39.4594059536
 20
70.18301815
 40
1.4185124622
100
AcDbArc
 50
89.5301890748
 51
89.9999950558
  0
CIRCLE
  5
287
100
AcDbEntity
  8
0
100
AcDbCircle
 62
7
  6
BYLAYER
 10
16.3674838767
 20
32.6015306122
 40
1.0
  0
CIRCLE
  5
288
100
AcDbEntity
  8
0
100
AcDbCircle
 62
7
  6
BYLAYER
 10
42.5674838767
 20
32.6015306122
 40
1.0
  0
ARC
  5
289
100
AcDbEntity
  8
0
100
AcDbCircle
 62
7
  6
BYLAYER
 10
39.459405763
 20
71.3149080309
 40
0.8866225814
100
AcDbArc
 50
89.2483214023
 51
89.999979777
  0
ARC
  5
28A
100
AcDbEntity
  8
0
100
AcDbCircle
 62
7
  6
BYLAYER
 10
19.4755619903
 20
71.3149080309
 40
0.8866225814
100
AcDbArc
 50
90.000020223
 51
90.7516785977
  0
ARC
  5
28B
100
AcDbEntity
  8
0
100
AcDbCircle
 62
7
  6
BYLAYER
 10
38.2463626096
 20
70.7033683229
 40
0.5064441572
100
AcDbArc
 50
81.9722303323
 51
82.9062273298
  0
SPLINE
  5
28C
100
AcDbEntity
  8
0
100
AcDbSpline
 62
7
  6
BYLAYER
 70
0
 71
3
 72
10
 73
6
 74
0
 42
0.0000001
 43
0.0000001
 44
0.0000000001
 40
0.0
 40
0.0
 40
0.0
 40
0.0
 40
0.3306655845
 40
0.6021674069
 40
1.0
 40
1.0
 40
1.0
 40
1.0
 10
39.4710372673
 20
72.2014543128
 30
0.0
 10
39.485784561
 20
72.2012608326
 30
0.0
 10
39.5127484303
 20
72.2002108219
 30
0.0
 10
39.5566162382
 20
72.1942372915
 30
0.0
 10
39.5864289587
 20
72.1834646913
 30
0.0
 10
39.5993661172
 20
72.1713200095
 30
0.0
  0
SPLINE
  5
28D
100
AcDbEntity
  8
0
100
AcDbSpline
 62
7
  6
BYLAYER
 70
0
 71
3
 72
19
 73
15
 74
0
 42
0.0000001
 43
0.0000001
 44
0.0000000001
 40
0.0
 40
0.0
 40
0.0
 40
0.0
 40
0.2098667844
 40
0.3955014907
 40
0.5558642486
 40
0.6903504342
 40
0.747867255
 40
0.7990208963
 40
0.8440400176
 40
0.8832917422
 40
0.9173638103
 40
0.9471703519
 40
0.9740894636
 40
1.0
 40
1.0
 40
1.0
 40
1.0
 10
35.1674838767
 20
71.5550528882
 30
0.0
 10
35.2762003272
 20
71.5571437613
 30
0.0
 10
35.4810523272
 20
71.5631181353
 30
0.0
 10
35.7686284878
 20
71.5800236977
 30
0.0
 10
36.0163720876
 20
71.6052866868
 30
0.0
 10
36.1967414989
 20
71.6349866135
 30
0.0
 10
36.3191755875
 20
71.6649575037
 30
0.0
 10
36.3952322915
 20
71.6887683185
 30
0.0
 10
36.4603699354
 20
71.7151152004
 30
0.0
 10
36.5145812992
 20
71.7440888825
 30
0.0
 10
36.557843832
 20
71.7758493657
 30
0.0
 10
36.5900655345
 20
71.8106414845
 30
0.0
 10
36.6108056463
 20
71.8486865475
 30
0.0
 10
36.616444494
 20
71.8759543616
 30
0.0
 10
36.6172347944
 20
71.8893558931
 30
0.0
  0
SPLINE
  5
28E
100
AcDbEntity
  8
0
100
AcDbSpline
 62
7
  6
BYLAYER
 70
0
 71
3
 72
10
 73
6
 74
0
 42
0.0000001
 43
0.0000001
 44
0.0000000001
 40
0.0
 40
0.0
 40
0.0
 40
0.0
 40
0.3140762263
 40
0.5788610311
 40
1.0
 40
1.0
 40
1.0
 40
1.0
 10
39.5993661172
 20
72.1713200095
 30
0.0
 10
39.6021287473
 20
72.1693994666
 30
0.0
 10
39.6070419527
 20
72.1655530395
 30
0.0
 10
39.6143490267
 20
72.1577508739
 30
0.0
 10
39.6174784712
 20
72.1504473675
 30
0.0
 10
39.6174838767
 20
72.1459358259
 30
0.0
  0
SPLINE
  5
28F
100
AcDbEntity
  8
0
100
AcDbSpline
 62
7
  6
BYLAYER
 70
0
 71
3
 72
11
 73
7
 74
0
 42
0.0000001
 43
0.0000001
 44
0.0000000001
 40
0.0
 40
0.0
 40
0.0
 40
0.0
 40
0.0935264363
 40
0.2904835772
 40
0.5940981924
 40
1.0
 40
1.0
 40
1.0
 40
1.0
 10
38.2174838767
 20
71.1455337619
 30
0.0
 10
38.2174539929
 20
71.1464962727
 30
0.0
 10
38.2206250944
 20
71.148504592
 30
0.0
 10
38.2260442998
 20
71.1500153288
 30
0.0
 10
38.2354427883
 20
71.1519595954
 30
0.0
 10
38.2426187753
 20
71.1528565055
 30
0.0
 10
38.2467731986
 20
71.153311637
 30
0.0
  0
SPLINE
  5
290
100
AcDbEntity
  8
0
100
AcDbSpline
 62
7
  6
BYLAYER
 70
0
 71
3
 72
12
 73
8
 74
0
 42
0.0000001
 43
0.0000001
 44
0.0000000001
 40
0.0
 40
0.0
 40
0.0
 40
0.0
 40
0.4034445978
 40
0.7064674228
 40
0.8182254408
 40
0.9033260204
 40
1.0
 40
1.0
 40
1.0
 40
1.0
 10
38.3089052329
 20
71.1602716802
 30
0.0
 10
38.3172070891
 20
71.1612095153
 30
0.0
 10
38.3317439939
 20
71.1631735776
 30
0.0
 10
38.3482959569
 20
71.1664137174
 30
0.0
 10
38.3583373148
 20
71.1695587373
 30
0.0
 10
38.3636343109
 20
71.1718060386
 30
0.0
 10
38.3674838767
 20
71.1745503305
 30
0.0
 10
38.3674838767
 20
71.1765522863
 30
0.0
  0
SPLINE
  5
291
100
AcDbEntity
  8
0
100
AcDbSpline
 62
7
  6
BYLAYER
 70
0
 71
3
 72
16
 73
12
 74
0
 42
0.0000001
 43
0.0000001
 44
0.0000000001
 40
0.0
 40
0.0
 40
0.0
 40
0.0
 40
0.0375314384
 40
0.0682173849
 40
0.1079118811
 40
0.1564277396
 40
0.2132013923
 40
0.3485157603
 40
0.673912231
 40
0.8428355525
 40
1.0
 40
1.0
 40
1.0
 40
1.0
 10
38.2174838767
 20
71.499828847
 30
0.0
 10
38.2174838767
 20
71.503687893
 30
0.0
 10
38.2236454227
 20
71.509491663
 30
0.0
 10
38.233196704
 20
71.514313703
 30
0.0
 10
38.2448119841
 20
71.5186200698
 30
0.0
 10
38.2591613719
 20
71.5225200529
 30
0.0
 10
38.283398464
 20
71.5276366999
 30
0.0
 10
38.3361541254
 20
71.5348388876
 30
0.0
 10
38.4009808924
 20
71.5377368296
 30
0.0
 10
38.4679580146
 20
71.5361527202
 30
0.0
 10
38.5014181632
 20
71.5336540111
 30
0.0
 10
38.5174838767
 20
71.5319116868
 30
0.0
  0
SPLINE
  5
292
100
AcDbEntity
  8
0
100
AcDbSpline
 62
7
  6
BYLAYER
 70
0
 71
3
 72
17
 73
13
 74
0
 42
0.0000001
 43
0.0000001
 44
0.0000000001
 40
0.0
 40
0.0
 40
0.0
 40
0.0
 40
0.0067867099
 40
0.0201396434
 40
0.0408497386
 40
0.0690873265
 40
0.1483275068
 40
0.2580060356
 40
0.3981062087
 40
0.5685689473
 40
0.7692629162
 40
1.0
 40
1.0
 40
1.0
 40
1.0
 10
35.1674838767
 20
70.9529266063
 30
0.0
 10
35.1674838766
 20
70.9532715595
 30
0.0
 10
35.1666247212
 20
70.9540927138
 30
0.0
 10
35.1648779207
 20
70.9550287814
 30
0.0
 10
35.1619198115
 20
70.9562972901
 30
0.0
 10
35.1558019602
 20
70.9584620683
 30
0.0
 10
35.1451996946
 20
70.9616203585
 30
0.0
 10
35.1290460867
 20
70.9659120325
 30
0.0
 10
35.1082993648
 20
70.9710139613
 30
0.0
 10
35.0829915615
 20
70.9769076708
 30
0.0
 10
35.0531329671
 20
70.9835741501
 30
0.0
 10
35.0316970633
 20
70.9881969983
 30
0.0
 10
35.0202258759
 20
70.990637136
 30
0.0
  0
SPLINE
  5
293
100
AcDbEntity
  8
0
100
AcDbSpline
 62
7
  6
BYLAYER
 70
0
 71
3
 72
11
 73
7
 74
0
 42
0.0000001
 43
0.0000001
 44
0.0000000001
 40
0.0
 40
0.0
 40
0.0
 40
0.0
 40
0.4059018224
 40
0.7095164382
 40
0.9064735641
 40
1.0
 40
1.0
 40
1.0
 40
1.0
 10
20.6881945548
 20
71.153311637
 30
0.0
 10
20.6923489782
 20
71.1528565055
 30
0.0
 10
20.6995249654
 20
71.1519595954
 30
0.0
 10
20.7089234538
 20
71.1500153288
 30
0.0
 10
20.7143426591
 20
71.1485045919
 30
0.0
 10
20.7175137604
 20
71.1464962727
 30
0.0
 10
20.7174838767
 20
71.1455337619
 30
0.0
  0
SPLINE
  5
294
100
AcDbEntity
  8
0
100
AcDbSpline
 62
7
  6
BYLAYER
 70
0
 71
3
 72
12
 73
8
 74
0
 42
0.0000001
 43
0.0000001
 44
0.0000000001
 40
0.0
 40
0.0
 40
0.0
 40
0.0
 40
0.1159983716
 40
0.2037815454
 40
0.314956025
 40
0.6090188111
 40
1.0
 40
1.0
 40
1.0
 40
1.0
 10
20.5674838767
 20
71.1766234968
 30
0.0
 10
20.5674519161
 20
71.1754460877
 30
0.0
 10
20.5689700129
 20
71.1735577326
 30
0.0
 10
20.5716112947
 20
71.1718896097
 30
0.0
 10
20.5761669839
 20
71.1697094198
 30
0.0
 10
20.5838864187
 20
71.1672911302
 30
0.0
 10
20.5906781579
 20
71.1657487817
 30
0.0
 10
20.5945714082
 20
71.1649718893
 30
0.0
  0
SPLINE
  5
295
100
AcDbEntity
  8
0
100
AcDbSpline
 62
7
  6
BYLAYER
 70
0
 71
3
 72
9
 73
5
 74
0
 42
0.0000001
 43
0.0000001
 44
0.0000000001
 40
0.0
 40
0.0
 40
0.0
 40
0.0
 40
0.218239619
 40
1.0
 40
1.0
 40
1.0
 40
1.0
 10
20.5945714082
 20
71.1649718893
 30
0.0
 10
20.5968432589
 20
71.1645185449
 30
0.0
 10
20.60728494
 20
71.1626007203
 30
0.0
 10
20.617816484
 20
71.1612032095
 30
0.0
 10
20.6260625204
 20
71.1602716802
 30
0.0
  0
SPLINE
  5
296
100
AcDbEntity
  8
0
100
AcDbSpline
 62
7
  6
BYLAYER
 70
0
 71
3
 72
16
 73
12
 74
0
 42
0.0000001
 43
0.0000001
 44
0.0000000001
 40
0.0
 40
0.0
 40
0.0
 40
0.0
 40
0.1571710532
 40
0.3261033515
 40
0.6514933828
 40
0.7868025683
 40
0.8435744603
 40
0.8920887979
 40
0.9317823759
 40
0.9624681974
 40
1.0
 40
1.0
 40
1.0
 40
1.0
 10
20.4174838767
 20
71.5319116868
 30
0.0
 10
20.433550264
 20
71.5336540841
 30
0.0
 10
20.4670120321
 20
71.5361525828
 30
0.0
 10
20.5339900718
 20
71.5377371048
 30
0.0
 10
20.5988165719
 20
71.5348387069
 30
0.0
 10
20.6515708029
 20
71.5276363566
 30
0.0
 10
20.6758070448
 20
71.5225199104
 30
0.0
 10
20.6901560091
 20
71.5186200202
 30
0.0
 10
20.7017710295
 20
71.5143137033
 30
0.0
 10
20.7113222002
 20
71.5094916451
 30
0.0
 10
20.7174838767
 20
71.5036879301
 30
0.0
 10
20.7174838767
 20
71.499828847
 30
0.0
  0
SPLINE
  5
297
100
AcDbEntity
  8
0
100
AcDbSpline
 62
7
  6
BYLAYER
 70
0
 71
3
 72
17
 73
13
 74
0
 42
0.0000001
 43
0.0000001
 44
0.0000000001
 40
0.0
 40
0.0
 40
0.0
 40
0.0
 40
0.2307356731
 40
0.4314265127
 40
0.6018871447
 40
0.7419873901
 40
0.8516674437
 40
0.9309097672
 40
0.959148399
 40
0.979859384
 40
0.9932129575
 40
1.0
 40
1.0
 40
1.0
 40
1.0
 10
23.9147300497
 20
70.9906354753
 30
0.0
 10
23.9032598456
 20
70.9881954673
 30
0.0
 10
23.8818258844
 20
70.9835728391
 30
0.0
 10
23.8519700345
 20
70.9769065964
 30
0.0
 10
23.8266645335
 20
70.9710131178
 30
0.0
 10
23.8059195004
 20
70.9659114276
 30
0.0
 10
23.7897669942
 20
70.9616199589
 30
0.0
 10
23.7791653341
 20
70.9584618267
 30
0.0
 10
23.7730477652
 20
70.9562971553
 30
0.0
 10
23.7700897605
 20
70.9550287015
 30
0.0
 10
23.7683430147
 20
70.9540926744
 30
0.0
 10
23.7674838767
 20
70.9532715493
 30
0.0
 10
23.7674838767
 20
70.9529266062
 30
0.0
  0
SPLINE
  5
298
100
AcDbEntity
  8
0
100
AcDbSpline
 62
7
  6
BYLAYER
 70
0
 71
3
 72
9
 73
5
 74
0
 42
0.0000001
 43
0.0000001
 44
0.0000000001
 40
0.0
 40
0.0
 40
0.0
 40
0.0
 40
0.2278570106
 40
1.0
 40
1.0
 40
1.0
 40
1.0
 10
19.3356016361
 20
72.1713200095
 30
0.0
 10
19.3375662235
 20
72.1731642544
 30
0.0
 10
19.3467345481
 20
72.1806821216
 30
0.0
 10
19.3576539019
 20
72.185822123
 30
0.0
 10
19.3662644569
 20
72.188861456
 30
0.0
  0
SPLINE
  5
299
100
AcDbEntity
  8
0
100
AcDbSpline
 62
7
  6
BYLAYER
 70
0
 71
3
 72
9
 73
5
 74
0
 42
0.0000001
 43
0.0000001
 44
0.0000000001
 40
0.0
 40
0.0
 40
0.0
 40
0.0
 40
0.4349518992
 40
1.0
 40
1.0
 40
1.0
 40
1.0
 10
19.3662644569
 20
72.188861456
 30
0.0
 10
19.3797680744
 20
72.1936279304
 30
0.0
 10
19.4124221513
 20
72.1997899303
 30
0.0
 10
19.4453286992
 20
72.2012102628
 30
0.0
 10
19.4639304861
 20
72.2014543128
 30
0.0
  0
SPLINE
  5
29A
100
AcDbEntity
  8
0
100
AcDbSpline
 62
7
  6
BYLAYER
 70
0
 71
3
 72
19
 73
15
 74
0
 42
0.0000001
 43
0.0000001
 44
0.0000000001
 40
0.0
 40
0.0
 40
0.0
 40
0.0
 40
0.0259105398
 40
0.052829649
 40
0.0826361852
 40
0.1167082476
 40
0.155959967
 40
0.2009790838
 40
0.2521327207
 40
0.3096495365
 40
0.4441357196
 40
0.6044984822
 40
0.7901331964
 40
1.0
 40
1.0
 40
1.0
 40
1.0
 10
22.3177329508
 20
71.8893560299
 30
0.0
 10
22.3185232385
 20
71.8759544947
 30
0.0
 10
22.3241620598
 20
71.848686672
 30
0.0
 10
22.3449021411
 20
71.8106415897
 30
0.0
 10
22.3771238212
 20
71.7758494532
 30
0.0
 10
22.4203863376
 20
71.7440889532
 30
0.0
 10
22.4745976918
 20
71.7151152579
 30
0.0
 10
22.5397353305
 20
71.6887683658
 30
0.0
 10
22.6157920315
 20
71.6649575424
 30
0.0
 10
22.7382261215
 20
71.634986637
 30
0.0
 10
22.9185955465
 20
71.6052867013
 30
0.0
 10
23.1663391726
 20
71.5800237045
 30
0.0
 10
23.4539153747
 20
71.563118136
 30
0.0
 10
23.6587674067
 20
71.5571437616
 30
0.0
 10
23.7674838767
 20
71.5550528882
 30
0.0
  0
SPLINE
  5
29B
100
AcDbEntity
  8
0
100
AcDbSpline
 62
7
  6
BYLAYER
 70
0
 71
3
 72
10
 73
6
 74
0
 42
0.0000001
 43
0.0000001
 44
0.0000000001
 40
0.0
 40
0.0
 40
0.0
 40
0.0
 40
0.4211389689
 40
0.6859237737
 40
1.0
 40
1.0
 40
1.0
 40
1.0
 10
19.3174838767
 20
72.1459358259
 30
0.0
 10
19.3174892821
 20
72.1504473675
 30
0.0
 10
19.3206187267
 20
72.1577508739
 30
0.0
 10
19.3279258007
 20
72.1655530395
 30
0.0
 10
19.332839006
 20
72.1693994666
 30
0.0
 10
19.3356016361
 20
72.1713200095
 30
0.0
  0
SPLINE
  5
29C
100
AcDbEntity
  8
0
100
AcDbSpline
 62
7
  6
BYLAYER
 70
0
 71
3
 72
14
 73
10
 74
0
 42
0.0000001
 43
0.0000001
 44
0.0000000001
 40
0.0
 40
0.0
 40
0.0
 40
0.0
 40
0.3441374756
 40
0.4871442984
 40
0.6124347503
 40
0.7222306244
 40
0.8199340406
 40
0.9104493346
 40
1.0
 40
1.0
 40
1.0
 40
1.0
 10
22.3036013645
 20
71.0514996745
 30
0.0
 10
22.2528409071
 20
71.0642539954
 30
0.0
 10
22.1815477367
 20
71.0857145314
 30
0.0
 10
22.0968287392
 20
71.1247729015
 30
0.0
 10
22.0476374564
 20
71.1548813088
 30
0.0
 10
22.0088268747
 20
71.1877648735
 30
0.0
 10
21.9805757507
 20
71.2237107947
 30
0.0
 10
21.9634023572
 20
71.2628533233
 30
0.0
 10
21.9597817575
 20
71.2904138714
 30
0.0
 10
21.9597807442
 20
71.3040332216
 30
0.0
  0
SPLINE
  5
29D
100
AcDbEntity
  8
0
100
AcDbSpline
 62
7
  6
BYLAYER
 70
0
 71
3
 72
17
 73
13
 74
0
 42
0.0000001
 43
0.0000001
 44
0.0000000001
 40
0.0
 40
0.0
 40
0.0
 40
0.0
 40
0.0067017954
 40
0.0200071158
 40
0.0406907126
 40
0.0689162161
 40
0.1481630605
 40
0.2578758807
 40
0.3980259888
 40
0.5685424412
 40
0.7692715872
 40
1.0
 40
1.0
 40
1.0
 40
1.0
 10
23.7674838767
 20
71.5529015472
 30
0.0
 10
23.7674838767
 20
71.5532440368
 30
0.0
 10
23.7683569122
 20
71.5540550629
 30
0.0
 10
23.7701098859
 20
71.5549755982
 30
0.0
 10
23.7730914363
 20
71.5562282635
 30
0.0
 10
23.7792530587
 20
71.558365308
 30
0.0
 10
23.7899319786
 20
71.5614847418
 30
0.0
 10
23.8061977588
 20
71.5657234846
 30
0.0
 10
23.8270866615
 20
71.5707630686
 30
0.0
 10
23.8525633718
 20
71.5765844267
 30
0.0
 10
23.8826149311
 20
71.583167882
 30
0.0
 10
23.9041865391
 20
71.5877327308
 30
0.0
 10
23.9157289596
 20
71.5901419831
 30
0.0
  0
SPLINE
  5
29E
100
AcDbEntity
  8
0
100
AcDbSpline
 62
7
  6
BYLAYER
 70
0
 71
3
 72
19
 73
15
 74
0
 42
0.0000001
 43
0.0000001
 44
0.0000000001
 40
0.0
 40
0.0
 40
0.0
 40
0.0
 40
0.2113860733
 40
0.3978457427
 40
0.5584579943
 40
0.6925835546
 40
0.749741611
 40
0.8004633594
 40
0.8449972512
 40
0.8837414946
 40
0.917336399
 40
0.9468010194
 40
0.9736741552
 40
1.0
 40
1.0
 40
1.0
 40
1.0
 10
35.1675012378
 20
71.2550167742
 30
0.0
 10
35.2777033628
 20
71.2571801289
 30
0.0
 10
35.4850835642
 20
71.2633440523
 30
0.0
 10
35.7758285383
 20
71.2807907782
 30
0.0
 10
36.0254782344
 20
71.3067432413
 30
0.0
 10
36.2066296925
 20
71.3375347844
 30
0.0
 10
36.3289645735
 20
71.3687762558
 30
0.0
 10
36.4045598295
 20
71.3935360284
 30
0.0
 10
36.4689701329
 20
71.4208947541
 30
0.0
 10
36.5221900438
 20
71.4509264024
 30
0.0
 10
36.5642084391
 20
71.4837901625
 30
0.0
 10
36.59488363
 20
71.5198147475
 30
0.0
 10
36.6136367439
 20
71.5592522823
 30
0.0
 10
36.6176098913
 20
71.5871943111
 30
0.0
 10
36.6176098961
 20
71.6009214358
 30
0.0
  0
SPLINE
  5
29F
100
AcDbEntity
  8
0
100
AcDbSpline
 62
7
  6
BYLAYER
 70
0
 71
3
 72
10
 73
6
 74
0
 42
0.0000001
 43
0.0000001
 44
0.0000000001
 40
0.0
 40
0.0
 40
0.0
 40
0.0
 40
0.6064646637
 40
0.8308769229
 40
1.0
 40
1.0
 40
1.0
 40
1.0
 10
20.6260625204
 20
71.2059358354
 30
0.0
 10
20.6154529687
 20
71.204613144
 30
0.0
 10
20.6009319057
 20
71.2024610273
 30
0.0
 10
20.583790861
 20
71.1983238985
 30
0.0
 10
20.5771892109
 20
71.1961086954
 30
0.0
 10
20.5744699246
 20
71.1948859205
 30
0.0
  0
SPLINE
  5
2A0
100
AcDbEntity
  8
0
100
AcDbSpline
 62
7
  6
BYLAYER
 70
0
 71
3
 72
9
 73
5
 74
0
 42
0.0000001
 43
0.0000001
 44
0.0000000001
 40
0.0
 40
0.0
 40
0.0
 40
0.0
 40
0.6267223422
 40
1.0
 40
1.0
 40
1.0
 40
1.0
 10
20.5744699246
 20
71.1948859205
 30
0.0
 10
20.572623033
 20
71.1940554332
 30
0.0
 10
20.5697489293
 20
71.192712738
 30
0.0
 10
20.5674838767
 20
71.1898153188
 30
0.0
 10
20.5674838767
 20
71.1886092093
 30
0.0
  0
SPLINE
  5
2A1
100
AcDbEntity
  8
0
100
AcDbSpline
 62
7
  6
BYLAYER
 70
0
 71
3
 72
11
 73
7
 74
0
 42
0.0000001
 43
0.0000001
 44
0.0000000001
 40
0.0
 40
0.0
 40
0.0
 40
0.0
 40
0.1010859435
 40
0.2987619557
 40
0.5995288356
 40
1.0
 40
1.0
 40
1.0
 40
1.0
 10
20.7174838767
 20
71.2227657771
 30
0.0
 10
20.7175116605
 20
71.2217082803
 30
0.0
 10
20.7145527681
 20
71.2193303872
 30
0.0
 10
20.7089033224
 20
71.2175224646
 30
0.0
 10
20.6995727214
 20
71.2152910512
 30
0.0
 10
20.6923531999
 20
71.2142596766
 30
0.0
 10
20.6881945548
 20
71.2137405594
 30
0.0
  0
SPLINE
  5
2A2
100
AcDbEntity
  8
0
100
AcDbSpline
 62
7
  6
BYLAYER
 70
0
 71
3
 72
10
 73
6
 74
0
 42
0.0000001
 43
0.0000001
 44
0.0000000001
 40
0.0
 40
0.0
 40
0.0
 40
0.0
 40
0.31277008
 40
0.5771633526
 40
1.0
 40
1.0
 40
1.0
 40
1.0
 10
19.3356016361
 20
71.5826489855
 30
0.0
 10
19.3328350549
 20
71.5806897181
 30
0.0
 10
19.3279139301
 20
71.5767654446
 30
0.0
 10
19.3205943954
 20
71.5687983638
 30
0.0
 10
19.3174877018
 20
71.5613839
 30
0.0
 10
19.3174838767
 20
71.5568008107
 30
0.0
  0
SPLINE
  5
2A3
100
AcDbEntity
  8
0
100
AcDbSpline
 62
7
  6
BYLAYER
 70
0
 71
3
 72
17
 73
13
 74
0
 42
0.0000001
 43
0.0000001
 44
0.0000000001
 40
0.0
 40
0.0
 40
0.0
 40
0.0
 40
0.2307296391
 40
0.4314618107
 40
0.6019804281
 40
0.7421305737
 40
0.8518419754
 40
0.9310867568
 40
0.959311238
 40
0.9799939485
 40
0.9932986058
 40
1.0
 40
1.0
 40
1.0
 40
1.0
 10
35.0192206537
 20
71.5901449856
 30
0.0
 10
35.0307645362
 20
71.587735512
 30
0.0
 10
35.0523389845
 20
71.5831702688
 30
0.0
 10
35.082394548
 20
71.5765863247
 30
0.0
 10
35.1078746436
 20
71.5707645172
 30
0.0
 10
35.1287661357
 20
71.565724509
 30
0.0
 10
35.1450337235
 20
71.5614854095
 30
0.0
 10
35.1557137163
 20
71.5583657112
 30
0.0
 10
35.1618758909
 20
71.5562284915
 30
0.0
 10
35.164857679
 20
71.554975733
 30
0.0
 10
35.1666107775
 20
71.5540551337
 30
0.0
 10
35.1674838767
 20
71.5532440574
 30
0.0
 10
35.1674838767
 20
71.5529015472
 30
0.0
  0
SPLINE
  5
2A4
100
AcDbEntity
  8
0
100
AcDbSpline
 62
7
  6
BYLAYER
 70
0
 71
3
 72
11
 73
7
 74
0
 42
0.0000001
 43
0.0000001
 44
0.0000000001
 40
0.0
 40
0.0
 40
0.0
 40
0.0
 40
0.2981956031
 40
0.5650764668
 40
0.7993627133
 40
1.0
 40
1.0
 40
1.0
 40
1.0
 10
23.6950282434
 20
70.9514938922
 30
0.0
 10
23.5752336245
 20
70.9515058808
 30
0.0
 10
23.3482166235
 20
70.9533363957
 30
0.0
 10
23.0272019824
 20
70.9635182778
 30
0.0
 10
22.7458118911
 20
70.9819299477
 30
0.0
 10
22.5720843612
 20
71.0018088136
 30
0.0
 10
22.4924412027
 20
71.0142066635
 30
0.0
  0
SPLINE
  5
2A5
100
AcDbEntity
  8
0
100
AcDbSpline
 62
7
  6
BYLAYER
 70
0
 71
3
 72
19
 73
15
 74
0
 42
0.0000001
 43
0.0000001
 44
0.0000000001
 40
0.0
 40
0.0
 40
0.0
 40
0.0
 40
0.0263258452
 40
0.0531989815
 40
0.0826636022
 40
0.1162585068
 40
0.1550027503
 40
0.1995366422
 40
0.2502583905
 40
0.3074164469
 40
0.4415420068
 40
0.6021542581
 40
0.788613927
 40
1.0
 40
1.0
 40
1.0
 40
1.0
 10
22.317357857
 20
71.6009214356
 30
0.0
 10
22.3173578618
 20
71.5871943112
 30
0.0
 10
22.321331009
 20
71.559252283
 30
0.0
 10
22.340084122
 20
71.519814749
 30
0.0
 10
22.3707593116
 20
71.4837901646
 30
0.0
 10
22.4127777051
 20
71.450926405
 30
0.0
 10
22.4659976137
 20
71.4208947571
 30
0.0
 10
22.5304079144
 20
71.3935360316
 30
0.0
 10
22.6060031671
 20
71.3687762593
 30
0.0
 10
22.7283380428
 20
71.337534788
 30
0.0
 10
22.9094894932
 20
71.3067432445
 30
0.0
 10
23.1591391789
 20
71.2807907809
 30
0.0
 10
23.449884141
 20
71.2633440542
 30
0.0
 10
23.6572643339
 20
71.2571801302
 30
0.0
 10
23.7674664545
 20
71.2550167752
 30
0.0
  0
SPLINE
  5
2A6
100
AcDbEntity
  8
0
100
AcDbSpline
 62
7
  6
BYLAYER
 70
0
 71
3
 72
12
 73
8
 74
0
 42
0.0000001
 43
0.0000001
 44
0.0000000001
 40
0.0
 40
0.0
 40
0.0
 40
0.0
 40
0.1178700026
 40
0.206121905
 40
0.3174310514
 40
0.6108380944
 40
1.0
 40
1.0
 40
1.0
 40
1.0
 10
38.3674838767
 20
71.1885361338
 30
0.0
 10
38.3675158036
 20
71.189742921
 30
0.0
 10
38.3660136205
 20
71.1916857578
 30
0.0
 10
38.3633608651
 20
71.1934412464
 30
0.0
 10
38.3588115171
 20
71.1957279653
 30
0.0
 10
38.3510923412
 20
71.1983035517
 30
0.0
 10
38.3442925686
 20
71.1999635265
 30
0.0
 10
38.3403963451
 20
71.2008035361
 30
0.0
  0
SPLINE
  5
2A7
100
AcDbEntity
  8
0
100
AcDbSpline
 62
7
  6
BYLAYER
 70
0
 71
3
 72
9
 73
5
 74
0
 42
0.0000001
 43
0.0000001
 44
0.0000000001
 40
0.0
 40
0.0
 40
0.0
 40
0.0
 40
0.2243731649
 40
1.0
 40
1.0
 40
1.0
 40
1.0
 10
38.3403963451
 20
71.2008035361
 30
0.0
 10
38.3386666224
 20
71.2011764571
 30
0.0
 10
38.3309374775
 20
71.2027456407
 30
0.0
 10
38.3231457443
 20
71.203994015
 30
0.0
 10
38.3170890757
 20
71.2048495801
 30
0.0
  0
SPLINE
  5
2A8
100
AcDbEntity
  8
0
100
AcDbSpline
 62
7
  6
BYLAYER
 70
0
 71
3
 72
11
 73
7
 74
0
 42
0.0000001
 43
0.0000001
 44
0.0000000001
 40
0.0
 40
0.0
 40
0.0
 40
0.0
 40
0.400471179
 40
0.7012380597
 40
0.8989140571
 40
1.0
 40
1.0
 40
1.0
 40
1.0
 10
38.2467731985
 20
71.2137405594
 30
0.0
 10
38.2426145533
 20
71.2142596766
 30
0.0
 10
38.2353950317
 20
71.2152910511
 30
0.0
 10
38.2260644307
 20
71.2175224646
 30
0.0
 10
38.2204149852
 20
71.2193303875
 30
0.0
 10
38.2174560928
 20
71.2217082803
 30
0.0
 10
38.2174838767
 20
71.2227657771
 30
0.0
  0
SPLINE
  5
2A9
100
AcDbEntity
  8
0
100
AcDbSpline
 62
7
  6
BYLAYER
 70
0
 71
3
 72
11
 73
7
 74
0
 42
0.0000001
 43
0.0000001
 44
0.0000000001
 40
0.0
 40
0.0
 40
0.0
 40
0.0
 40
0.315292385
 40
0.5901268569
 40
0.8191766632
 40
1.0
 40
1.0
 40
1.0
 40
1.0
 10
19.4639304861
 20
71.6014829251
 30
0.0
 10
19.4501909977
 20
71.6013702638
 30
0.0
 10
19.4244774914
 20
71.6007797564
 30
0.0
 10
19.3888429685
 20
71.5979585952
 30
0.0
 10
19.3594384902
 20
71.5927518268
 30
0.0
 10
19.3423981878
 20
71.586636625
 30
0.0
 10
19.3356016361
 20
71.5826489855
 30
0.0
  0
SPLINE
  5
2AA
100
AcDbEntity
  8
0
100
AcDbSpline
 62
7
  6
BYLAYER
 70
0
 71
3
 72
10
 73
6
 74
0
 42
0.0000001
 43
0.0000001
 44
0.0000000001
 40
0.0
 40
0.0
 40
0.0
 40
0.0
 40
0.4228366474
 40
0.68722992
 40
1.0
 40
1.0
 40
1.0
 40
1.0
 10
39.6174838767
 20
71.5568008107
 30
0.0
 10
39.6174800516
 20
71.5613839
 30
0.0
 10
39.614373358
 20
71.5687983638
 30
0.0
 10
39.6070538232
 20
71.5767654446
 30
0.0
 10
39.6021326985
 20
71.5806897181
 30
0.0
 10
39.5993661172
 20
71.5826489855
 30
0.0
  0
SPLINE
  5
2AB
100
AcDbEntity
  8
0
100
AcDbSpline
 62
7
  6
BYLAYER
 70
0
 71
3
 72
14
 73
10
 74
0
 42
0.0000001
 43
0.0000001
 44
0.0000000001
 40
0.0
 40
0.0
 40
0.0
 40
0.0
 40
0.0895410601
 40
0.1800571235
 40
0.2777670319
 40
0.3875705889
 40
0.5128666822
 40
0.6558751382
 40
1.0
 40
1.0
 40
1.0
 40
1.0
 10
36.9751429842
 20
71.3039928525
 30
0.0
 10
36.9751354061
 20
71.2903773977
 30
0.0
 10
36.97150215
 20
71.2628250299
 30
0.0
 10
36.9543162711
 20
71.2236971762
 30
0.0
 10
36.926058944
 20
71.1877641347
 30
0.0
 10
36.8872474493
 20
71.1548914223
 30
0.0
 10
36.8380601051
 20
71.1247922325
 30
0.0
 10
36.7533550325
 20
71.0857456694
 30
0.0
 10
36.6820763203
 20
71.0642898259
 30
0.0
 10
36.6313268226
 20
71.0515381212
 30
0.0
  0
SPLINE
  5
2AC
100
AcDbEntity
  8
0
100
AcDbSpline
 62
7
  6
BYLAYER
 70
0
 71
3
 72
11
 73
7
 74
0
 42
0.0000001
 43
0.0000001
 44
0.0000000001
 40
0.0
 40
0.0
 40
0.0
 40
0.0
 40
0.2006372867
 40
0.4349235332
 40
0.7018043969
 40
1.0
 40
1.0
 40
1.0
 40
1.0
 10
36.4425265507
 20
71.0142066635
 30
0.0
 10
36.3628833921
 20
71.0018088136
 30
0.0
 10
36.1891558622
 20
70.9819299477
 30
0.0
 10
35.907765771
 20
70.9635182778
 30
0.0
 10
35.5867511298
 20
70.9533363957
 30
0.0
 10
35.3597341288
 20
70.9515058808
 30
0.0
 10
35.23993951
 20
70.9514938922
 30
0.0
  0
SPLINE
  5
2AD
100
AcDbEntity
  8
0
100
AcDbSpline
 62
7
  6
BYLAYER
 70
0
 71
3
 72
11
 73
7
 74
0
 42
0.0000001
 43
0.0000001
 44
0.0000000001
 40
0.0
 40
0.0
 40
0.0
 40
0.0
 40
0.1808313619
 40
0.4098824403
 40
0.6847083655
 40
1.0
 40
1.0
 40
1.0
 40
1.0
 10
39.5993661172
 20
71.5826489855
 30
0.0
 10
39.5925692662
 20
71.5866368006
 30
0.0
 10
39.5755283469
 20
71.5927515278
 30
0.0
 10
39.5461240287
 20
71.5979589466
 30
0.0
 10
39.5104897943
 20
71.6007797737
 30
0.0
 10
39.4847767183
 20
71.6013702641
 30
0.0
 10
39.4710372673
 20
71.6014829251
 30
0.0
  0
ENDSEC
  0
SECTION
  2
OBJECTS
  0
DICTIONARY
  5
C
100
AcDbDictionary
280
0
281
1
  3
ACAD_GROUP
350
D
  3
ACAD_MLINESTYLE
350
17
  3
ACAD_LAYOUT
350
1A
  3
ACAD_PLOTSETTINGS
350
19
  3
ACAD_PLOTSTYLENAME
350
E
  0
DICTIONARY
  5
D
102
{ACAD_REACTORS
330
C
102
}
100
AcDbDictionary
280
0
281
1
  0
ACDBDICTIONARYWDFLT
  5
E
102
{ACAD_REACTORS
330
C
102
}
100
AcDbDictionary
281
1
  3
Normal
350
F
100
AcDbDictionaryWithDefault
340
F
  0
DICTIONARY
  5
17
102
{ACAD_REACTORS
330
C
102
}
100
AcDbDictionary
280
0
281
1
  3
Standard
350
18
  0
DICTIONARY
  5
19
102
{ACAD_REACTORS
330
C
102
}
100
AcDbDictionary
281
1
  0
DICTIONARY
  5
1A
102
{ACAD_REACTORS
330
C
102
}
100
AcDbDictionary
281
1
  3
Model
350
2AE
  3
Layout1
350
2AF
  0
ACDBPLACEHOLDER
  5
F
102
{ACAD_REACTORS
330
E
102
}
  0
MLINESTYLE
  5
18
102
{ACAD_REACTORS
330
17
102
}
100
AcDbMlineStyle
  2
STANDARD
 70
0
  3

 62
256
 51
90.0
 52
90.0
 71
2
 49
0.5
 62
256
  6
BYLAYER
 49
-0.5
 62
256
  6
BYLAYER
  0
LAYOUT
  5
2AE
102
{ACAD_REACTORS
330
1A
102
}
100
AcDbPlotSettings
  1

  2
none_device
  4

  6

 40
0.0
 41
0.0
 42
0.0
 43
0.0
 44
210.0
 45
297.0
 46
0.0
 47
0.0
 48
0.0
 49
0.0
140
0.0
141
0.0
142
1.0
143
1.0
 70
1024
 72
1
 73
0
 74
0
  7

 75
0
147
1.0
148
0.0
149
0.0
100
AcDbLayout
  1
Model
 70
0
 71
0
 10
0.0
 20
0.0
 11
210.0
 21
297.0
 12
0.0
 22
0.0
 32
0.0
 14
0.0
 24
0.0
 34
0.0
 15
0.0
 25
0.0
 35
0.0
146
0.0
 13
0.0
 23
0.0
 33
0.0
 16
1.0
 26
0.0
 36
0.0
 17
0.0
 27
1.0
 37
0.0
 76
0
330
210
345
0
346
0
  0
LAYOUT
  5
2AF
102
{ACAD_REACTORS
330
1A
102
}
100
AcDbPlotSettings
  1

  2
none_device
  4

  6

 40
0.0
 41
0.0
 42
0.0
 43
0.0
 44
210.0
 45
297.0
 46
0.0
 47
0.0
 48
0.0
 49
0.0
140
0.0
141
0.0
142
1.0
143
1.0
 70
0
 72
1
 73
0
 74
0
  7

 75
0
147
1.0
148
0.0
149
0.0
100
AcDbLayout
  1
Layout1
 70
0
 71
1
 10
0.0
 20
0.0
 11
210.0
 21
297.0
 12
0.0
 22
0.0
 32
0.0
 14
0.0
 24
0.0
 34
0.0
 15
0.0
 25
0.0
 35
0.0
146
0.0
 13
0.0
 23
0.0
 33
0.0
 16
1.0
 26
0.0
 36
0.0
 17
0.0
 27
1.0
 37
0.0
 76
0
330
211
345
0
346
0
  0
ENDSEC
  0
EOF
