999
DXF file: C:\Users\sesa63760\OneDrive - Schneider Electric\Documents\7-Dev\_Creo\CAD\MCADUE0000001_3D-CAD\drw0001_1.dxf
999
Pro/ENGINEER 2019471 by Parametric Technology Corporation
  0
SECTION
  2
HEADER
  9
$ACADVER
  1
AC1024
  9
$DWGCODEPAGE
  3
ANSI_1252
  9
$EXTMAX
 10
951.0780395799
 20
1345.0960845487
 30
0.0
  9
$EXTMIN
 10
0.0
 20
0.0
 30
0.0
  9
$LIMMIN
 10
0.0
 20
0.0
  9
$LIMMAX
 10
951.0780395799
 20
1345.0960845487
  9
$VIEWCTR
 10
475.5390197899
 20
672.5480422744
  9
$VIEWSIZE
 40
1345.0960845487
  9
$CLAYER
  8
0
  9
$LTSCALE
 40
87.6803373632
  9
$CELTYPE
  6
BYLAYER
  9
$DIMSCALE
 40
1.0
  9
$DIMASZ
 40
11.322357614
  9
$DIMEXO
 40
1.0
  9
$DIMDLI
 40
60.5791421782
  9
$DIMEXE
 40
1.0
  9
$DIMCEN
 40
14.3476915685
  9
$DIMLFAC
 40
1.0
  9
$DIMBLK
  1
_FILLED
  9
$DIMALT
 70
0
  9
$DIMALTF
 40
0.0393700787
  9
$DIMTXT
 40
15.8513006597
  9
$DIMTOL
 70
1
  9
$DIMLIM
 70
0
  9
$DIMTFAC
 40
1.0
  9
$DIMTP
 40
0.01
  9
$DIMTM
 40
0.01
  9
$DIMGAP
 40
0.625
  9
$DIMDSEP
 70
46
  9
$AUNITS
 70
0
  9
$PDMODE
 70
3
  9
$PDSIZE
 40
0.3125
  9
$HANDSEED
  5
390
  9
$TILEMODE
 70
1
  9
$MEASUREMENT
 70
1
  9
$INSUNITS
 70
4
  0
ENDSEC
  0
SECTION
  2
CLASSES
  0
CLASS
  1
ACDBDICTIONARYWDFLT
  2
AcDbDictionaryWithDefault
  3
AutoCAD 2000
 90
0
 91
1
280
0
281
0
  0
CLASS
  1
ACDBPLACEHOLDER
  2
AcDbPlaceHolder
  3
AutoCAD 2000
 90
0
 91
1
280
0
281
0
  0
CLASS
  1
LAYOUT
  2
AcDbLayout
  3
AutoCAD 2000
 90
0
 91
0
280
0
281
0
  0
ENDSEC
  0
SECTION
  2
TABLES
  0
TABLE
  2
VPORT
  5
8
100
AcDbSymbolTable
 70
2
  0
VPORT
  5
1F4
100
AcDbSymbolTableRecord
100
AcDbViewportTableRecord
  2
*ACTIVE
 70
0
 10
0.0
 20
0.0
 11
1.0
 21
1.0
 12
475.5390197899
 22
672.5480422744
 13
0.0
 23
0.0
 14
1.0
 24
1.0
 15
0.0
 25
0.0
 16
0.0
 26
0.0
 36
1.0
 17
0.0
 27
0.0
 37
0.0
 40
1345.0960845487
 41
0.7070707071
 42
50.0
 43
0.0
 44
0.0
 50
0.0
 51
0.0
 71
0
 72
100
 73
1
 74
1
 75
0
 76
0
 77
0
 78
0
  0
ENDTAB
  0
TABLE
  2
LTYPE
  5
5
100
AcDbSymbolTable
 70
6
  0
LTYPE
  5
14
100
AcDbSymbolTableRecord
100
AcDbLinetypeTableRecord
  2
BYBLOCK
 70
0
  3

 72
65
 73
0
 40
0.0
  0
LTYPE
  5
15
100
AcDbSymbolTableRecord
100
AcDbLinetypeTableRecord
  2
BYLAYER
 70
0
  3

 72
65
 73
0
 40
0.0
  0
LTYPE
  5
16
100
AcDbSymbolTableRecord
100
AcDbLinetypeTableRecord
  2
CONTINUOUS
 70
64
  3
Solid line
 72
65
 73
0
 40
0.0
  0
LTYPE
  5
1F5
100
AcDbSymbolTableRecord
100
AcDbLinetypeTableRecord
  2
CENTER
 70
64
  3
____ _ ____ _ ____ _ ____ _ ____ _ ____ _ ____
 72
65
 73
4
 40
0.6
 49
0.375
 74
0
 49
-0.075
 74
0
 49
0.075
 74
0
 49
-0.075
 74
0
  0
LTYPE
  5
1F6
100
AcDbSymbolTableRecord
100
AcDbLinetypeTableRecord
  2
HIDDEN
 70
64
  3
- - - - - - - - - - - - - - - - - - - -
 72
65
 73
2
 40
0.2
 49
0.1
 74
0
 49
-0.1
 74
0
  0
LTYPE
  5
1F7
100
AcDbSymbolTableRecord
100
AcDbLinetypeTableRecord
  2
PHANTOM
 70
64
  3
_____ _ _ _____ _ _ _____ _ _ _____
 72
65
 73
6
 40
0.8
 49
0.45
 74
0
 49
-0.05
 74
0
 49
0.1
 74
0
 49
-0.05
 74
0
 49
0.1
 74
0
 49
-0.05
 74
0
  0
LTYPE
  5
1F8
100
AcDbSymbolTableRecord
100
AcDbLinetypeTableRecord
  2
DOT
 70
64
  3
. . . . . . . . . . . . . . . . . . . .
 72
65
 73
2
 40
0.2
 49
0.1
 74
0
 49
-0.1
 74
0
  0
LTYPE
  5
1F9
100
AcDbSymbolTableRecord
100
AcDbLinetypeTableRecord
  2
DASHED
 70
64
  3
- - - - - - - - - - - - - - - - - - - -
 72
65
 73
2
 40
0.2
 49
0.1
 74
0
 49
-0.1
 74
0
  0
ENDTAB
  0
TABLE
  2
LAYER
  5
2
100
AcDbSymbolTable
 70
36
  0
LAYER
  5
10
100
AcDbSymbolTableRecord
100
AcDbLayerTableRecord
  2
0
 70
0
 62
7
  6
CONTINUOUS
370
-3
390
F
  0
LAYER
  5
1FA
100
AcDbSymbolTableRecord
100
AcDbLayerTableRecord
  2
DEFAULT_1
 70
0
 62
7
  6
CENTER
370
-3
390
F
  0
LAYER
  5
1FB
100
AcDbSymbolTableRecord
100
AcDbLayerTableRecord
  2
DEFAULT_2
 70
0
 62
8
  6
HIDDEN
370
-3
390
F
  0
LAYER
  5
1FC
100
AcDbSymbolTableRecord
100
AcDbLayerTableRecord
  2
DEFAULT_3
 70
0
 62
7
  6
PHANTOM
370
-3
390
F
  0
LAYER
  5
1FD
100
AcDbSymbolTableRecord
100
AcDbLayerTableRecord
  2
00_COMPONENTS
 70
0
 62
7
  6
CONTINUOUS
370
-3
390
F
  0
LAYER
  5
1FE
100
AcDbSymbolTableRecord
100
AcDbLayerTableRecord
  2
01_1_DEFAULT_DATUMS
 70
0
 62
7
  6
CONTINUOUS
370
-3
390
F
  0
LAYER
  5
1FF
100
AcDbSymbolTableRecord
100
AcDbLayerTableRecord
  2
01_PLANES
 70
0
 62
7
  6
CONTINUOUS
370
-3
390
F
  0
LAYER
  5
200
100
AcDbSymbolTableRecord
100
AcDbLayerTableRecord
  2
02_COORD_SYS
 70
0
 62
7
  6
CONTINUOUS
370
-3
390
F
  0
LAYER
  5
201
100
AcDbSymbolTableRecord
100
AcDbLayerTableRecord
  2
03_AXES
 70
0
 62
7
  6
CONTINUOUS
370
-3
390
F
  0
LAYER
  5
202
100
AcDbSymbolTableRecord
100
AcDbLayerTableRecord
  2
04_POINTS
 70
0
 62
7
  6
CONTINUOUS
370
-3
390
F
  0
LAYER
  5
203
100
AcDbSymbolTableRecord
100
AcDbLayerTableRecord
  2
05_CURVES
 70
0
 62
7
  6
CONTINUOUS
370
-3
390
F
  0
LAYER
  5
204
100
AcDbSymbolTableRecord
100
AcDbLayerTableRecord
  2
06_SURFS
 70
0
 62
7
  6
CONTINUOUS
370
-3
390
F
  0
LAYER
  5
205
100
AcDbSymbolTableRecord
100
AcDbLayerTableRecord
  2
07_COSMETICS
 70
0
 62
7
  6
CONTINUOUS
370
-3
390
F
  0
LAYER
  5
206
100
AcDbSymbolTableRecord
100
AcDbLayerTableRecord
  2
10_NOTES
 70
0
 62
7
  6
CONTINUOUS
370
-3
390
F
  0
LAYER
  5
207
100
AcDbSymbolTableRecord
100
AcDbLayerTableRecord
  2
11_NOTES_PUB
 70
0
 62
7
  6
CONTINUOUS
370
-3
390
F
  0
LAYER
  5
208
100
AcDbSymbolTableRecord
100
AcDbLayerTableRecord
  2
13_REF_GTOL
 70
0
 62
7
  6
CONTINUOUS
370
-3
390
F
  0
LAYER
  5
209
100
AcDbSymbolTableRecord
100
AcDbLayerTableRecord
  2
16_MISC
 70
0
 62
7
  6
CONTINUOUS
370
-3
390
F
  0
LAYER
  5
20A
100
AcDbSymbolTableRecord
100
AcDbLayerTableRecord
  2
17_NO_PRINT
 70
0
 62
7
  6
CONTINUOUS
370
-3
390
F
  0
LAYER
  5
20B
100
AcDbSymbolTableRecord
100
AcDbLayerTableRecord
  2
18_DATUM_CAMS_JOINTS
 70
0
 62
7
  6
CONTINUOUS
370
-3
390
F
  0
LAYER
  5
20C
100
AcDbSymbolTableRecord
100
AcDbLayerTableRecord
  2
19_DATUM_FUNCTIONAL
 70
0
 62
7
  6
CONTINUOUS
370
-3
390
F
  0
LAYER
  5
20D
100
AcDbSymbolTableRecord
100
AcDbLayerTableRecord
  2
20_DATUM_KINEMATIC_SCHEME
 70
0
 62
7
  6
CONTINUOUS
370
-3
390
F
  0
ENDTAB
  0
TABLE
  2
STYLE
  5
3
100
AcDbSymbolTable
 70
1
  0
STYLE
  5
11
100
AcDbSymbolTableRecord
100
AcDbTextStyleTableRecord
  2
STANDARD
 70
0
 40
0.0
 41
0.8
 50
0.0
 71
0
 42
0.2
  3
txt
  4

  0
STYLE
  5
20E
100
AcDbSymbolTableRecord
100
AcDbTextStyleTableRecord
  2
TEXTSTYLE_1
 70
0
 40
0.0
 41
0.8
 50
0.0
 71
0
 42
0.2
  3
gdt
  4

  0
ENDTAB
  0
TABLE
  2
VIEW
  5
6
100
AcDbSymbolTable
 70
0
  0
ENDTAB
  0
TABLE
  2
UCS
  5
7
100
AcDbSymbolTable
 70
0
  0
ENDTAB
  0
TABLE
  2
APPID
  5
9
100
AcDbSymbolTable
 70
1
  0
APPID
  5
20F
100
AcDbSymbolTableRecord
100
AcDbRegAppTableRecord
  2
ACAD
 70
0
  0
ENDTAB
  0
TABLE
  2
BLOCK_RECORD
  5
1
100
AcDbSymbolTable
 70
0
  0
BLOCK_RECORD
  5
210
100
AcDbSymbolTableRecord
100
AcDbBlockTableRecord
  2
*Model_Space
  0
BLOCK_RECORD
  5
211
100
AcDbSymbolTableRecord
100
AcDbBlockTableRecord
  2
*Paper_Space
  0
BLOCK_RECORD
  5
212
100
AcDbSymbolTableRecord
100
AcDbBlockTableRecord
  2
_FILLED
  0
ENDTAB
  0
TABLE
  2
DIMSTYLE
  5
A
100
AcDbSymbolTable
 70
1
100
AcDbDimStyleTable
 71
0
  0
DIMSTYLE
105
213
100
AcDbSymbolTableRecord
100
AcDbDimStyleTableRecord
  2
STANDARD
 70
0
  3

  4

 40
1.0
 41
11.322357614
 42
1.0
 43
0.38
 44
1.0
 45
0.0
 46
0.0
 47
0.01
 48
0.01
140
15.8513006597
141
0.09
142
0.0
143
25.4
144
1.0
145
0.0
146
1.0
147
0.625
 71
1
 72
0
 73
0
 74
0
 75
0
 76
0
 77
1
 78
8
 79
2
170
0
171
1
172
0
173
0
174
0
175
0
176
0
177
0
178
0
270
2
179
2
271
2
272
2
273
2
274
2
275
0
280
0
281
0
282
0
283
1
284
8
285
0
286
0
287
3
288
0
340
11
278
46
341
212
342
212
343
212
344
212
  0
ENDTAB
  0
ENDSEC
  0
SECTION
  2
BLOCKS
  0
BLOCK
  5
20
100
AcDbEntity
  8
0
100
AcDbBlockBegin
  2
*Model_Space
 70
0
 10
0.0
 20
0.0
 30
0.0
  3
*Model_Space
  1

  0
ENDBLK
  5
21
100
AcDbEntity
  8
0
100
AcDbBlockEnd
  0
BLOCK
  5
1C
100
AcDbEntity
  8
0
100
AcDbBlockBegin
  2
*Paper_Space
 70
0
 10
0.0
 20
0.0
 30
0.0
  3
*Paper_Space
  1

  0
ENDBLK
  5
1D
100
AcDbEntity
  8
0
100
AcDbBlockEnd
  0
BLOCK
  5
214
100
AcDbEntity
  8
0
100
AcDbBlockBegin
  2
_FILLED
 70
64
 10
0.0
 20
0.0
  3
_FILLED
  1

  0
SOLID
  5
215
100
AcDbEntity
  8
0
  6
BYBLOCK
 62
0
100
AcDbTrace
 10
0.0
 20
0.0
 11
-1.0
 21
0.25
 12
-1.0
 22
-0.25
 13
-1.0
 23
-0.25
  0
ENDBLK
  5
216
100
AcDbEntity
  8
0
  6
BYBLOCK
 62
0
100
AcDbBlockEnd
  0
ENDSEC
  0
SECTION
  2
ENTITIES
  0
LINE
  5
217
100
AcDbEntity
  8
0
100
AcDbLine
 62
7
  6
CONTINUOUS
 10
638.3777221755
 20
141.2054998596
 11
645.1849346895
 21
142.1887119802
  0
LINE
  5
218
100
AcDbEntity
  8
0
100
AcDbLine
 62
7
  6
CONTINUOUS
 10
595.827042374
 20
163.5552520498
 11
601.4111915175
 21
163.513413729
  0
LINE
  5
219
100
AcDbEntity
  8
0
100
AcDbLine
 62
7
  6
CONTINUOUS
 10
382.5001668256
 20
1201.2991114224
 11
379.8283508538
 21
1199.7565469597
  0
LINE
  5
21A
100
AcDbEntity
  8
0
100
AcDbLine
 62
7
  6
CONTINUOUS
 10
390.0613033122
 20
1193.8486827569
 11
389.0713578874
 21
1193.2771409111
  0
LINE
  5
21B
100
AcDbEntity
  8
0
100
AcDbLine
 62
7
  6
CONTINUOUS
 10
595.6265426164
 20
163.0618519891
 11
601.9089515364
 21
162.1878606774
  0
LINE
  5
21C
100
AcDbEntity
  8
0
100
AcDbLine
 62
7
  6
CONTINUOUS
 10
601.4111915175
 20
163.513413729
 11
601.9089515364
 21
163.444100775
  0
LINE
  5
21D
100
AcDbEntity
  8
0
100
AcDbLine
 62
7
  6
CONTINUOUS
 10
382.8697383481
 20
1201.6622868337
 11
382.5001668256
 21
1201.2991114224
  0
LINE
  5
21E
100
AcDbEntity
  8
0
100
AcDbLine
 62
7
  6
CONTINUOUS
 10
381.9195700205
 20
1202.3050232479
 11
379.708478687
 21
1200.2647123409
  0
LINE
  5
21F
100
AcDbEntity
  8
0
100
AcDbLine
 62
7
  6
CONTINUOUS
 10
319.2505730184
 20
253.1154266531
 11
577.1488857332
 21
104.2211348227
  0
LINE
  5
220
100
AcDbEntity
  8
0
100
AcDbLine
 62
7
  6
CONTINUOUS
 10
575.0112785063
 20
106.4427784124
 11
320.1286345347
 21
253.5960124703
  0
LINE
  5
221
100
AcDbEntity
  8
0
100
AcDbLine
 62
7
  6
CONTINUOUS
 10
381.9195700205
 20
1238.6083861256
 11
386.1786428526
 21
1244.0142586908
  0
LINE
  5
222
100
AcDbEntity
  8
0
100
AcDbLine
 62
7
  6
CONTINUOUS
 10
586.5216923192
 20
168.3184208397
 11
595.6265426164
 21
163.0618519891
  0
LINE
  5
223
100
AcDbEntity
  8
0
100
AcDbLine
 62
7
  6
CONTINUOUS
 10
586.5216923192
 20
168.9275768706
 11
595.827042374
 21
163.5552520498
  0
LINE
  5
224
100
AcDbEntity
  8
0
100
AcDbLine
 62
7
  6
CONTINUOUS
 10
601.9089515364
 20
162.1878606774
 11
629.9575461844
 21
145.9943633529
  0
LINE
  5
225
100
AcDbEntity
  8
0
100
AcDbLine
 62
7
  6
CONTINUOUS
 10
630.0390999967
 20
146.0196967033
 11
638.3777221755
 21
141.2054998554
  0
LINE
  5
226
100
AcDbEntity
  8
0
100
AcDbLine
 62
7
  6
CONTINUOUS
 10
601.4111915175
 20
163.513413729
 11
586.5216923192
 21
172.1096756258
  0
LINE
  5
227
100
AcDbEntity
  8
0
100
AcDbLine
 62
7
  6
CONTINUOUS
 10
629.9575461844
 20
147.2506034504
 11
601.9089515364
 21
163.444100775
  0
LINE
  5
228
100
AcDbEntity
  8
0
100
AcDbLine
 62
7
  6
CONTINUOUS
 10
586.8050673515
 20
172.3238875549
 11
637.216263707
 21
143.2196281953
  0
LINE
  5
229
100
AcDbEntity
  8
0
100
AcDbLine
 62
7
  6
CONTINUOUS
 10
586.6578859911
 20
174.5186673224
 11
588.0721054414
 21
173.7021858134
  0
LINE
  5
22A
100
AcDbEntity
  8
0
100
AcDbLine
 62
7
  6
CONTINUOUS
 10
588.0721054414
 20
176.0830276397
 11
586.6578859911
 21
176.8995091487
  0
LINE
  5
22B
100
AcDbEntity
  8
0
100
AcDbLine
 62
7
  6
CONTINUOUS
 10
586.5216923192
 20
180.6523056138
 11
637.2067274675
 21
151.3899489301
  0
LINE
  5
22C
100
AcDbEntity
  8
0
100
AcDbLine
 62
7
  6
CONTINUOUS
 10
622.7406881882
 20
181.6378151851
 11
631.751201331
 21
176.4357107447
  0
LINE
  5
22D
100
AcDbEntity
  8
0
100
AcDbLine
 62
7
  6
CONTINUOUS
 10
645.1849346895
 20
1094.4802892873
 11
638.3777221755
 21
1090.545552572
  0
LINE
  5
22E
100
AcDbEntity
  8
0
100
AcDbLine
 62
7
  6
CONTINUOUS
 10
583.9307267417
 20
1059.110752742
 11
579.6716539097
 21
1056.6564047716
  0
LINE
  5
22F
100
AcDbEntity
  8
0
100
AcDbLine
 62
7
  6
CONTINUOUS
 10
645.7233461564
 20
1094.7807073978
 11
645.5561487988
 21
1094.6872641731
  0
LINE
  5
230
100
AcDbEntity
  8
0
100
AcDbLine
 62
7
  6
CONTINUOUS
 10
634.8134994679
 20
1052.9546828859
 11
638.3777221755
 21
1054.2421896942
  0
LINE
  5
231
100
AcDbEntity
  8
0
100
AcDbLine
 62
7
  6
CONTINUOUS
 10
636.8929688778
 20
1054.7260896413
 11
637.1905203431
 21
1054.8334366008
  0
LINE
  5
232
100
AcDbEntity
  8
0
100
AcDbLine
 62
7
  6
CONTINUOUS
 10
319.2505131829
 20
253.1150347752
 11
319.2505772991
 21
253.1148535654
  0
LINE
  5
233
100
AcDbEntity
  8
0
100
AcDbLine
 62
7
  6
CONTINUOUS
 10
622.7406881882
 20
1058.371142142
 11
623.730633613
 21
1058.9426839879
  0
LINE
  5
234
100
AcDbEntity
  8
0
100
AcDbLine
 62
7
  6
CONTINUOUS
 10
583.9307267417
 20
1024.1485074107
 11
586.0219459085
 21
1025.3558661526
  0
LINE
  5
235
100
AcDbEntity
  8
0
100
AcDbLine
 62
7
  6
CONTINUOUS
 10
633.9635860716
 20
1053.0348197851
 11
636.8929688778
 21
1054.7260896413
  0
LINE
  5
236
100
AcDbEntity
  8
0
100
AcDbLine
 62
7
  6
CONTINUOUS
 10
588.0721054414
 20
176.0830276397
 11
589.2436033208
 21
174.4500510242
  0
LINE
  5
237
100
AcDbEntity
  8
0
100
AcDbLine
 62
7
  6
CONTINUOUS
 10
319.2505131829
 20
253.1150347752
 11
319.2505131829
 21
1204.0381133453
  0
LINE
  5
238
100
AcDbEntity
  8
0
100
AcDbLine
 62
7
  6
CONTINUOUS
 10
320.1286345347
 20
253.5960124703
 11
320.1286345347
 21
1201.1118923556
  0
LINE
  5
239
100
AcDbEntity
  8
0
100
AcDbLine
 62
7
  6
CONTINUOUS
 10
328.6597764192
 20
1145.2392938273
 11
328.6597764192
 21
1137.2617411467
  0
LINE
  5
23A
100
AcDbEntity
  8
0
100
AcDbLine
 62
7
  6
CONTINUOUS
 10
328.6597764192
 20
941.1136895449
 11
328.6597764192
 21
933.1361368643
  0
LINE
  5
23B
100
AcDbEntity
  8
0
100
AcDbLine
 62
7
  6
CONTINUOUS
 10
328.6597764192
 20
512.4499205518
 11
328.6597764192
 21
504.4723678713
  0
LINE
  5
23C
100
AcDbEntity
  8
0
100
AcDbLine
 62
7
  6
CONTINUOUS
 10
328.6597764191
 20
308.3243162694
 11
328.6597764191
 21
300.3467635889
  0
LINE
  5
23D
100
AcDbEntity
  8
0
100
AcDbLine
 62
7
  6
CONTINUOUS
 10
328.9573278844
 20
1144.927243433
 11
328.9573278844
 21
1137.2314848039
  0
LINE
  5
23E
100
AcDbEntity
  8
0
100
AcDbLine
 62
7
  6
CONTINUOUS
 10
328.9573278844
 20
940.8016391506
 11
328.9573278844
 21
933.1058805215
  0
LINE
  5
23F
100
AcDbEntity
  8
0
100
AcDbLine
 62
7
  6
CONTINUOUS
 10
328.9573278844
 20
512.1378701576
 11
328.9573278844
 21
504.4421115285
  0
LINE
  5
240
100
AcDbEntity
  8
0
100
AcDbLine
 62
7
  6
CONTINUOUS
 10
328.9573278844
 20
308.0122658752
 11
328.9573278844
 21
300.3165072461
  0
LINE
  5
241
100
AcDbEntity
  8
0
100
AcDbLine
 62
7
  6
CONTINUOUS
 10
583.9307267417
 20
1022.8073898643
 11
586.1418180752
 21
1024.8477007713
  0
LINE
  5
242
100
AcDbEntity
  8
0
100
AcDbLine
 62
7
  6
CONTINUOUS
 10
379.328604443
 20
1173.8604188329
 11
379.328604443
 21
1176.0551986003
  0
LINE
  5
243
100
AcDbEntity
  8
0
100
AcDbLine
 62
7
  6
CONTINUOUS
 10
379.328604443
 20
1180.0606653156
 11
379.328604443
 21
1199.4998557969
  0
LINE
  5
244
100
AcDbEntity
  8
0
100
AcDbLine
 62
7
  6
CONTINUOUS
 10
380.06084485
 20
1173.5835254221
 11
380.06084485
 21
1176.1826446314
  0
LINE
  5
245
100
AcDbEntity
  8
0
100
AcDbLine
 62
7
  6
CONTINUOUS
 10
380.06084485
 20
1179.6379156834
 11
380.06084485
 21
1198.4792454123
  0
LINE
  5
246
100
AcDbEntity
  8
0
100
AcDbLine
 62
7
  6
CONTINUOUS
 10
381.9195700205
 20
1202.3050232479
 11
381.9195700205
 21
1238.6083861256
  0
LINE
  5
247
100
AcDbEntity
  8
0
100
AcDbLine
 62
7
  6
CONTINUOUS
 10
382.5001668256
 20
1178.2296043444
 11
382.5001668256
 21
1180.4872084821
  0
LINE
  5
248
100
AcDbEntity
  8
0
100
AcDbLine
 62
7
  6
CONTINUOUS
 10
382.5001668256
 20
1198.214008186
 11
382.5001668256
 21
1201.2991114224
  0
LINE
  5
249
100
AcDbEntity
  8
0
100
AcDbLine
 62
7
  6
CONTINUOUS
 10
382.8697383481
 20
1201.6622868337
 11
382.8697383481
 21
1198.000640795
  0
LINE
  5
24A
100
AcDbEntity
  8
0
100
AcDbLine
 62
7
  6
CONTINUOUS
 10
382.8697383481
 20
1180.4872084821
 11
382.8697383481
 21
1178.0162369534
  0
LINE
  5
24B
100
AcDbEntity
  8
0
100
AcDbLine
 62
7
  6
CONTINUOUS
 10
382.8697383481
 20
1175.7895080459
 11
382.8697383481
 21
1175.5620117466
  0
LINE
  5
24C
100
AcDbEntity
  8
0
100
AcDbLine
 62
7
  6
CONTINUOUS
 10
383.040251583
 20
1180.638651525
 11
383.040251583
 21
1177.9177933185
  0
LINE
  5
24D
100
AcDbEntity
  8
0
100
AcDbLine
 62
7
  6
CONTINUOUS
 10
383.040251583
 20
1175.7208856321
 11
383.040251583
 21
1175.3478830578
  0
LINE
  5
24E
100
AcDbEntity
  8
0
100
AcDbLine
 62
7
  6
CONTINUOUS
 10
383.4350220185
 20
1175.5620117466
 11
383.4350220185
 21
1176.4341020442
  0
LINE
  5
24F
100
AcDbEntity
  8
0
100
AcDbLine
 62
7
  6
CONTINUOUS
 10
384.8492414688
 20
1175.6176205352
 11
384.8492414688
 21
1174.7455302375
  0
LINE
  5
250
100
AcDbEntity
  8
0
100
AcDbLine
 62
7
  6
CONTINUOUS
 10
389.0713578874
 20
1193.2771409111
 11
389.0713578874
 21
1174.435811243
  0
LINE
  5
251
100
AcDbEntity
  8
0
100
AcDbLine
 62
7
  6
CONTINUOUS
 10
390.0613033122
 20
1193.8486827569
 11
390.0613033122
 21
1173.8642789154
  0
LINE
  5
252
100
AcDbEntity
  8
0
100
AcDbLine
 62
7
  6
CONTINUOUS
 10
390.1520668771
 20
1232.4691128658
 11
390.1520668771
 21
1173.8118777322
  0
LINE
  5
253
100
AcDbEntity
  8
0
100
AcDbLine
 62
7
  6
CONTINUOUS
 10
390.2581921994
 20
1232.4506141315
 11
390.2581921994
 21
1233.7941892819
  0
LINE
  5
254
100
AcDbEntity
  8
0
100
AcDbLine
 62
7
  6
CONTINUOUS
 10
383.0810284891
 20
1236.5942577899
 11
383.0410591038
 21
1202.3037160294
  0
LINE
  5
255
100
AcDbEntity
  8
0
100
AcDbLine
 62
7
  6
CONTINUOUS
 10
383.0410591038
 20
1202.3037160294
 11
383.040251583
 21
1197.90219716
  0
LINE
  5
256
100
AcDbEntity
  8
0
100
AcDbLine
 62
7
  6
CONTINUOUS
 10
418.3068140015
 20
1213.077836009
 11
418.2252330349
 21
1217.5318556389
  0
LINE
  5
257
100
AcDbEntity
  8
0
100
AcDbLine
 62
7
  6
CONTINUOUS
 10
440.0033289956
 20
1208.2215440563
 11
440.0033289956
 21
1210.6023858826
  0
LINE
  5
258
100
AcDbEntity
  8
0
100
AcDbLine
 62
7
  6
CONTINUOUS
 10
441.4175484459
 20
1209.7859043736
 11
441.4175484459
 21
1207.4050625472
  0
LINE
  5
259
100
AcDbEntity
  8
0
100
AcDbLine
 62
7
  6
CONTINUOUS
 10
418.3042103881
 20
1212.6986906584
 11
418.3068140015
 21
1213.077836009
  0
LINE
  5
25A
100
AcDbEntity
  8
0
100
AcDbLine
 62
7
  6
CONTINUOUS
 10
547.5434827608
 20
1082.9439571107
 11
547.6250637273
 21
1080.143780269
  0
LINE
  5
25B
100
AcDbEntity
  8
0
100
AcDbLine
 62
7
  6
CONTINUOUS
 10
530.089579014
 20
1090.892879259
 11
530.089579014
 21
1091.7649695567
  0
LINE
  5
25C
100
AcDbEntity
  8
0
100
AcDbLine
 62
7
  6
CONTINUOUS
 10
531.5037984643
 20
1090.9484880477
 11
531.5037984643
 21
1090.07639775
  0
LINE
  5
25D
100
AcDbEntity
  8
0
100
AcDbLine
 62
7
  6
CONTINUOUS
 10
575.0112785063
 20
1053.9586582978
 11
575.0112785063
 21
106.4427784124
  0
LINE
  5
25E
100
AcDbEntity
  8
0
100
AcDbLine
 62
7
  6
CONTINUOUS
 10
579.6716539097
 20
104.3648274645
 11
579.6716539097
 21
1056.6564047716
  0
LINE
  5
25F
100
AcDbEntity
  8
0
100
AcDbLine
 62
7
  6
CONTINUOUS
 10
583.9307267417
 20
109.7707000297
 11
583.9307267417
 21
146.0740629074
  0
LINE
  5
260
100
AcDbEntity
  8
0
100
AcDbLine
 62
7
  6
CONTINUOUS
 10
583.9307267417
 20
1022.8073898643
 11
583.9307267417
 21
1059.110752742
  0
LINE
  5
261
100
AcDbEntity
  8
0
100
AcDbLine
 62
7
  6
CONTINUOUS
 10
586.1418180752
 20
1024.8477007713
 11
586.1418180752
 21
148.1143738144
  0
LINE
  5
262
100
AcDbEntity
  8
0
100
AcDbLine
 62
7
  6
CONTINUOUS
 10
586.5216923192
 20
148.8792303583
 11
586.5216923192
 21
1025.6125573153
  0
LINE
  5
263
100
AcDbEntity
  8
0
100
AcDbLine
 62
7
  6
CONTINUOUS
 10
586.6578859911
 20
174.5186673224
 11
586.6578859911
 21
176.8995091487
  0
LINE
  5
264
100
AcDbEntity
  8
0
100
AcDbLine
 62
7
  6
CONTINUOUS
 10
586.6578859911
 20
1123.5524115688
 11
586.6578859911
 21
1125.9332533951
  0
LINE
  5
265
100
AcDbEntity
  8
0
100
AcDbLine
 62
7
  6
CONTINUOUS
 10
588.0721054414
 20
1125.1167718861
 11
588.0721054414
 21
1122.7359300597
  0
LINE
  5
266
100
AcDbEntity
  8
0
100
AcDbLine
 62
7
  6
CONTINUOUS
 10
588.0721054414
 20
176.0830276397
 11
588.0721054414
 21
173.7021858134
  0
LINE
  5
267
100
AcDbEntity
  8
0
100
AcDbLine
 62
7
  6
CONTINUOUS
 10
601.9089515364
 20
1111.4844104301
 11
601.9089515364
 21
1110.2281703325
  0
LINE
  5
268
100
AcDbEntity
  8
0
100
AcDbLine
 62
7
  6
CONTINUOUS
 10
601.9089515364
 20
163.444100775
 11
601.9089515364
 21
162.1878606774
  0
LINE
  5
269
100
AcDbEntity
  8
0
100
AcDbLine
 62
7
  6
CONTINUOUS
 10
637.216263707
 20
143.2196281953
 11
637.1767483356
 21
177.0750340677
  0
LINE
  5
26A
100
AcDbEntity
  8
0
100
AcDbLine
 62
7
  6
CONTINUOUS
 10
622.7406881882
 20
1058.371142142
 11
622.7406881882
 21
181.6378151851
  0
LINE
  5
26B
100
AcDbEntity
  8
0
100
AcDbLine
 62
7
  6
CONTINUOUS
 10
630.0390999967
 20
1095.359749424
 11
630.0390999967
 21
1094.0161742737
  0
LINE
  5
26C
100
AcDbEntity
  8
0
100
AcDbLine
 62
7
  6
CONTINUOUS
 10
630.0390999967
 20
147.3632718536
 11
630.0390999967
 21
146.0196967033
  0
LINE
  5
26D
100
AcDbEntity
  8
0
100
AcDbLine
 62
7
  6
CONTINUOUS
 10
631.751201331
 20
1053.1690377017
 11
631.751201331
 21
176.4357107447
  0
LINE
  5
26E
100
AcDbEntity
  8
0
100
AcDbLine
 62
7
  6
CONTINUOUS
 10
634.8437679115
 20
176.2322898212
 11
634.8437679115
 21
1052.9656167782
  0
LINE
  5
26F
100
AcDbEntity
  8
0
100
AcDbLine
 62
7
  6
CONTINUOUS
 10
638.3777221755
 20
177.5088627373
 11
638.3777221755
 21
141.2054998596
  0
LINE
  5
270
100
AcDbEntity
  8
0
100
AcDbLine
 62
7
  6
CONTINUOUS
 10
638.3777221755
 20
1054.2421896942
 11
638.3777221755
 21
1090.5455525762
  0
LINE
  5
271
100
AcDbEntity
  8
0
100
AcDbLine
 62
7
  6
CONTINUOUS
 10
645.1849346895
 20
1094.4802892873
 11
645.1849346895
 21
142.1887119802
  0
LINE
  5
272
100
AcDbEntity
  8
0
100
AcDbLine
 62
7
  6
CONTINUOUS
 10
637.1754868008
 20
1054.8892004665
 11
637.216263707
 21
1089.8725306153
  0
LINE
  5
273
100
AcDbEntity
  8
0
100
AcDbLine
 62
7
  6
CONTINUOUS
 10
646.5997835794
 20
144.3410546889
 11
646.5997835794
 21
1095.264133259
  0
LINE
  5
274
100
AcDbEntity
  8
0
100
AcDbLine
 62
7
  6
CONTINUOUS
 10
595.6265426164
 20
1110.7045589535
 11
595.827042374
 21
1110.2081544698
  0
LINE
  5
275
100
AcDbEntity
  8
0
100
AcDbLine
 62
7
  6
CONTINUOUS
 10
595.827042374
 20
163.5552520498
 11
595.6265426164
 21
163.0618519891
  0
LINE
  5
276
100
AcDbEntity
  8
0
100
AcDbLine
 62
7
  6
CONTINUOUS
 10
646.5997195026
 20
1095.2643152617
 11
646.5997835794
 21
1095.264133259
  0
LINE
  5
277
100
AcDbEntity
  8
0
100
AcDbLine
 62
7
  6
CONTINUOUS
 10
586.0219459085
 20
1025.3558661526
 11
583.9307267417
 21
1026.5632047878
  0
LINE
  5
278
100
AcDbEntity
  8
0
100
AcDbLine
 62
7
  6
CONTINUOUS
 10
583.9307267417
 20
1027.706278913
 11
585.7894519122
 21
1026.6331677
  0
LINE
  5
279
100
AcDbEntity
  8
0
100
AcDbLine
 62
7
  6
CONTINUOUS
 10
320.1286345347
 20
1201.1118923556
 11
575.0112785063
 21
1053.9586582978
  0
LINE
  5
27A
100
AcDbEntity
  8
0
100
AcDbLine
 62
7
  6
CONTINUOUS
 10
579.6766179351
 20
1056.659265358
 11
320.6732960005
 21
1206.1915201263
  0
LINE
  5
27B
100
AcDbEntity
  8
0
100
AcDbLine
 62
7
  6
CONTINUOUS
 10
377.7781913208
 20
1174.6769003419
 11
379.1924107711
 21
1173.8604188329
  0
LINE
  5
27C
100
AcDbEntity
  8
0
100
AcDbLine
 62
7
  6
CONTINUOUS
 10
524.4327483163
 20
1090.0077678544
 11
525.8469677666
 21
1089.1912863454
  0
LINE
  5
27D
100
AcDbEntity
  8
0
100
AcDbLine
 62
7
  6
CONTINUOUS
 10
327.4725745868
 20
1207.1735862999
 11
335.8111967655
 21
1202.359389452
  0
LINE
  5
27E
100
AcDbEntity
  8
0
100
AcDbLine
 62
7
  6
CONTINUOUS
 10
575.5921045629
 20
1063.9249495942
 11
583.9307267417
 21
1059.1107527462
  0
LINE
  5
27F
100
AcDbEntity
  8
0
100
AcDbLine
 62
7
  6
CONTINUOUS
 10
335.8927505778
 20
1202.3847228024
 11
363.9413452258
 21
1186.1912254778
  0
LINE
  5
280
100
AcDbEntity
  8
0
100
AcDbLine
 62
7
  6
CONTINUOUS
 10
547.6250637273
 20
1080.143780269
 11
575.6736583752
 21
1063.9502829446
  0
LINE
  5
281
100
AcDbEntity
  8
0
100
AcDbLine
 62
7
  6
CONTINUOUS
 10
383.4350220185
 20
1175.5620117466
 11
384.8492414688
 21
1174.7455302375
  0
LINE
  5
282
100
AcDbEntity
  8
0
100
AcDbLine
 62
7
  6
CONTINUOUS
 10
530.089579014
 20
1090.892879259
 11
531.5037984643
 21
1090.07639775
  0
LINE
  5
283
100
AcDbEntity
  8
0
100
AcDbLine
 62
7
  6
CONTINUOUS
 10
531.5037984643
 20
1090.9484880477
 11
530.089579014
 21
1091.7649695567
  0
LINE
  5
284
100
AcDbEntity
  8
0
100
AcDbLine
 62
7
  6
CONTINUOUS
 10
384.8492414688
 20
1175.6176205352
 11
383.4350220185
 21
1176.4341020442
  0
LINE
  5
285
100
AcDbEntity
  8
0
100
AcDbLine
 62
7
  6
CONTINUOUS
 10
370.2237541458
 20
1185.3172341662
 11
547.5434827608
 21
1082.9439571107
  0
LINE
  5
286
100
AcDbEntity
  8
0
100
AcDbLine
 62
7
  6
CONTINUOUS
 10
579.6716539097
 20
104.3648274645
 11
583.9307267417
 21
109.7707000297
  0
LINE
  5
287
100
AcDbEntity
  8
0
100
AcDbLine
 62
7
  6
CONTINUOUS
 10
601.9089515364
 20
1110.2281703325
 11
601.4111915175
 21
1110.166316149
  0
LINE
  5
288
100
AcDbEntity
  8
0
100
AcDbLine
 62
7
  6
CONTINUOUS
 10
601.9089515364
 20
1111.4844104301
 11
595.6265426164
 21
1110.7045589535
  0
LINE
  5
289
100
AcDbEntity
  8
0
100
AcDbLine
 62
7
  6
CONTINUOUS
 10
601.4111915175
 20
1110.166316149
 11
595.827042374
 21
1110.2081544698
  0
LINE
  5
28A
100
AcDbEntity
  8
0
100
AcDbLine
 62
7
  6
CONTINUOUS
 10
631.751201331
 20
1053.1690377017
 11
622.7406881882
 21
1058.371142142
  0
LINE
  5
28B
100
AcDbEntity
  8
0
100
AcDbLine
 62
7
  6
CONTINUOUS
 10
389.0713578874
 20
1193.2771409111
 11
380.06084485
 21
1198.4792454123
  0
LINE
  5
28C
100
AcDbEntity
  8
0
100
AcDbLine
 62
7
  6
CONTINUOUS
 10
379.8283508538
 20
1199.7565469597
 11
390.0613033122
 21
1193.8486827569
  0
LINE
  5
28D
100
AcDbEntity
  8
0
100
AcDbLine
 62
7
  6
CONTINUOUS
 10
623.730633613
 20
1058.9426839879
 11
633.9635860716
 21
1053.0348197851
  0
LINE
  5
28E
100
AcDbEntity
  8
0
100
AcDbLine
 62
7
  6
CONTINUOUS
 10
381.9195700205
 20
1202.3050232479
 11
383.0810284891
 21
1201.6344700583
  0
LINE
  5
28F
100
AcDbEntity
  8
0
100
AcDbLine
 62
7
  6
CONTINUOUS
 10
637.216263707
 20
1054.9127428837
 11
638.3777221755
 21
1054.2421896942
  0
LINE
  5
290
100
AcDbEntity
  8
0
100
AcDbLine
 62
7
  6
CONTINUOUS
 10
595.827042374
 20
1110.2081544698
 11
418.3042103881
 21
1212.6986906584
  0
LINE
  5
291
100
AcDbEntity
  8
0
100
AcDbLine
 62
7
  6
CONTINUOUS
 10
595.6265426164
 20
1110.7045589535
 11
418.3068140015
 21
1213.077836009
  0
LINE
  5
292
100
AcDbEntity
  8
0
100
AcDbLine
 62
7
  6
CONTINUOUS
 10
434.3464982979
 20
1205.827681123
 11
435.7607177482
 21
1205.0111996139
  0
LINE
  5
293
100
AcDbEntity
  8
0
100
AcDbLine
 62
7
  6
CONTINUOUS
 10
581.0010552934
 20
1121.1585486355
 11
582.4152747437
 21
1120.3420671264
  0
LINE
  5
294
100
AcDbEntity
  8
0
100
AcDbLine
 62
7
  6
CONTINUOUS
 10
390.1766383871
 20
1232.4691128658
 11
418.2252330349
 21
1216.2756155414
  0
LINE
  5
295
100
AcDbEntity
  8
0
100
AcDbLine
 62
7
  6
CONTINUOUS
 10
601.9089515364
 20
1110.2281703325
 11
629.9575461844
 21
1094.034673008
  0
LINE
  5
296
100
AcDbEntity
  8
0
100
AcDbLine
 62
7
  6
CONTINUOUS
 10
637.216263707
 20
1089.8725306153
 11
630.0390999967
 21
1094.0161742737
  0
LINE
  5
297
100
AcDbEntity
  8
0
100
AcDbLine
 62
7
  6
CONTINUOUS
 10
390.2581921994
 20
1232.4506141315
 11
383.0810284891
 21
1236.5942577899
  0
LINE
  5
298
100
AcDbEntity
  8
0
100
AcDbLine
 62
7
  6
CONTINUOUS
 10
629.9575461844
 20
1095.2909131055
 11
601.9089515364
 21
1111.4844104301
  0
LINE
  5
299
100
AcDbEntity
  8
0
100
AcDbLine
 62
7
  6
CONTINUOUS
 10
418.2252330349
 20
1217.5318556389
 11
390.1766383871
 21
1233.7253529634
  0
LINE
  5
29A
100
AcDbEntity
  8
0
100
AcDbLine
 62
7
  6
CONTINUOUS
 10
638.3777221755
 20
1090.5455525762
 11
630.0390999967
 21
1095.359749424
  0
LINE
  5
29B
100
AcDbEntity
  8
0
100
AcDbLine
 62
7
  6
CONTINUOUS
 10
390.2581921994
 20
1233.7941892819
 11
381.9195700205
 21
1238.6083861298
  0
LINE
  5
29C
100
AcDbEntity
  8
0
100
AcDbLine
 62
7
  6
CONTINUOUS
 10
586.1418180752
 20
148.1143738144
 11
583.9307267417
 21
146.0740629074
  0
LINE
  5
29D
100
AcDbEntity
  8
0
100
AcDbLine
 62
7
  6
CONTINUOUS
 10
440.0033289956
 20
1208.2215440563
 11
441.4175484459
 21
1207.4050625472
  0
LINE
  5
29E
100
AcDbEntity
  8
0
100
AcDbLine
 62
7
  6
CONTINUOUS
 10
586.6578859911
 20
1123.5524115688
 11
588.0721054414
 21
1122.7359300597
  0
LINE
  5
29F
100
AcDbEntity
  8
0
100
AcDbLine
 62
7
  6
CONTINUOUS
 10
588.0721054414
 20
1125.1167718861
 11
586.6578859911
 21
1125.9332533951
  0
LINE
  5
2A0
100
AcDbEntity
  8
0
100
AcDbLine
 62
7
  6
CONTINUOUS
 10
441.4175484459
 20
1209.7859043736
 11
440.0033289956
 21
1210.6023858826
  0
LINE
  5
2A1
100
AcDbEntity
  8
0
100
AcDbLine
 62
7
  6
CONTINUOUS
 10
386.1736788271
 20
1244.0079580498
 11
645.1770007617
 21
1094.4757032814
  0
LINE
  5
2A2
100
AcDbEntity
  8
0
100
AcDbLine
 62
7
  6
CONTINUOUS
 10
646.5997887751
 20
1095.2636219572
 11
388.7014760603
 21
1244.1579137876
  0
LINE
  5
2A3
100
AcDbEntity
  8
0
100
AcDbLine
 62
7
  6
CONTINUOUS
 10
363.9413452258
 20
1186.1912254778
 11
370.2237541458
 21
1185.3172341662
  0
LINE
  5
2A4
100
AcDbEntity
  8
0
100
AcDbLine
 62
7
  6
CONTINUOUS
 10
638.3777221755
 20
177.5088627373
 11
634.813499745
 21
176.221356029
  0
LINE
  5
2A5
100
AcDbEntity
  8
0
100
AcDbLine
 62
7
  6
CONTINUOUS
 10
320.6653620728
 20
1206.1903741751
 11
327.4725745868
 21
1207.1735862957
  0
ARC
  5
2A6
100
AcDbEntity
  8
0
100
AcDbCircle
 62
7
  6
CONTINUOUS
 10
324.5702171721
 20
308.602763412
 40
2.4579300871
100
AcDbArc
 50
97.6492646349
 51
103.0526594122
  0
ARC
  5
2A7
100
AcDbEntity
  8
0
100
AcDbCircle
 62
7
  6
CONTINUOUS
 10
324.5702171721
 20
512.7283676944
 40
2.4579300872
100
AcDbArc
 50
97.6492646349
 51
103.0526594121
  0
ARC
  5
2A8
100
AcDbEntity
  8
0
100
AcDbCircle
 62
7
  6
CONTINUOUS
 10
328.6306525822
 20
505.704361885
 40
2.4452056487
100
AcDbArc
 50
316.9361858048
 51
322.2893516478
  0
ARC
  5
2A9
100
AcDbEntity
  8
0
100
AcDbCircle
 62
7
  6
CONTINUOUS
 10
328.6306525823
 20
301.5787576025
 40
2.4452056486
100
AcDbArc
 50
316.9361858048
 51
322.289351648
  0
ARC
  5
2AA
100
AcDbEntity
  8
0
100
AcDbCircle
 62
7
  6
CONTINUOUS
 10
391.406182537
 20
1179.4307550229
 40
9.4419864606
100
AcDbArc
 50
205.3030199975
 51
210.0187424423
  0
ARC
  5
2AB
100
AcDbEntity
  8
0
100
AcDbCircle
 62
7
  6
CONTINUOUS
 10
391.3891269489
 20
1179.4185574065
 40
9.4211166335
100
AcDbArc
 50
210.0064038734
 51
216.8377762682
  0
ARC
  5
2AC
100
AcDbEntity
  8
0
100
AcDbCircle
 62
7
  6
CONTINUOUS
 10
390.3885995884
 20
1178.8443256253
 40
9.4106113969
100
AcDbArc
 50
203.5745385452
 51
210.2293041106
  0
ARC
  5
2AD
100
AcDbEntity
  8
0
100
AcDbCircle
 62
7
  6
CONTINUOUS
 10
390.3375897321
 20
1178.8069134574
 40
9.3477047515
100
AcDbArc
 50
210.1885850332
 51
218.6998608132
  0
ARC
  5
2AE
100
AcDbEntity
  8
0
100
AcDbCircle
 62
7
  6
CONTINUOUS
 10
391.241897439
 20
1179.3532329634
 40
9.2603295162
100
AcDbArc
 50
202.9813677873
 51
205.3038352407
  0
ARC
  5
2AF
100
AcDbEntity
  8
0
100
AcDbCircle
 62
7
  6
CONTINUOUS
 10
380.3670707909
 20
1170.6360103971
 40
5.5780700441
100
AcDbArc
 50
103.7078407585
 51
108.6047289665
  0
ARC
  5
2B0
100
AcDbEntity
  8
0
100
AcDbCircle
 62
7
  6
CONTINUOUS
 10
439.6864951739
 20
1204.4009247371
 40
3.4671875364
100
AcDbArc
 50
55.1563961792
 51
60.0484648898
  0
ARC
  5
2B1
100
AcDbEntity
  8
0
100
AcDbCircle
 62
7
  6
CONTINUOUS
 10
379.5092335035
 20
1172.5578901629
 40
3.4671679177
100
AcDbArc
 50
119.9519596111
 51
124.843460403
  0
ARC
  5
2B2
100
AcDbEntity
  8
0
100
AcDbCircle
 62
7
  6
CONTINUOUS
 10
394.2199451377
 20
1185.7297901261
 40
2.4579300871
100
AcDbArc
 50
97.649264635
 51
103.0526594122
  0
ARC
  5
2B3
100
AcDbEntity
  8
0
100
AcDbCircle
 62
7
  6
CONTINUOUS
 10
324.5702171721
 20
941.3921366874
 40
2.4579300872
100
AcDbArc
 50
97.6492646349
 51
103.0526594121
  0
ARC
  5
2B4
100
AcDbEntity
  8
0
100
AcDbCircle
 62
7
  6
CONTINUOUS
 10
324.5702171721
 20
1145.5177409697
 40
2.4579300872
100
AcDbArc
 50
97.649264635
 51
103.052659412
  0
ARC
  5
2B5
100
AcDbEntity
  8
0
100
AcDbCircle
 62
7
  6
CONTINUOUS
 10
398.2803805479
 20
1178.7057843167
 40
2.4452056485
100
AcDbArc
 50
316.9361858047
 51
322.289351648
  0
ARC
  5
2B6
100
AcDbEntity
  8
0
100
AcDbCircle
 62
7
  6
CONTINUOUS
 10
328.6306525823
 20
1138.4937351603
 40
2.4452056486
100
AcDbArc
 50
316.9361858047
 51
322.2893516479
  0
ARC
  5
2B7
100
AcDbEntity
  8
0
100
AcDbCircle
 62
7
  6
CONTINUOUS
 10
328.6306525823
 20
934.368130878
 40
2.4452056486
100
AcDbArc
 50
316.9361858048
 51
322.2893516479
  0
ARC
  5
2B8
100
AcDbEntity
  8
0
100
AcDbCircle
 62
7
  6
CONTINUOUS
 10
383.2354004266
 20
1178.612271178
 40
2.1316593155
100
AcDbArc
 50
95.3908668645
 51
101.3013898433
  0
ARC
  5
2B9
100
AcDbEntity
  8
0
100
AcDbCircle
 62
7
  6
CONTINUOUS
 10
384.120168374
 20
1172.8508980959
 40
1.9646541708
100
AcDbArc
 50
33.4566352009
 51
38.7152832597
  0
ARC
  5
2BA
100
AcDbEntity
  8
0
100
AcDbCircle
 62
7
  6
CONTINUOUS
 10
586.3410634954
 20
175.8211956078
 40
3.4671674664
100
AcDbArc
 50
299.9519593966
 51
304.8434709691
  0
ARC
  5
2BB
100
AcDbEntity
  8
0
100
AcDbCircle
 62
7
  6
CONTINUOUS
 10
566.4017431724
 20
168.984425366
 40
2.4579300872
100
AcDbArc
 50
97.649264635
 51
103.0526594121
  0
ARC
  5
2BC
100
AcDbEntity
  8
0
100
AcDbCircle
 62
7
  6
CONTINUOUS
 10
566.4017431724
 20
373.1100296484
 40
2.4579300872
100
AcDbArc
 50
97.649264635
 51
103.0526594121
  0
ARC
  5
2BD
100
AcDbEntity
  8
0
100
AcDbCircle
 62
7
  6
CONTINUOUS
 10
570.4621785826
 20
366.086023839
 40
2.4452056486
100
AcDbArc
 50
316.9361858047
 51
322.289351648
  0
ARC
  5
2BE
100
AcDbEntity
  8
0
100
AcDbCircle
 62
7
  6
CONTINUOUS
 10
570.4621785825
 20
161.9604195566
 40
2.4452056486
100
AcDbArc
 50
316.9361858048
 51
322.2893516479
  0
ARC
  5
2BF
100
AcDbEntity
  8
0
100
AcDbCircle
 62
7
  6
CONTINUOUS
 10
625.0669264233
 20
202.0789554931
 40
2.131659385
100
AcDbArc
 50
95.3908665335
 51
101.301389633
  0
ARC
  5
2C0
100
AcDbEntity
  8
0
100
AcDbCircle
 62
7
  6
CONTINUOUS
 10
625.0669264232
 20
406.2045597756
 40
2.1316593849
100
AcDbArc
 50
95.3908665334
 51
101.3013896332
  0
ARC
  5
2C1
100
AcDbEntity
  8
0
100
AcDbCircle
 62
7
  6
CONTINUOUS
 10
628.4542287984
 20
400.3452444698
 40
2.1207416574
100
AcDbArc
 50
318.6977618148
 51
324.5539363772
  0
ARC
  5
2C2
100
AcDbEntity
  8
0
100
AcDbCircle
 62
7
  6
CONTINUOUS
 10
628.4542287984
 20
196.2196401874
 40
2.1207416575
100
AcDbArc
 50
318.6977618148
 51
324.553936377
  0
ARC
  5
2C3
100
AcDbEntity
  8
0
100
AcDbCircle
 62
7
  6
CONTINUOUS
 10
688.323894495
 20
1017.3403660557
 40
88.3827891506
100
AcDbArc
 50
119.0733964064
 51
119.2152716501
  0
ARC
  5
2C4
100
AcDbEntity
  8
0
100
AcDbCircle
 62
7
  6
CONTINUOUS
 10
539.6199751561
 20
1122.7616558014
 40
77.2920337917
100
AcDbArc
 50
300.8414253037
 51
301.2106755145
  0
ARC
  5
2C5
100
AcDbEntity
  8
0
100
AcDbCircle
 62
7
  6
CONTINUOUS
 10
527.0216277864
 20
1085.9668779095
 40
5.5780700441
100
AcDbArc
 50
103.7078407585
 51
108.6047289664
  0
ARC
  5
2C6
100
AcDbEntity
  8
0
100
AcDbCircle
 62
7
  6
CONTINUOUS
 10
586.3410521694
 20
1119.7317922497
 40
3.4671875364
100
AcDbArc
 50
55.1563961792
 51
60.0484648898
  0
ARC
  5
2C7
100
AcDbEntity
  8
0
100
AcDbCircle
 62
7
  6
CONTINUOUS
 10
526.163790499
 20
1087.8887576753
 40
3.4671679178
100
AcDbArc
 50
119.9519596112
 51
124.8434604029
  0
ARC
  5
2C8
100
AcDbEntity
  8
0
100
AcDbCircle
 62
7
  6
CONTINUOUS
 10
566.4017431724
 20
801.7737986414
 40
2.4579300872
100
AcDbArc
 50
97.649264635
 51
103.0526594121
  0
ARC
  5
2C9
100
AcDbEntity
  8
0
100
AcDbCircle
 62
7
  6
CONTINUOUS
 10
566.4017431724
 20
1005.8994029237
 40
2.4579300873
100
AcDbArc
 50
97.6492646351
 51
103.0526594121
  0
ARC
  5
2CA
100
AcDbEntity
  8
0
100
AcDbCircle
 62
7
  6
CONTINUOUS
 10
570.4621785825
 20
998.8753971144
 40
2.4452056486
100
AcDbArc
 50
316.9361858048
 51
322.2893516479
  0
ARC
  5
2CB
100
AcDbEntity
  8
0
100
AcDbCircle
 62
7
  6
CONTINUOUS
 10
570.4621785825
 20
794.7497928321
 40
2.4452056487
100
AcDbArc
 50
316.9361858049
 51
322.2893516478
  0
ARC
  5
2CC
100
AcDbEntity
  8
0
100
AcDbCircle
 62
7
  6
CONTINUOUS
 10
625.0669264233
 20
834.8683287685
 40
2.131659385
100
AcDbArc
 50
95.3908665335
 51
101.3013896331
  0
ARC
  5
2CD
100
AcDbEntity
  8
0
100
AcDbCircle
 62
7
  6
CONTINUOUS
 10
625.0669264233
 20
1038.9939330509
 40
2.131659385
100
AcDbArc
 50
95.3908665334
 51
101.301389633
  0
ARC
  5
2CE
100
AcDbEntity
  8
0
100
AcDbCircle
 62
7
  6
CONTINUOUS
 10
628.4542287984
 20
1033.1346177452
 40
2.1207416574
100
AcDbArc
 50
318.6977618148
 51
324.5539363772
  0
ARC
  5
2CF
100
AcDbEntity
  8
0
100
AcDbCircle
 62
7
  6
CONTINUOUS
 10
628.4542287983
 20
829.0090134629
 40
2.1207416575
100
AcDbArc
 50
318.697761815
 51
324.553936377
  0
ARC
  5
2D0
100
AcDbEntity
  8
0
100
AcDbCircle
 62
7
  6
CONTINUOUS
 10
530.7747253695
 20
1088.1817656084
 40
1.9646541708
100
AcDbArc
 50
33.4566352009
 51
38.7152832599
  0
SPLINE
  5
2D1
100
AcDbEntity
  8
0
100
AcDbSpline
 62
7
  6
CONTINUOUS
 70
0
 71
3
 72
8
 73
4
 74
0
 42
0.0000001
 43
0.0000001
 44
0.0000000001
 40
0.0
 40
0.0
 40
0.0
 40
0.0
 40
1.0
 40
1.0
 40
1.0
 40
1.0
 10
645.1849346895
 20
142.1888428545
 30
0.0
 10
645.373234059
 20
142.2182266418
 30
0.0
 10
645.5596412231
 20
142.2836057784
 30
0.0
 10
645.7233461564
 20
142.3811801313
 30
0.0
  0
SPLINE
  5
2D2
100
AcDbEntity
  8
0
100
AcDbSpline
 62
7
  6
CONTINUOUS
 70
0
 71
3
 72
9
 73
5
 74
0
 42
0.0000001
 43
0.0000001
 44
0.0000000001
 40
0.0
 40
0.0
 40
0.0
 40
0.0
 40
0.4981672407
 40
1.0
 40
1.0
 40
1.0
 40
1.0
 10
433.3231468043
 20
1207.2097985948
 30
0.0
 10
433.3321480841
 20
1207.2339040522
 30
0.0
 10
433.3500085572
 20
1207.2823673384
 30
0.0
 10
433.3690950424
 20
1207.330383702
 30
0.0
 10
433.3793568401
 20
1207.3541864515
 30
0.0
  0
SPLINE
  5
2D3
100
AcDbEntity
  8
0
100
AcDbSpline
 62
7
  6
CONTINUOUS
 70
0
 71
3
 72
8
 73
4
 74
0
 42
0.0000001
 43
0.0000001
 44
0.0000000001
 40
0.0
 40
0.0
 40
0.0
 40
0.0
 40
1.0
 40
1.0
 40
1.0
 40
1.0
 10
433.3793568401
 20
1207.3541864515
 30
0.0
 10
433.4099962312
 20
1207.4252560409
 30
0.0
 10
433.4480307303
 20
1207.4943178986
 30
0.0
 10
433.4965300432
 20
1207.5546293856
 30
0.0
  0
SPLINE
  5
2D4
100
AcDbEntity
  8
0
100
AcDbSpline
 62
7
  6
CONTINUOUS
 70
0
 71
3
 72
9
 73
5
 74
0
 42
0.0000001
 43
0.0000001
 44
0.0000000001
 40
0.0
 40
0.0
 40
0.0
 40
0.0
 40
0.5000005437
 40
1.0
 40
1.0
 40
1.0
 40
1.0
 10
440.0033289956
 20
1208.2215440563
 30
0.0
 10
439.163807263
 20
1208.7062311895
 30
0.0
 10
437.1748991024
 20
1209.0895439206
 30
0.0
 10
435.1859911579
 20
1208.7062225919
 30
0.0
 10
434.3464747462
 20
1208.2215304589
 30
0.0
  0
SPLINE
  5
2D5
100
AcDbEntity
  8
0
100
AcDbSpline
 62
7
  6
CONTINUOUS
 70
0
 71
3
 72
9
 73
5
 74
0
 42
0.0000001
 43
0.0000001
 44
0.0000000001
 40
0.0
 40
0.0
 40
0.0
 40
0.0
 40
0.271147364
 40
1.0
 40
1.0
 40
1.0
 40
1.0
 10
581.0010317417
 20
1123.5523979714
 30
0.0
 10
580.912669695
 20
1123.5013824245
 30
0.0
 10
580.5949414151
 20
1123.3004576109
 30
0.0
 10
580.3091172494
 20
1123.0419269401
 30
0.0
 10
580.1467818401
 20
1122.8208659427
 30
0.0
  0
SPLINE
  5
2D6
100
AcDbEntity
  8
0
100
AcDbSpline
 62
7
  6
CONTINUOUS
 70
0
 71
3
 72
9
 73
5
 74
0
 42
0.0000001
 43
0.0000001
 44
0.0000000001
 40
0.0
 40
0.0
 40
0.0
 40
0.0
 40
0.5000005437
 40
1.0
 40
1.0
 40
1.0
 40
1.0
 10
586.6578859911
 20
1123.5524115688
 30
0.0
 10
585.8183642584
 20
1124.037098702
 30
0.0
 10
583.8294560978
 20
1124.4204114331
 30
0.0
 10
581.8405481533
 20
1124.0370901044
 30
0.0
 10
581.0010317417
 20
1123.5523979714
 30
0.0
  0
SPLINE
  5
2D7
100
AcDbEntity
  8
0
100
AcDbSpline
 62
7
  6
CONTINUOUS
 70
0
 71
3
 72
9
 73
5
 74
0
 42
0.0000001
 43
0.0000001
 44
0.0000000001
 40
0.0
 40
0.0
 40
0.0
 40
0.0
 40
0.271147364
 40
1.0
 40
1.0
 40
1.0
 40
1.0
 10
434.3464747462
 20
1208.2215304589
 30
0.0
 10
434.2581126995
 20
1208.170514912
 30
0.0
 10
433.9403844196
 20
1207.9695900984
 30
0.0
 10
433.6545602539
 20
1207.7110594277
 30
0.0
 10
433.4922248446
 20
1207.4899984302
 30
0.0
  0
SPLINE
  5
2D8
100
AcDbEntity
  8
0
100
AcDbSpline
 62
7
  6
CONTINUOUS
 70
0
 71
3
 72
9
 73
5
 74
0
 42
0.0000001
 43
0.0000001
 44
0.0000000001
 40
0.0
 40
0.0
 40
0.0
 40
0.0
 40
0.4981672407
 40
1.0
 40
1.0
 40
1.0
 40
1.0
 10
579.9777037998
 20
1122.5406661073
 30
0.0
 10
579.9867050796
 20
1122.5647715647
 30
0.0
 10
580.0045655527
 20
1122.6132348509
 30
0.0
 10
580.0236520378
 20
1122.6612512145
 30
0.0
 10
580.0339138356
 20
1122.685053964
 30
0.0
  0
SPLINE
  5
2D9
100
AcDbEntity
  8
0
100
AcDbSpline
 62
7
  6
CONTINUOUS
 70
0
 71
3
 72
8
 73
4
 74
0
 42
0.0000001
 43
0.0000001
 44
0.0000000001
 40
0.0
 40
0.0
 40
0.0
 40
0.0
 40
1.0
 40
1.0
 40
1.0
 40
1.0
 10
580.0339138356
 20
1122.685053964
 30
0.0
 10
580.0645532267
 20
1122.7561235534
 30
0.0
 10
580.1025877258
 20
1122.825185411
 30
0.0
 10
580.1510870387
 20
1122.8854968981
 30
0.0
  0
SPLINE
  5
2DA
100
AcDbEntity
  8
0
100
AcDbSpline
 62
7
  6
CONTINUOUS
 70
0
 71
3
 72
8
 73
4
 74
0
 42
0.0000001
 43
0.0000001
 44
0.0000000001
 40
0.0
 40
0.0
 40
0.0
 40
0.0
 40
1.0
 40
1.0
 40
1.0
 40
1.0
 10
586.5227016554
 20
172.2256396952
 30
0.0
 10
586.6060861949
 20
172.2267710405
 30
0.0
 10
586.6898272374
 20
172.2303872058
 30
0.0
 10
586.7722878929
 20
172.242817076
 30
0.0
  0
SPLINE
  5
2DB
100
AcDbEntity
  8
0
100
AcDbSpline
 62
7
  6
CONTINUOUS
 70
0
 71
3
 72
8
 73
4
 74
0
 42
0.0000001
 43
0.0000001
 44
0.0000000001
 40
0.0
 40
0.0
 40
0.0
 40
0.0
 40
1.0
 40
1.0
 40
1.0
 40
1.0
 10
588.0721289932
 20
172.8170880061
 30
0.0
 10
587.6796266146
 20
172.5904780049
 30
0.0
 10
587.2452925958
 20
172.431646286
 30
0.0
 10
586.8050673515
 20
172.3238875549
 30
0.0
  0
SPLINE
  5
2DC
100
AcDbEntity
  8
0
100
AcDbSpline
 62
7
  6
CONTINUOUS
 70
0
 71
3
 72
9
 73
5
 74
0
 42
0.0000001
 43
0.0000001
 44
0.0000000001
 40
0.0
 40
0.0
 40
0.0
 40
0.0
 40
0.2245236873
 40
1.0
 40
1.0
 40
1.0
 40
1.0
 10
382.6201214896
 20
1180.4967919256
 30
0.0
 10
382.531262523
 20
1180.3721423599
 30
0.0
 10
382.1940273317
 20
1179.7746503059
 30
0.0
 10
382.0911019742
 20
1179.0697200981
 30
0.0
 10
382.0911019742
 20
1178.5410018456
 30
0.0
  0
SPLINE
  5
2DD
100
AcDbEntity
  8
0
100
AcDbSpline
 62
7
  6
CONTINUOUS
 70
0
 71
3
 72
8
 73
4
 74
0
 42
0.0000001
 43
0.0000001
 44
0.0000000001
 40
0.0
 40
0.0
 40
0.0
 40
0.0
 40
1.0
 40
1.0
 40
1.0
 40
1.0
 10
382.2403147411
 20
1180.48720943
 30
0.0
 10
382.4182591203
 20
1180.5898094639
 30
0.0
 10
382.6162650837
 20
1180.6622075685
 30
0.0
 10
382.817659297
 20
1180.7025974172
 30
0.0
  0
SPLINE
  5
2DE
100
AcDbEntity
  8
0
100
AcDbSpline
 62
7
  6
CONTINUOUS
 70
0
 71
3
 72
9
 73
5
 74
0
 42
0.0000001
 43
0.0000001
 44
0.0000000001
 40
0.0
 40
0.0
 40
0.0
 40
0.0
 40
0.2245627704
 40
1.0
 40
1.0
 40
1.0
 40
1.0
 10
383.0351318519
 20
1180.7345020645
 30
0.0
 10
383.1860325785
 20
1180.7488350353
 30
0.0
 10
383.8651740472
 20
1180.7428145908
 30
0.0
 10
384.5208714199
 20
1180.4836857366
 30
0.0
 10
384.9750553789
 20
1180.2235210971
 30
0.0
  0
SPLINE
  5
2DF
100
AcDbEntity
  8
0
100
AcDbSpline
 62
7
  6
CONTINUOUS
 70
0
 71
3
 72
9
 73
5
 74
0
 42
0.0000001
 43
0.0000001
 44
0.0000000001
 40
0.0
 40
0.0
 40
0.0
 40
0.0
 40
0.4855621245
 40
1.0
 40
1.0
 40
1.0
 40
1.0
 10
384.9750553789
 20
1180.2235210971
 30
0.0
 10
385.9332511026
 20
1179.6746495661
 30
0.0
 10
387.5624964617
 20
1177.9710196018
 30
0.0
 10
388.5189074302
 20
1175.8463987947
 30
0.0
 10
388.7500382859
 20
1174.6995238546
 30
0.0
  0
SPLINE
  5
2E0
100
AcDbEntity
  8
0
100
AcDbSpline
 62
7
  6
CONTINUOUS
 70
0
 71
3
 72
9
 73
5
 74
0
 42
0.0000001
 43
0.0000001
 44
0.0000000001
 40
0.0
 40
0.0
 40
0.0
 40
0.0
 40
0.2236097662
 40
1.0
 40
1.0
 40
1.0
 40
1.0
 10
393.4537522588
 20
1187.914379052
 30
0.0
 10
393.3389809529
 20
1187.7661008392
 30
0.0
 10
392.9002739946
 20
1187.044248319
 30
0.0
 10
392.7683640282
 20
1186.1730121978
 30
0.0
 10
392.7683640282
 20
1185.5219734775
 30
0.0
  0
SPLINE
  5
2E1
100
AcDbEntity
  8
0
100
AcDbSpline
 62
7
  6
CONTINUOUS
 70
0
 71
3
 72
8
 73
4
 74
0
 42
0.0000001
 43
0.0000001
 44
0.0000000001
 40
0.0
 40
0.0
 40
0.0
 40
0.0
 40
1.0
 40
1.0
 40
1.0
 40
1.0
 10
393.0539860881
 20
1187.8851292734
 30
0.0
 10
393.2434101187
 20
1187.9943483004
 30
0.0
 10
393.4518500855
 20
1188.0747199986
 30
0.0
 10
393.6648302711
 20
1188.1242144407
 30
0.0
  0
SPLINE
  5
2E2
100
AcDbEntity
  8
0
100
AcDbSpline
 62
7
  6
CONTINUOUS
 70
0
 71
3
 72
11
 73
7
 74
0
 42
0.0000001
 43
0.0000001
 44
0.0000000001
 40
0.0
 40
0.0
 40
0.0
 40
0.0
 40
0.1980795881
 40
0.4559222641
 40
0.7401060645
 40
1.0
 40
1.0
 40
1.0
 40
1.0
 10
393.8927734601
 20
1188.1658482139
 30
0.0
 10
394.6776496678
 20
1188.271637694
 30
0.0
 10
396.5503310558
 20
1187.6631549231
 30
0.0
 10
398.7308513773
 20
1185.6103685928
 30
0.0
 10
400.3814118825
 20
1182.8152715847
 30
0.0
 10
400.9001346993
 20
1180.6416007521
 30
0.0
 10
400.9001346993
 20
1179.6024774379
 30
0.0
  0
SPLINE
  5
2E3
100
AcDbEntity
  8
0
100
AcDbSpline
 62
7
  6
CONTINUOUS
 70
0
 71
3
 72
9
 73
5
 74
0
 42
0.0000001
 43
0.0000001
 44
0.0000000001
 40
0.0
 40
0.0
 40
0.0
 40
0.0
 40
0.2807306068
 40
1.0
 40
1.0
 40
1.0
 40
1.0
 10
400.9001346993
 20
1179.6024774379
 30
0.0
 10
400.9001346993
 20
1179.3674701327
 30
0.0
 10
400.8527294315
 20
1178.5351148919
 30
0.0
 10
400.5833281414
 20
1177.6862884562
 30
0.0
 10
400.2148068651
 20
1177.2101154071
 30
0.0
  0
SPLINE
  5
2E4
100
AcDbEntity
  8
0
100
AcDbSpline
 62
7
  6
CONTINUOUS
 70
0
 71
3
 72
8
 73
4
 74
0
 42
0.0000001
 43
0.0000001
 44
0.0000000001
 40
0.0
 40
0.0
 40
0.0
 40
0.0
 40
1.0
 40
1.0
 40
1.0
 40
1.0
 10
400.0668322929
 20
1177.0361673467
 30
0.0
 10
399.9173965374
 20
1176.8764388363
 30
0.0
 10
399.7433482223
 20
1176.736213247
 30
0.0
 10
399.5538568837
 20
1176.6269554112
 30
0.0
  0
SPLINE
  5
2E5
100
AcDbEntity
  8
0
100
AcDbSpline
 62
7
  6
CONTINUOUS
 70
0
 71
3
 72
9
 73
5
 74
0
 42
0.0000001
 43
0.0000001
 44
0.0000000001
 40
0.0
 40
0.0
 40
0.0
 40
0.0
 40
0.766471999
 40
1.0
 40
1.0
 40
1.0
 40
1.0
 10
634.813499745
 20
176.221356029
 30
0.0
 10
634.0642020794
 20
175.9510344029
 30
0.0
 10
632.9350269458
 20
175.9353737211
 30
0.0
 10
631.9613848594
 20
176.3143639732
 30
0.0
 10
631.751201331
 20
176.4357107447
 30
0.0
  0
SPLINE
  5
2E6
100
AcDbEntity
  8
0
100
AcDbSpline
 62
7
  6
CONTINUOUS
 70
0
 71
3
 72
9
 73
5
 74
0
 42
0.0000001
 43
0.0000001
 44
0.0000000001
 40
0.0
 40
0.0
 40
0.0
 40
0.0
 40
0.4997671378
 40
1.0
 40
1.0
 40
1.0
 40
1.0
 10
623.9226279745
 20
1038.9226637997
 30
0.0
 10
623.9226279745
 20
1037.5931919115
 30
0.0
 10
624.8296845416
 20
1034.9664353055
 30
0.0
 10
626.6463483497
 20
1032.8647498543
 30
0.0
 10
627.79652678
 20
1032.1955108747
 30
0.0
  0
SPLINE
  5
2E7
100
AcDbEntity
  8
0
100
AcDbSpline
 62
7
  6
CONTINUOUS
 70
0
 71
3
 72
9
 73
5
 74
0
 42
0.0000001
 43
0.0000001
 44
0.0000000001
 40
0.0
 40
0.0
 40
0.0
 40
0.0
 40
0.280349595
 40
1.0
 40
1.0
 40
1.0
 40
1.0
 10
627.79652678
 20
1032.1955108747
 30
0.0
 10
627.9631222483
 20
1032.098576192
 30
0.0
 10
628.5731038524
 20
1031.7866698359
 30
0.0
 10
629.2803669528
 20
1031.6194964404
 30
0.0
 10
629.7727943917
 20
1031.6675847957
 30
0.0
  0
SPLINE
  5
2E8
100
AcDbEntity
  8
0
100
AcDbSpline
 62
7
  6
CONTINUOUS
 70
0
 71
3
 72
9
 73
5
 74
0
 42
0.0000001
 43
0.0000001
 44
0.0000000001
 40
0.0
 40
0.0
 40
0.0
 40
0.0
 40
0.2245236876
 40
1.0
 40
1.0
 40
1.0
 40
1.0
 10
624.4516474725
 20
203.9634762975
 30
0.0
 10
624.3627885087
 20
203.8388267321
 30
0.0
 10
624.025553329
 20
203.2413346831
 30
0.0
 10
623.9226279745
 20
202.5364044865
 30
0.0
 10
623.9226279745
 20
202.0076862419
 30
0.0
  0
SPLINE
  5
2E9
100
AcDbEntity
  8
0
100
AcDbSpline
 62
7
  6
CONTINUOUS
 70
0
 71
3
 72
9
 73
5
 74
0
 42
0.0000001
 43
0.0000001
 44
0.0000000001
 40
0.0
 40
0.0
 40
0.0
 40
0.0
 40
0.4997671378
 40
1.0
 40
1.0
 40
1.0
 40
1.0
 10
623.9226279745
 20
406.1332905243
 30
0.0
 10
623.9226279745
 20
404.8038186361
 30
0.0
 10
624.8296845416
 20
402.1770620301
 30
0.0
 10
626.6463483497
 20
400.0753765789
 30
0.0
 10
627.79652678
 20
399.4061375992
 30
0.0
  0
SPLINE
  5
2EA
100
AcDbEntity
  8
0
100
AcDbSpline
 62
7
  6
CONTINUOUS
 70
0
 71
3
 72
9
 73
5
 74
0
 42
0.0000001
 43
0.0000001
 44
0.0000000001
 40
0.0
 40
0.0
 40
0.0
 40
0.0
 40
0.280349595
 40
1.0
 40
1.0
 40
1.0
 40
1.0
 10
627.79652678
 20
399.4061375992
 30
0.0
 10
627.9631222483
 20
399.3092029165
 30
0.0
 10
628.5731038524
 20
398.9972965604
 30
0.0
 10
629.2803669528
 20
398.830123165
 30
0.0
 10
629.7727943917
 20
398.8782115203
 30
0.0
  0
SPLINE
  5
2EB
100
AcDbEntity
  8
0
100
AcDbSpline
 62
7
  6
CONTINUOUS
 70
0
 71
3
 72
8
 73
4
 74
0
 42
0.0000001
 43
0.0000001
 44
0.0000000001
 40
0.0
 40
0.0
 40
0.0
 40
0.0
 40
1.0
 40
1.0
 40
1.0
 40
1.0
 10
624.0718407092
 20
203.9538938077
 30
0.0
 10
624.2497850952
 20
204.0564938455
 30
0.0
 10
624.4477910665
 20
204.1288919524
 30
0.0
 10
624.6491852877
 20
204.1692818019
 30
0.0
  0
SPLINE
  5
2EC
100
AcDbEntity
  8
0
100
AcDbSpline
 62
7
  6
CONTINUOUS
 70
0
 71
3
 72
9
 73
5
 74
0
 42
0.0000001
 43
0.0000001
 44
0.0000000001
 40
0.0
 40
0.0
 40
0.0
 40
0.0
 40
0.2245627712
 40
1.0
 40
1.0
 40
1.0
 40
1.0
 10
624.8666578543
 20
204.2011864499
 30
0.0
 10
625.0175585811
 20
204.2155194198
 30
0.0
 10
625.6967000475
 20
204.2094989738
 30
0.0
 10
626.3523974192
 20
203.9503701271
 30
0.0
 10
626.806581379
 20
203.6902054933
 30
0.0
  0
SPLINE
  5
2ED
100
AcDbEntity
  8
0
100
AcDbSpline
 62
7
  6
CONTINUOUS
 70
0
 71
3
 72
9
 73
5
 74
0
 42
0.0000001
 43
0.0000001
 44
0.0000000001
 40
0.0
 40
0.0
 40
0.0
 40
0.0
 40
0.4997026048
 40
1.0
 40
1.0
 40
1.0
 40
1.0
 10
626.806581379
 20
203.6902054933
 30
0.0
 10
627.9649107491
 20
203.0266938701
 30
0.0
 10
629.7961867892
 20
200.9190655573
 30
0.0
 10
630.7108895729
 20
198.2819912626
 30
0.0
 10
630.7108895729
 20
196.9454961232
 30
0.0
  0
SPLINE
  5
2EE
100
AcDbEntity
  8
0
100
AcDbSpline
 62
7
  6
CONTINUOUS
 70
0
 71
3
 72
9
 73
5
 74
0
 42
0.0000001
 43
0.0000001
 44
0.0000000001
 40
0.0
 40
0.0
 40
0.0
 40
0.0
 40
0.4997671378
 40
1.0
 40
1.0
 40
1.0
 40
1.0
 10
623.9226279745
 20
834.7970595173
 30
0.0
 10
623.9226279745
 20
833.4675876291
 30
0.0
 10
624.8296845416
 20
830.8408310231
 30
0.0
 10
626.6463483497
 20
828.7391455719
 30
0.0
 10
627.79652678
 20
828.0699065923
 30
0.0
  0
SPLINE
  5
2EF
100
AcDbEntity
  8
0
100
AcDbSpline
 62
7
  6
CONTINUOUS
 70
0
 71
3
 72
9
 73
5
 74
0
 42
0.0000001
 43
0.0000001
 44
0.0000000001
 40
0.0
 40
0.0
 40
0.0
 40
0.0
 40
0.280349595
 40
1.0
 40
1.0
 40
1.0
 40
1.0
 10
627.79652678
 20
828.0699065923
 30
0.0
 10
627.9631222483
 20
827.9729719096
 30
0.0
 10
628.5731038524
 20
827.6610655535
 30
0.0
 10
629.2803669528
 20
827.493892158
 30
0.0
 10
629.7727943917
 20
827.5419805133
 30
0.0
  0
SPLINE
  5
2F0
100
AcDbEntity
  8
0
100
AcDbSpline
 62
7
  6
CONTINUOUS
 70
0
 71
3
 72
9
 73
5
 74
0
 42
0.0000001
 43
0.0000001
 44
0.0000000001
 40
0.0
 40
0.0
 40
0.0
 40
0.0
 40
0.4997671378
 40
1.0
 40
1.0
 40
1.0
 40
1.0
 10
623.9226279745
 20
202.0076862419
 30
0.0
 10
623.9226279745
 20
200.6782143537
 30
0.0
 10
624.8296845416
 20
198.0514577477
 30
0.0
 10
626.6463483497
 20
195.9497722965
 30
0.0
 10
627.79652678
 20
195.2805333168
 30
0.0
  0
SPLINE
  5
2F1
100
AcDbEntity
  8
0
100
AcDbSpline
 62
7
  6
CONTINUOUS
 70
0
 71
3
 72
9
 73
5
 74
0
 42
0.0000001
 43
0.0000001
 44
0.0000000001
 40
0.0
 40
0.0
 40
0.0
 40
0.0
 40
0.280349595
 40
1.0
 40
1.0
 40
1.0
 40
1.0
 10
627.79652678
 20
195.2805333168
 30
0.0
 10
627.9631222483
 20
195.1835986341
 30
0.0
 10
628.5731038524
 20
194.871692278
 30
0.0
 10
629.2803669528
 20
194.7045188826
 30
0.0
 10
629.7727943917
 20
194.7526072379
 30
0.0
  0
SPLINE
  5
2F2
100
AcDbEntity
  8
0
100
AcDbSpline
 62
7
  6
CONTINUOUS
 70
0
 71
3
 72
9
 73
5
 74
0
 42
0.0000001
 43
0.0000001
 44
0.0000000001
 40
0.0
 40
0.0
 40
0.0
 40
0.0
 40
0.2790951709
 40
1.0
 40
1.0
 40
1.0
 40
1.0
 10
630.7108895729
 20
1033.860473681
 30
0.0
 10
630.7108895729
 20
1033.6704601043
 30
0.0
 10
630.6736869906
 20
1032.9930167
 30
0.0
 10
630.466792253
 20
1032.3043931259
 30
0.0
 10
630.1819160406
 20
1031.9047226396
 30
0.0
  0
SPLINE
  5
2F3
100
AcDbEntity
  8
0
100
AcDbSpline
 62
7
  6
CONTINUOUS
 70
0
 71
3
 72
8
 73
4
 74
0
 42
0.0000001
 43
0.0000001
 44
0.0000000001
 40
0.0
 40
0.0
 40
0.0
 40
0.0
 40
1.0
 40
1.0
 40
1.0
 40
1.0
 10
630.0474112637
 20
1031.7348624773
 30
0.0
 10
629.9116771178
 20
1031.5805792359
 30
0.0
 10
629.7497519217
 20
1031.4453681981
 30
0.0
 10
629.5717314146
 20
1031.34272427
 30
0.0
  0
SPLINE
  5
2F4
100
AcDbEntity
  8
0
100
AcDbSpline
 62
7
  6
CONTINUOUS
 70
0
 71
3
 72
9
 73
5
 74
0
 42
0.0000001
 43
0.0000001
 44
0.0000000001
 40
0.0
 40
0.0
 40
0.0
 40
0.0
 40
0.2790951709
 40
1.0
 40
1.0
 40
1.0
 40
1.0
 10
630.7108895729
 20
401.0711004056
 30
0.0
 10
630.7108895729
 20
400.8810868288
 30
0.0
 10
630.6736869906
 20
400.2036434245
 30
0.0
 10
630.466792253
 20
399.5150198505
 30
0.0
 10
630.1819160406
 20
399.1153493642
 30
0.0
  0
SPLINE
  5
2F5
100
AcDbEntity
  8
0
100
AcDbSpline
 62
7
  6
CONTINUOUS
 70
0
 71
3
 72
8
 73
4
 74
0
 42
0.0000001
 43
0.0000001
 44
0.0000000001
 40
0.0
 40
0.0
 40
0.0
 40
0.0
 40
1.0
 40
1.0
 40
1.0
 40
1.0
 10
630.0474112637
 20
398.9454892019
 30
0.0
 10
629.9116771178
 20
398.7912059605
 30
0.0
 10
629.7497519217
 20
398.6559949226
 30
0.0
 10
629.5717314146
 20
398.5533509946
 30
0.0
  0
SPLINE
  5
2F6
100
AcDbEntity
  8
0
100
AcDbSpline
 62
7
  6
CONTINUOUS
 70
0
 71
3
 72
9
 73
5
 74
0
 42
0.0000001
 43
0.0000001
 44
0.0000000001
 40
0.0
 40
0.0
 40
0.0
 40
0.0
 40
0.2790951709
 40
1.0
 40
1.0
 40
1.0
 40
1.0
 10
630.7108895729
 20
829.7348693986
 30
0.0
 10
630.7108895729
 20
829.5448558219
 30
0.0
 10
630.6736869906
 20
828.8674124176
 30
0.0
 10
630.466792253
 20
828.1787888435
 30
0.0
 10
630.1819160406
 20
827.7791183572
 30
0.0
  0
SPLINE
  5
2F7
100
AcDbEntity
  8
0
100
AcDbSpline
 62
7
  6
CONTINUOUS
 70
0
 71
3
 72
8
 73
4
 74
0
 42
0.0000001
 43
0.0000001
 44
0.0000000001
 40
0.0
 40
0.0
 40
0.0
 40
0.0
 40
1.0
 40
1.0
 40
1.0
 40
1.0
 10
630.0474112637
 20
827.6092581949
 30
0.0
 10
629.9116771178
 20
827.4549749535
 30
0.0
 10
629.7497519217
 20
827.3197639157
 30
0.0
 10
629.5717314146
 20
827.2171199876
 30
0.0
  0
SPLINE
  5
2F8
100
AcDbEntity
  8
0
100
AcDbSpline
 62
7
  6
CONTINUOUS
 70
0
 71
3
 72
9
 73
5
 74
0
 42
0.0000001
 43
0.0000001
 44
0.0000000001
 40
0.0
 40
0.0
 40
0.0
 40
0.0
 40
0.2790951709
 40
1.0
 40
1.0
 40
1.0
 40
1.0
 10
630.7108895729
 20
196.9454961232
 30
0.0
 10
630.7108895729
 20
196.7554825464
 30
0.0
 10
630.6736869906
 20
196.0780391421
 30
0.0
 10
630.466792253
 20
195.3894155681
 30
0.0
 10
630.1819160406
 20
194.9897450818
 30
0.0
  0
SPLINE
  5
2F9
100
AcDbEntity
  8
0
100
AcDbSpline
 62
7
  6
CONTINUOUS
 70
0
 71
3
 72
8
 73
4
 74
0
 42
0.0000001
 43
0.0000001
 44
0.0000000001
 40
0.0
 40
0.0
 40
0.0
 40
0.0
 40
1.0
 40
1.0
 40
1.0
 40
1.0
 10
630.0474112637
 20
194.8198849195
 30
0.0
 10
629.9116771178
 20
194.6656016781
 30
0.0
 10
629.7497519217
 20
194.5303906403
 30
0.0
 10
629.5717314146
 20
194.4277467122
 30
0.0
  0
SPLINE
  5
2FA
100
AcDbEntity
  8
0
100
AcDbSpline
 62
7
  6
CONTINUOUS
 70
0
 71
3
 72
9
 73
5
 74
0
 42
0.0000001
 43
0.0000001
 44
0.0000000001
 40
0.0
 40
0.0
 40
0.0
 40
0.0
 40
0.2245236876
 40
1.0
 40
1.0
 40
1.0
 40
1.0
 10
624.4516474725
 20
836.7528495729
 30
0.0
 10
624.3627885087
 20
836.6282000075
 30
0.0
 10
624.025553329
 20
836.0307079586
 30
0.0
 10
623.9226279745
 20
835.3257777619
 30
0.0
 10
623.9226279745
 20
834.7970595173
 30
0.0
  0
SPLINE
  5
2FB
100
AcDbEntity
  8
0
100
AcDbSpline
 62
7
  6
CONTINUOUS
 70
0
 71
3
 72
8
 73
4
 74
0
 42
0.0000001
 43
0.0000001
 44
0.0000000001
 40
0.0
 40
0.0
 40
0.0
 40
0.0
 40
1.0
 40
1.0
 40
1.0
 40
1.0
 10
624.0718407092
 20
836.7432670831
 30
0.0
 10
624.2497850952
 20
836.8458671209
 30
0.0
 10
624.4477910665
 20
836.9182652279
 30
0.0
 10
624.6491852877
 20
836.9586550773
 30
0.0
  0
SPLINE
  5
2FC
100
AcDbEntity
  8
0
100
AcDbSpline
 62
7
  6
CONTINUOUS
 70
0
 71
3
 72
9
 73
5
 74
0
 42
0.0000001
 43
0.0000001
 44
0.0000000001
 40
0.0
 40
0.0
 40
0.0
 40
0.0
 40
0.2245627712
 40
1.0
 40
1.0
 40
1.0
 40
1.0
 10
624.8666578543
 20
836.9905597253
 30
0.0
 10
625.0175585811
 20
837.0048926953
 30
0.0
 10
625.6967000475
 20
836.9988722492
 30
0.0
 10
626.3523974192
 20
836.7397434025
 30
0.0
 10
626.806581379
 20
836.4795787687
 30
0.0
  0
SPLINE
  5
2FD
100
AcDbEntity
  8
0
100
AcDbSpline
 62
7
  6
CONTINUOUS
 70
0
 71
3
 72
9
 73
5
 74
0
 42
0.0000001
 43
0.0000001
 44
0.0000000001
 40
0.0
 40
0.0
 40
0.0
 40
0.0
 40
0.4997026048
 40
1.0
 40
1.0
 40
1.0
 40
1.0
 10
626.806581379
 20
836.4795787687
 30
0.0
 10
627.9649107491
 20
835.8160671456
 30
0.0
 10
629.7961867892
 20
833.7084388328
 30
0.0
 10
630.7108895729
 20
831.071364538
 30
0.0
 10
630.7108895729
 20
829.7348693986
 30
0.0
  0
SPLINE
  5
2FE
100
AcDbEntity
  8
0
100
AcDbSpline
 62
7
  6
CONTINUOUS
 70
0
 71
3
 72
11
 73
7
 74
0
 42
0.0000001
 43
0.0000001
 44
0.0000000001
 40
0.0
 40
0.0
 40
0.0
 40
0.0
 40
0.2599631815
 40
0.5441993056
 40
0.8020240112
 40
1.0
 40
1.0
 40
1.0
 40
1.0
 10
392.7683640282
 20
1185.5219734775
 30
0.0
 10
392.7683640282
 20
1184.4820485489
 30
0.0
 10
393.2878087559
 20
1182.3067941157
 30
0.0
 10
394.9403066682
 20
1179.5104360434
 30
0.0
 10
397.1228090505
 20
1177.4577387487
 30
0.0
 10
398.9974425147
 20
1176.851798299
 30
0.0
 10
399.7820434608
 20
1176.9595030794
 30
0.0
  0
SPLINE
  5
2FF
100
AcDbEntity
  8
0
100
AcDbSpline
 62
7
  6
CONTINUOUS
 70
0
 71
3
 72
9
 73
5
 74
0
 42
0.0000001
 43
0.0000001
 44
0.0000000001
 40
0.0
 40
0.0
 40
0.0
 40
0.0
 40
0.2245236876
 40
1.0
 40
1.0
 40
1.0
 40
1.0
 10
624.4516474725
 20
408.0890805799
 30
0.0
 10
624.3627885087
 20
407.9644310145
 30
0.0
 10
624.025553329
 20
407.3669389655
 30
0.0
 10
623.9226279745
 20
406.6620087689
 30
0.0
 10
623.9226279745
 20
406.1332905243
 30
0.0
  0
SPLINE
  5
300
100
AcDbEntity
  8
0
100
AcDbSpline
 62
7
  6
CONTINUOUS
 70
0
 71
3
 72
8
 73
4
 74
0
 42
0.0000001
 43
0.0000001
 44
0.0000000001
 40
0.0
 40
0.0
 40
0.0
 40
0.0
 40
1.0
 40
1.0
 40
1.0
 40
1.0
 10
624.0718407092
 20
408.0794980901
 30
0.0
 10
624.2497850952
 20
408.1820981279
 30
0.0
 10
624.4477910665
 20
408.2544962348
 30
0.0
 10
624.6491852877
 20
408.2948860843
 30
0.0
  0
SPLINE
  5
301
100
AcDbEntity
  8
0
100
AcDbSpline
 62
7
  6
CONTINUOUS
 70
0
 71
3
 72
9
 73
5
 74
0
 42
0.0000001
 43
0.0000001
 44
0.0000000001
 40
0.0
 40
0.0
 40
0.0
 40
0.0
 40
0.2245627712
 40
1.0
 40
1.0
 40
1.0
 40
1.0
 10
624.8666578543
 20
408.3267907323
 30
0.0
 10
625.0175585811
 20
408.3411237022
 30
0.0
 10
625.6967000475
 20
408.3351032562
 30
0.0
 10
626.3523974192
 20
408.0759744095
 30
0.0
 10
626.806581379
 20
407.8158097757
 30
0.0
  0
SPLINE
  5
302
100
AcDbEntity
  8
0
100
AcDbSpline
 62
7
  6
CONTINUOUS
 70
0
 71
3
 72
9
 73
5
 74
0
 42
0.0000001
 43
0.0000001
 44
0.0000000001
 40
0.0
 40
0.0
 40
0.0
 40
0.0
 40
0.4997026048
 40
1.0
 40
1.0
 40
1.0
 40
1.0
 10
626.806581379
 20
407.8158097757
 30
0.0
 10
627.9649107491
 20
407.1522981525
 30
0.0
 10
629.7961867892
 20
405.0446698397
 30
0.0
 10
630.7108895729
 20
402.407595545
 30
0.0
 10
630.7108895729
 20
401.0711004056
 30
0.0
  0
SPLINE
  5
303
100
AcDbEntity
  8
0
100
AcDbSpline
 62
7
  6
CONTINUOUS
 70
0
 71
3
 72
9
 73
5
 74
0
 42
0.0000001
 43
0.0000001
 44
0.0000000001
 40
0.0
 40
0.0
 40
0.0
 40
0.0
 40
0.2245236876
 40
1.0
 40
1.0
 40
1.0
 40
1.0
 10
624.4516474725
 20
1040.8784538553
 30
0.0
 10
624.3627885087
 20
1040.7538042899
 30
0.0
 10
624.025553329
 20
1040.156312241
 30
0.0
 10
623.9226279745
 20
1039.4513820443
 30
0.0
 10
623.9226279745
 20
1038.9226637997
 30
0.0
  0
SPLINE
  5
304
100
AcDbEntity
  8
0
100
AcDbSpline
 62
7
  6
CONTINUOUS
 70
0
 71
3
 72
8
 73
4
 74
0
 42
0.0000001
 43
0.0000001
 44
0.0000000001
 40
0.0
 40
0.0
 40
0.0
 40
0.0
 40
1.0
 40
1.0
 40
1.0
 40
1.0
 10
624.0718407092
 20
1040.8688713655
 30
0.0
 10
624.2497850952
 20
1040.9714714033
 30
0.0
 10
624.4477910665
 20
1041.0438695103
 30
0.0
 10
624.6491852877
 20
1041.0842593597
 30
0.0
  0
SPLINE
  5
305
100
AcDbEntity
  8
0
100
AcDbSpline
 62
7
  6
CONTINUOUS
 70
0
 71
3
 72
9
 73
5
 74
0
 42
0.0000001
 43
0.0000001
 44
0.0000000001
 40
0.0
 40
0.0
 40
0.0
 40
0.0
 40
0.2245627712
 40
1.0
 40
1.0
 40
1.0
 40
1.0
 10
624.8666578543
 20
1041.1161640077
 30
0.0
 10
625.0175585811
 20
1041.1304969777
 30
0.0
 10
625.6967000475
 20
1041.1244765316
 30
0.0
 10
626.3523974192
 20
1040.8653476849
 30
0.0
 10
626.806581379
 20
1040.6051830511
 30
0.0
  0
SPLINE
  5
306
100
AcDbEntity
  8
0
100
AcDbSpline
 62
7
  6
CONTINUOUS
 70
0
 71
3
 72
9
 73
5
 74
0
 42
0.0000001
 43
0.0000001
 44
0.0000000001
 40
0.0
 40
0.0
 40
0.0
 40
0.0
 40
0.4997026048
 40
1.0
 40
1.0
 40
1.0
 40
1.0
 10
626.806581379
 20
1040.6051830511
 30
0.0
 10
627.9649107491
 20
1039.941671428
 30
0.0
 10
629.7961867892
 20
1037.8340431152
 30
0.0
 10
630.7108895729
 20
1035.1969688204
 30
0.0
 10
630.7108895729
 20
1033.860473681
 30
0.0
  0
SPLINE
  5
307
100
AcDbEntity
  8
0
100
AcDbSpline
 62
7
  6
CONTINUOUS
 70
0
 71
3
 72
8
 73
4
 74
0
 42
0.0000001
 43
0.0000001
 44
0.0000000001
 40
0.0
 40
0.0
 40
0.0
 40
0.0
 40
1.0
 40
1.0
 40
1.0
 40
1.0
 10
386.1786428526
 20
1244.0141278165
 30
0.0
 10
386.2952196842
 20
1244.1605993179
 30
0.0
 10
386.4420692873
 20
1244.2877837434
 30
0.0
 10
386.6054964952
 20
1244.379083284
 30
0.0
  0
SPLINE
  5
308
100
AcDbEntity
  8
0
100
AcDbSpline
 62
7
  6
CONTINUOUS
 70
0
 71
3
 72
9
 73
5
 74
0
 42
0.0000001
 43
0.0000001
 44
0.0000000001
 40
0.0
 40
0.0
 40
0.0
 40
0.0
 40
0.7245450559
 40
1.0
 40
1.0
 40
1.0
 40
1.0
 10
589.2436033208
 20
174.4500510242
 30
0.0
 10
589.2436033032
 20
174.1472024878
 30
0.0
 10
589.0847867738
 20
173.7232379471
 30
0.0
 10
588.8144593819
 20
173.4054664573
 30
0.0
 10
588.7342729691
 20
173.3228443768
 30
0.0
  0
SPLINE
  5
309
100
AcDbEntity
  8
0
100
AcDbSpline
 62
7
  6
CONTINUOUS
 70
0
 71
3
 72
8
 73
4
 74
0
 42
0.0000001
 43
0.0000001
 44
0.0000000001
 40
0.0
 40
0.0
 40
0.0
 40
0.0
 40
1.0
 40
1.0
 40
1.0
 40
1.0
 10
588.7342729691
 20
173.3228443768
 30
0.0
 10
588.609140594
 20
173.1939110972
 30
0.0
 10
588.4693520695
 20
173.0784178329
 30
0.0
 10
588.3219825388
 20
172.9756359118
 30
0.0
  0
SPLINE
  5
30A
100
AcDbEntity
  8
0
100
AcDbSpline
 62
7
  6
CONTINUOUS
 70
0
 71
3
 72
9
 73
5
 74
0
 42
0.0000001
 43
0.0000001
 44
0.0000000001
 40
0.0
 40
0.0
 40
0.0
 40
0.0
 40
0.277321201
 40
1.0
 40
1.0
 40
1.0
 40
1.0
 10
379.708478687
 20
1200.2647123409
 30
0.0
 10
379.6496044999
 20
1200.2103155992
 30
0.0
 10
379.4522154867
 20
1200.0004553424
 30
0.0
 10
379.3285623246
 20
1199.7087419094
 30
0.0
 10
379.3284835484
 20
1199.4998581354
 30
0.0
  0
SPLINE
  5
30B
100
AcDbEntity
  8
0
100
AcDbSpline
 62
7
  6
CONTINUOUS
 70
0
 71
3
 72
8
 73
4
 74
0
 42
0.0000001
 43
0.0000001
 44
0.0000000001
 40
0.0
 40
0.0
 40
0.0
 40
0.0
 40
1.0
 40
1.0
 40
1.0
 40
1.0
 10
588.8461936401
 20
1122.1062444388
 30
0.0
 10
588.6953247708
 20
1122.286334215
 30
0.0
 10
588.5146851017
 20
1122.4429686509
 30
0.0
 10
588.3219892776
 20
1122.5773638242
 30
0.0
  0
SPLINE
  5
30C
100
AcDbEntity
  8
0
100
AcDbSpline
 62
7
  6
CONTINUOUS
 70
0
 71
3
 72
8
 73
4
 74
0
 42
0.0000001
 43
0.0000001
 44
0.0000000001
 40
0.0
 40
0.0
 40
0.0
 40
0.0
 40
1.0
 40
1.0
 40
1.0
 40
1.0
 10
442.1916366446
 20
1206.7753769263
 30
0.0
 10
442.0407677753
 20
1206.9554667025
 30
0.0
 10
441.8601281062
 20
1207.1121011384
 30
0.0
 10
441.6674322821
 20
1207.2464963117
 30
0.0
  0
SPLINE
  5
30D
100
AcDbEntity
  8
0
100
AcDbSpline
 62
7
  6
CONTINUOUS
 70
0
 71
3
 72
9
 73
5
 74
0
 42
0.0000001
 43
0.0000001
 44
0.0000000001
 40
0.0
 40
0.0
 40
0.0
 40
0.0
 40
0.5235284062
 40
1.0
 40
1.0
 40
1.0
 40
1.0
 10
388.7017254397
 20
1244.1581834296
 30
0.0
 10
388.3722002636
 20
1244.3479858595
 30
0.0
 10
387.6855857758
 20
1244.6465473358
 30
0.0
 10
386.9134333974
 20
1244.5370656852
 30
0.0
 10
386.6054964952
 20
1244.379083284
 30
0.0
  0
SPLINE
  5
30E
100
AcDbEntity
  8
0
100
AcDbSpline
 62
7
  6
CONTINUOUS
 70
0
 71
3
 72
8
 73
4
 74
0
 42
0.0000001
 43
0.0000001
 44
0.0000000001
 40
0.0
 40
0.0
 40
0.0
 40
0.0
 40
1.0
 40
1.0
 40
1.0
 40
1.0
 10
383.8490658054
 20
1173.7701136763
 30
0.0
 10
384.0937611307
 20
1173.4436701533
 30
0.0
 10
384.3607203071
 20
1173.1323887734
 30
0.0
 10
384.6495917325
 20
1172.8443011557
 30
0.0
  0
SPLINE
  5
30F
100
AcDbEntity
  8
0
100
AcDbSpline
 62
7
  6
CONTINUOUS
 70
0
 71
3
 72
9
 73
5
 74
0
 42
0.0000001
 43
0.0000001
 44
0.0000000001
 40
0.0
 40
0.0
 40
0.0
 40
0.0
 40
0.5221966863
 40
1.0
 40
1.0
 40
1.0
 40
1.0
 10
646.5997944317
 20
144.3410767185
 30
0.0
 10
646.5998070221
 20
143.9547093417
 30
0.0
 10
646.5111903886
 20
143.1972955881
 30
0.0
 10
646.0208826988
 20
142.5720970333
 30
0.0
 10
645.7233461564
 20
142.3811801313
 30
0.0
  0
SPLINE
  5
310
100
AcDbEntity
  8
0
100
AcDbSpline
 62
7
  6
CONTINUOUS
 70
0
 71
3
 72
12
 73
8
 74
0
 42
0.0000001
 43
0.0000001
 44
0.0000000001
 40
0.0
 40
0.0
 40
0.0
 40
0.0
 40
0.1832755849
 40
0.3014564547
 40
0.4361795015
 40
0.7288632917
 40
1.0
 40
1.0
 40
1.0
 40
1.0
 10
399.5538568837
 20
1176.6269554112
 30
0.0
 10
398.8738023316
 20
1176.2348462567
 30
0.0
 10
397.3854980589
 20
1176.3109553823
 30
0.0
 10
395.7667544141
 20
1177.2278899218
 30
0.0
 10
393.9941865419
 20
1178.7844792326
 30
0.0
 10
392.3480868712
 20
1181.3418056329
 30
0.0
 10
391.7077082724
 20
1183.748284499
 30
0.0
 10
391.7077082724
 20
1184.9096072467
 30
0.0
  0
SPLINE
  5
311
100
AcDbEntity
  8
0
100
AcDbSpline
 62
7
  6
CONTINUOUS
 70
0
 71
3
 72
8
 73
4
 74
0
 42
0.0000001
 43
0.0000001
 44
0.0000000001
 40
0.0
 40
0.0
 40
0.0
 40
0.0
 40
1.0
 40
1.0
 40
1.0
 40
1.0
 10
391.7077082724
 20
1184.9096072467
 30
0.0
 10
391.7077082724
 20
1185.2951355284
 30
0.0
 10
391.7446647467
 20
1185.6839630133
 30
0.0
 10
391.8317955634
 20
1186.0595163075
 30
0.0
  0
SPLINE
  5
312
100
AcDbEntity
  8
0
100
AcDbSpline
 62
7
  6
CONTINUOUS
 70
0
 71
3
 72
9
 73
5
 74
0
 42
0.0000001
 43
0.0000001
 44
0.0000000001
 40
0.0
 40
0.0
 40
0.0
 40
0.0
 40
0.2787808137
 40
1.0
 40
1.0
 40
1.0
 40
1.0
 10
391.8317955634
 20
1186.0595163075
 30
0.0
 10
391.8786488125
 20
1186.2614642831
 30
0.0
 10
392.0932037089
 20
1186.9712140986
 30
0.0
 10
392.5893605411
 20
1187.6172332203
 30
0.0
 10
393.0539860881
 20
1187.8851292734
 30
0.0
  0
SPLINE
  5
313
100
AcDbEntity
  8
0
100
AcDbSpline
 62
7
  6
CONTINUOUS
 70
0
 71
3
 72
12
 73
8
 74
0
 42
0.0000001
 43
0.0000001
 44
0.0000000001
 40
0.0
 40
0.0
 40
0.0
 40
0.0
 40
0.1832755856
 40
0.3014564557
 40
0.4361795025
 40
0.7288632923
 40
1.0
 40
1.0
 40
1.0
 40
1.0
 10
629.5717314146
 20
194.4277467122
 30
0.0
 10
628.9963006363
 20
194.095962041
 30
0.0
 10
627.7369662471
 20
194.1603620653
 30
0.0
 10
626.3672600761
 20
194.9362297481
 30
0.0
 10
624.8673949453
 20
196.2533437747
 30
0.0
 10
623.4745413686
 20
198.4172353395
 30
0.0
 10
622.9326825508
 20
200.4534866876
 30
0.0
 10
622.9326825508
 20
201.4361443967
 30
0.0
  0
SPLINE
  5
314
100
AcDbEntity
  8
0
100
AcDbSpline
 62
7
  6
CONTINUOUS
 70
0
 71
3
 72
9
 73
5
 74
0
 42
0.0000001
 43
0.0000001
 44
0.0000000001
 40
0.0
 40
0.0
 40
0.0
 40
0.0
 40
0.2335270221
 40
1.0
 40
1.0
 40
1.0
 40
1.0
 10
631.751201331
 20
1053.1690377017
 30
0.0
 10
631.9613839667
 20
1053.0476914455
 30
0.0
 10
632.9350251511
 20
1052.6686992404
 30
0.0
 10
634.0642008867
 20
1052.6843609294
 30
0.0
 10
634.8134994679
 20
1052.9546828859
 30
0.0
  0
SPLINE
  5
315
100
AcDbEntity
  8
0
100
AcDbSpline
 62
7
  6
CONTINUOUS
 70
0
 71
3
 72
8
 73
4
 74
0
 42
0.0000001
 43
0.0000001
 44
0.0000000001
 40
0.0
 40
0.0
 40
0.0
 40
0.0
 40
1.0
 40
1.0
 40
1.0
 40
1.0
 10
622.9326825508
 20
1038.3511219545
 30
0.0
 10
622.9326825508
 20
1038.7103423954
 30
0.0
 10
622.9705148274
 20
1039.0735654047
 30
0.0
 10
623.0616112389
 20
1039.4210431292
 30
0.0
  0
SPLINE
  5
316
100
AcDbEntity
  8
0
100
AcDbSpline
 62
7
  6
CONTINUOUS
 70
0
 71
3
 72
9
 73
5
 74
0
 42
0.0000001
 43
0.0000001
 44
0.0000000001
 40
0.0
 40
0.0
 40
0.0
 40
0.0
 40
0.2768213698
 40
1.0
 40
1.0
 40
1.0
 40
1.0
 10
623.0616112389
 20
1039.4210431292
 30
0.0
 10
623.1035202836
 20
1039.5809007924
 30
0.0
 10
623.2919810641
 20
1040.1459133677
 30
0.0
 10
623.6978265633
 20
1040.6532204739
 30
0.0
 10
624.0718407092
 20
1040.8688713655
 30
0.0
  0
SPLINE
  5
317
100
AcDbEntity
  8
0
100
AcDbSpline
 62
7
  6
CONTINUOUS
 70
0
 71
3
 72
8
 73
4
 74
0
 42
0.0000001
 43
0.0000001
 44
0.0000000001
 40
0.0
 40
0.0
 40
0.0
 40
0.0
 40
1.0
 40
1.0
 40
1.0
 40
1.0
 10
622.9326825508
 20
405.5617486791
 30
0.0
 10
622.9326825508
 20
405.92096912
 30
0.0
 10
622.9705148274
 20
406.2841921293
 30
0.0
 10
623.0616112389
 20
406.6316698538
 30
0.0
  0
SPLINE
  5
318
100
AcDbEntity
  8
0
100
AcDbSpline
 62
7
  6
CONTINUOUS
 70
0
 71
3
 72
9
 73
5
 74
0
 42
0.0000001
 43
0.0000001
 44
0.0000000001
 40
0.0
 40
0.0
 40
0.0
 40
0.0
 40
0.2768213698
 40
1.0
 40
1.0
 40
1.0
 40
1.0
 10
623.0616112389
 20
406.6316698538
 30
0.0
 10
623.1035202836
 20
406.791527517
 30
0.0
 10
623.2919810641
 20
407.3565400923
 30
0.0
 10
623.6978265633
 20
407.8638471985
 30
0.0
 10
624.0718407092
 20
408.0794980901
 30
0.0
  0
SPLINE
  5
319
100
AcDbEntity
  8
0
100
AcDbSpline
 62
7
  6
CONTINUOUS
 70
0
 71
3
 72
8
 73
4
 74
0
 42
0.0000001
 43
0.0000001
 44
0.0000000001
 40
0.0
 40
0.0
 40
0.0
 40
0.0
 40
1.0
 40
1.0
 40
1.0
 40
1.0
 10
622.9326825508
 20
834.2255176721
 30
0.0
 10
622.9326825508
 20
834.584738113
 30
0.0
 10
622.9705148274
 20
834.9479611224
 30
0.0
 10
623.0616112389
 20
835.2954388468
 30
0.0
  0
SPLINE
  5
31A
100
AcDbEntity
  8
0
100
AcDbSpline
 62
7
  6
CONTINUOUS
 70
0
 71
3
 72
9
 73
5
 74
0
 42
0.0000001
 43
0.0000001
 44
0.0000000001
 40
0.0
 40
0.0
 40
0.0
 40
0.0
 40
0.2768213698
 40
1.0
 40
1.0
 40
1.0
 40
1.0
 10
623.0616112389
 20
835.2954388468
 30
0.0
 10
623.1035202836
 20
835.45529651
 30
0.0
 10
623.2919810641
 20
836.0203090853
 30
0.0
 10
623.6978265633
 20
836.5276161915
 30
0.0
 10
624.0718407092
 20
836.7432670831
 30
0.0
  0
SPLINE
  5
31B
100
AcDbEntity
  8
0
100
AcDbSpline
 62
7
  6
CONTINUOUS
 70
0
 71
3
 72
8
 73
4
 74
0
 42
0.0000001
 43
0.0000001
 44
0.0000000001
 40
0.0
 40
0.0
 40
0.0
 40
0.0
 40
1.0
 40
1.0
 40
1.0
 40
1.0
 10
622.9326825508
 20
201.4361443967
 30
0.0
 10
622.9326825508
 20
201.7953648376
 30
0.0
 10
622.9705148274
 20
202.1585878469
 30
0.0
 10
623.0616112389
 20
202.5060655714
 30
0.0
  0
SPLINE
  5
31C
100
AcDbEntity
  8
0
100
AcDbSpline
 62
7
  6
CONTINUOUS
 70
0
 71
3
 72
9
 73
5
 74
0
 42
0.0000001
 43
0.0000001
 44
0.0000000001
 40
0.0
 40
0.0
 40
0.0
 40
0.0
 40
0.2768213698
 40
1.0
 40
1.0
 40
1.0
 40
1.0
 10
623.0616112389
 20
202.5060655714
 30
0.0
 10
623.1035202836
 20
202.6659232346
 30
0.0
 10
623.2919810641
 20
203.2309358099
 30
0.0
 10
623.6978265633
 20
203.7382429161
 30
0.0
 10
624.0718407092
 20
203.9538938077
 30
0.0
  0
SPLINE
  5
31D
100
AcDbEntity
  8
0
100
AcDbSpline
 62
7
  6
CONTINUOUS
 70
0
 71
3
 72
12
 73
8
 74
0
 42
0.0000001
 43
0.0000001
 44
0.0000000001
 40
0.0
 40
0.0
 40
0.0
 40
0.0
 40
0.1832755856
 40
0.3014564557
 40
0.4361795025
 40
0.7288632923
 40
1.0
 40
1.0
 40
1.0
 40
1.0
 10
629.5717314146
 20
827.2171199876
 30
0.0
 10
628.9963006363
 20
826.8853353164
 30
0.0
 10
627.7369662471
 20
826.9497353407
 30
0.0
 10
626.3672600761
 20
827.7256030235
 30
0.0
 10
624.8673949453
 20
829.0427170501
 30
0.0
 10
623.4745413686
 20
831.2066086149
 30
0.0
 10
622.9326825508
 20
833.242859963
 30
0.0
 10
622.9326825508
 20
834.2255176721
 30
0.0
  0
LINE
  5
31E
100
AcDbEntity
  8
0
100
AcDbLine
 62
7
  6
CONTINUOUS
 10
645.5561487988
 20
1094.6872641731
 11
645.3760795402
 21
1094.5867420784
  0
SPLINE
  5
31F
100
AcDbEntity
  8
0
100
AcDbSpline
 62
7
  6
CONTINUOUS
 70
0
 71
3
 72
12
 73
8
 74
0
 42
0.0000001
 43
0.0000001
 44
0.0000000001
 40
0.0
 40
0.0
 40
0.0
 40
0.0
 40
0.1832755856
 40
0.3014564557
 40
0.4361795025
 40
0.7288632923
 40
1.0
 40
1.0
 40
1.0
 40
1.0
 10
629.5717314146
 20
398.5533509946
 30
0.0
 10
628.9963006363
 20
398.2215663234
 30
0.0
 10
627.736966247
 20
398.2859663477
 30
0.0
 10
626.3672600761
 20
399.0618340305
 30
0.0
 10
624.8673949453
 20
400.3789480571
 30
0.0
 10
623.4745413686
 20
402.5428396219
 30
0.0
 10
622.9326825508
 20
404.57909097
 30
0.0
 10
622.9326825508
 20
405.5617486791
 30
0.0
  0
SPLINE
  5
320
100
AcDbEntity
  8
0
100
AcDbSpline
 62
7
  6
CONTINUOUS
 70
0
 71
3
 72
8
 73
4
 74
0
 42
0.0000001
 43
0.0000001
 44
0.0000000001
 40
0.0
 40
0.0
 40
0.0
 40
0.0
 40
1.0
 40
1.0
 40
1.0
 40
1.0
 10
381.7633926553
 20
1175.0806290081
 30
0.0
 10
381.6112584918
 20
1175.4295333727
 30
0.0
 10
381.4802063053
 20
1175.7886715664
 30
0.0
 10
381.3754886917
 20
1176.154613202
 30
0.0
  0
SPLINE
  5
321
100
AcDbEntity
  8
0
100
AcDbSpline
 62
7
  6
CONTINUOUS
 70
0
 71
3
 72
12
 73
8
 74
0
 42
0.0000001
 43
0.0000001
 44
0.0000000001
 40
0.0
 40
0.0
 40
0.0
 40
0.0
 40
0.1832755856
 40
0.3014564557
 40
0.4361795025
 40
0.7288632923
 40
1.0
 40
1.0
 40
1.0
 40
1.0
 10
629.5717314146
 20
1031.34272427
 30
0.0
 10
628.9963006363
 20
1031.0109395988
 30
0.0
 10
627.7369662471
 20
1031.0753396231
 30
0.0
 10
626.3672600761
 20
1031.8512073059
 30
0.0
 10
624.8673949453
 20
1033.1683213325
 30
0.0
 10
623.4745413686
 20
1035.3322128973
 30
0.0
 10
622.9326825508
 20
1037.3684642454
 30
0.0
 10
622.9326825508
 20
1038.3511219545
 30
0.0
  0
SPLINE
  5
322
100
AcDbEntity
  8
0
100
AcDbSpline
 62
7
  6
CONTINUOUS
 70
0
 71
3
 72
9
 73
5
 74
0
 42
0.0000001
 43
0.0000001
 44
0.0000000001
 40
0.0
 40
0.0
 40
0.0
 40
0.0
 40
0.2768097453
 40
1.0
 40
1.0
 40
1.0
 40
1.0
 10
381.2302335933
 20
1179.0399467197
 30
0.0
 10
381.2721548172
 20
1179.1997399276
 30
0.0
 10
381.4606525786
 20
1179.7645435039
 30
0.0
 10
381.8664129947
 20
1180.2716233463
 30
0.0
 10
382.2403147411
 20
1180.48720943
 30
0.0
  0
SPLINE
  5
323
100
AcDbEntity
  8
0
100
AcDbSpline
 62
7
  6
CONTINUOUS
 70
0
 71
3
 72
9
 73
5
 74
0
 42
0.0000001
 43
0.0000001
 44
0.0000000001
 40
0.0
 40
0.0
 40
0.0
 40
0.0
 40
0.2208390513
 40
1.0
 40
1.0
 40
1.0
 40
1.0
 10
379.3284835484
 20
1199.4998581354
 30
0.0
 10
379.3284476567
 20
1199.4046871329
 30
0.0
 10
379.405380533
 20
1198.9707440582
 30
0.0
 10
379.7700484218
 20
1198.6471330102
 30
0.0
 10
380.06084485
 20
1198.4792454123
 30
0.0
  0
SPLINE
  5
324
100
AcDbEntity
  8
0
100
AcDbSpline
 62
7
  6
CONTINUOUS
 70
0
 71
3
 72
11
 73
7
 74
0
 42
0.0000001
 43
0.0000001
 44
0.0000000001
 40
0.0
 40
0.0
 40
0.0
 40
0.0
 40
0.4508169253
 40
0.7669615968
 40
0.9433423264
 40
1.0
 40
1.0
 40
1.0
 40
1.0
 10
645.7233461564
 20
1094.7807073978
 30
0.0
 10
645.8571807255
 20
1094.8493446641
 30
0.0
 10
646.0794008021
 20
1094.9694563556
 30
0.0
 10
646.3515598102
 20
1095.1483246085
 30
0.0
 10
646.5148621702
 20
1095.1982554497
 30
0.0
 10
646.5819341994
 20
1095.2704544188
 30
0.0
 10
646.5997306026
 20
1095.2640816249
 30
0.0
  0
SPLINE
  5
325
100
AcDbEntity
  8
0
100
AcDbSpline
 62
7
  6
CONTINUOUS
 70
0
 71
3
 72
8
 73
4
 74
0
 42
0.0000001
 43
0.0000001
 44
0.0000000001
 40
0.0
 40
0.0
 40
0.0
 40
0.0
 40
1.0
 40
1.0
 40
1.0
 40
1.0
 10
323.4042581225
 20
310.7581025592
 30
0.0
 10
323.5936821531
 20
310.8673215862
 30
0.0
 10
323.80212212
 20
310.9476932845
 30
0.0
 10
324.0151023055
 20
310.9971877266
 30
0.0
  0
SPLINE
  5
326
100
AcDbEntity
  8
0
100
AcDbSpline
 62
7
  6
CONTINUOUS
 70
0
 71
3
 72
11
 73
7
 74
0
 42
0.0000001
 43
0.0000001
 44
0.0000000001
 40
0.0
 40
0.0
 40
0.0
 40
0.0
 40
0.1980795881
 40
0.4559222641
 40
0.7401060645
 40
1.0
 40
1.0
 40
1.0
 40
1.0
 10
324.2430454945
 20
311.0388214997
 30
0.0
 10
325.0279217022
 20
311.1446109799
 30
0.0
 10
326.9006030902
 20
310.5361282089
 30
0.0
 10
329.0811234118
 20
308.4833418787
 30
0.0
 10
330.7316839169
 20
305.6882448705
 30
0.0
 10
331.2504067338
 20
303.5145740379
 30
0.0
 10
331.2504067338
 20
302.4754507237
 30
0.0
  0
SPLINE
  5
327
100
AcDbEntity
  8
0
100
AcDbSpline
 62
7
  6
CONTINUOUS
 70
0
 71
3
 72
8
 73
4
 74
0
 42
0.0000001
 43
0.0000001
 44
0.0000000001
 40
0.0
 40
0.0
 40
0.0
 40
0.0
 40
1.0
 40
1.0
 40
1.0
 40
1.0
 10
320.1269506058
 20
1205.997906024
 30
0.0
 10
320.2906555392
 20
1206.0954803768
 30
0.0
 10
320.4770627032
 20
1206.1608595135
 30
0.0
 10
320.6653620728
 20
1206.1902433008
 30
0.0
  0
SPLINE
  5
328
100
AcDbEntity
  8
0
100
AcDbSpline
 62
7
  6
CONTINUOUS
 70
0
 71
3
 72
8
 73
4
 74
0
 42
0.0000001
 43
0.0000001
 44
0.0000000001
 40
0.0
 40
0.0
 40
0.0
 40
0.0
 40
1.0
 40
1.0
 40
1.0
 40
1.0
 10
320.1269506058
 20
1205.997906024
 30
0.0
 10
319.9370625554
 20
1205.8760278799
 30
0.0
 10
319.7660659081
 20
1205.7153352924
 30
0.0
 10
319.6386322735
 20
1205.5291299688
 30
0.0
  0
SPLINE
  5
329
100
AcDbEntity
  8
0
100
AcDbSpline
 62
7
  6
CONTINUOUS
 70
0
 71
3
 72
8
 73
4
 74
0
 42
0.0000001
 43
0.0000001
 44
0.0000000001
 40
0.0
 40
0.0
 40
0.0
 40
0.0
 40
1.0
 40
1.0
 40
1.0
 40
1.0
 10
319.6386322735
 20
1205.5291299688
 30
0.0
 10
319.3485736862
 20
1205.105297962
 30
0.0
 10
319.250494035
 20
1204.5516520417
 30
0.0
 10
319.2505019662
 20
1204.0380689871
 30
0.0
  0
SPLINE
  5
32A
100
AcDbEntity
  8
0
100
AcDbSpline
 62
7
  6
CONTINUOUS
 70
0
 71
3
 72
9
 73
5
 74
0
 42
0.0000001
 43
0.0000001
 44
0.0000000001
 40
0.0
 40
0.0
 40
0.0
 40
0.0
 40
0.2236097662
 40
1.0
 40
1.0
 40
1.0
 40
1.0
 10
323.8040242933
 20
310.7873523379
 30
0.0
 10
323.6892529874
 20
310.639074125
 30
0.0
 10
323.250546029
 20
309.9172216049
 30
0.0
 10
323.1186360627
 20
309.0459854837
 30
0.0
 10
323.1186360627
 20
308.3949467633
 30
0.0
  0
SPLINE
  5
32B
100
AcDbEntity
  8
0
100
AcDbSpline
 62
7
  6
CONTINUOUS
 70
0
 71
3
 72
8
 73
4
 74
0
 42
0.0000001
 43
0.0000001
 44
0.0000000001
 40
0.0
 40
0.0
 40
0.0
 40
0.0
 40
1.0
 40
1.0
 40
1.0
 40
1.0
 10
323.4042581225
 20
943.5474758346
 30
0.0
 10
323.5936821531
 20
943.6566948616
 30
0.0
 10
323.80212212
 20
943.7370665599
 30
0.0
 10
324.0151023055
 20
943.786561002
 30
0.0
  0
SPLINE
  5
32C
100
AcDbEntity
  8
0
100
AcDbSpline
 62
7
  6
CONTINUOUS
 70
0
 71
3
 72
11
 73
7
 74
0
 42
0.0000001
 43
0.0000001
 44
0.0000000001
 40
0.0
 40
0.0
 40
0.0
 40
0.0
 40
0.1980795881
 40
0.4559222641
 40
0.7401060645
 40
1.0
 40
1.0
 40
1.0
 40
1.0
 10
324.2430454945
 20
943.8281947751
 30
0.0
 10
325.0279217022
 20
943.9339842553
 30
0.0
 10
326.9006030902
 20
943.3255014843
 30
0.0
 10
329.0811234118
 20
941.2727151541
 30
0.0
 10
330.7316839169
 20
938.4776181459
 30
0.0
 10
331.2504067338
 20
936.3039473133
 30
0.0
 10
331.2504067338
 20
935.2648239992
 30
0.0
  0
SPLINE
  5
32D
100
AcDbEntity
  8
0
100
AcDbSpline
 62
7
  6
CONTINUOUS
 70
0
 71
3
 72
9
 73
5
 74
0
 42
0.0000001
 43
0.0000001
 44
0.0000000001
 40
0.0
 40
0.0
 40
0.0
 40
0.0
 40
0.2236097662
 40
1.0
 40
1.0
 40
1.0
 40
1.0
 10
323.8040242933
 20
943.5767256133
 30
0.0
 10
323.6892529874
 20
943.4284474005
 30
0.0
 10
323.250546029
 20
942.7065948803
 30
0.0
 10
323.1186360627
 20
941.8353587591
 30
0.0
 10
323.1186360627
 20
941.1843200387
 30
0.0
  0
SPLINE
  5
32E
100
AcDbEntity
  8
0
100
AcDbSpline
 62
7
  6
CONTINUOUS
 70
0
 71
3
 72
8
 73
4
 74
0
 42
0.0000001
 43
0.0000001
 44
0.0000000001
 40
0.0
 40
0.0
 40
0.0
 40
0.0
 40
1.0
 40
1.0
 40
1.0
 40
1.0
 10
323.4042581225
 20
514.8837068416
 30
0.0
 10
323.5936821531
 20
514.9929258686
 30
0.0
 10
323.80212212
 20
515.0732975669
 30
0.0
 10
324.0151023055
 20
515.122792009
 30
0.0
  0
SPLINE
  5
32F
100
AcDbEntity
  8
0
100
AcDbSpline
 62
7
  6
CONTINUOUS
 70
0
 71
3
 72
11
 73
7
 74
0
 42
0.0000001
 43
0.0000001
 44
0.0000000001
 40
0.0
 40
0.0
 40
0.0
 40
0.0
 40
0.1980795881
 40
0.4559222641
 40
0.7401060645
 40
1.0
 40
1.0
 40
1.0
 40
1.0
 10
324.2430454945
 20
515.1644257821
 30
0.0
 10
325.0279217022
 20
515.2702152623
 30
0.0
 10
326.9006030902
 20
514.6617324913
 30
0.0
 10
329.0811234118
 20
512.6089461611
 30
0.0
 10
330.7316839169
 20
509.8138491529
 30
0.0
 10
331.2504067338
 20
507.6401783203
 30
0.0
 10
331.2504067338
 20
506.6010550061
 30
0.0
  0
SPLINE
  5
330
100
AcDbEntity
  8
0
100
AcDbSpline
 62
7
  6
CONTINUOUS
 70
0
 71
3
 72
9
 73
5
 74
0
 42
0.0000001
 43
0.0000001
 44
0.0000000001
 40
0.0
 40
0.0
 40
0.0
 40
0.0
 40
0.2236097662
 40
1.0
 40
1.0
 40
1.0
 40
1.0
 10
323.8040242933
 20
514.9129566203
 30
0.0
 10
323.6892529874
 20
514.7646784074
 30
0.0
 10
323.250546029
 20
514.0428258873
 30
0.0
 10
323.1186360627
 20
513.1715897661
 30
0.0
 10
323.1186360627
 20
512.5205510457
 30
0.0
  0
SPLINE
  5
331
100
AcDbEntity
  8
0
100
AcDbSpline
 62
7
  6
CONTINUOUS
 70
0
 71
3
 72
8
 73
4
 74
0
 42
0.0000001
 43
0.0000001
 44
0.0000000001
 40
0.0
 40
0.0
 40
0.0
 40
0.0
 40
1.0
 40
1.0
 40
1.0
 40
1.0
 10
323.4042581225
 20
1147.673080117
 30
0.0
 10
323.5936821531
 20
1147.782299144
 30
0.0
 10
323.80212212
 20
1147.8626708423
 30
0.0
 10
324.0151023055
 20
1147.9121652844
 30
0.0
  0
SPLINE
  5
332
100
AcDbEntity
  8
0
100
AcDbSpline
 62
7
  6
CONTINUOUS
 70
0
 71
3
 72
11
 73
7
 74
0
 42
0.0000001
 43
0.0000001
 44
0.0000000001
 40
0.0
 40
0.0
 40
0.0
 40
0.0
 40
0.1980795881
 40
0.4559222641
 40
0.7401060645
 40
1.0
 40
1.0
 40
1.0
 40
1.0
 10
324.2430454945
 20
1147.9537990575
 30
0.0
 10
325.0279217022
 20
1148.0595885377
 30
0.0
 10
326.9006030902
 20
1147.4511057667
 30
0.0
 10
329.0811234118
 20
1145.3983194365
 30
0.0
 10
330.7316839169
 20
1142.6032224283
 30
0.0
 10
331.2504067338
 20
1140.4295515957
 30
0.0
 10
331.2504067338
 20
1139.3904282816
 30
0.0
  0
SPLINE
  5
333
100
AcDbEntity
  8
0
100
AcDbSpline
 62
7
  6
CONTINUOUS
 70
0
 71
3
 72
8
 73
4
 74
0
 42
0.0000001
 43
0.0000001
 44
0.0000000001
 40
0.0
 40
0.0
 40
0.0
 40
0.0
 40
1.0
 40
1.0
 40
1.0
 40
1.0
 10
524.1828717224
 20
1090.7343181071
 30
0.0
 10
524.0777814878
 20
1090.6610236357
 30
0.0
 10
523.9767341061
 20
1090.5813658973
 30
0.0
 10
523.8820506863
 20
1090.4950462184
 30
0.0
  0
SPLINE
  5
334
100
AcDbEntity
  8
0
100
AcDbSpline
 62
7
  6
CONTINUOUS
 70
0
 71
3
 72
8
 73
4
 74
0
 42
0.0000001
 43
0.0000001
 44
0.0000000001
 40
0.0
 40
0.0
 40
0.0
 40
0.0
 40
1.0
 40
1.0
 40
1.0
 40
1.0
 10
525.2420140792
 20
1091.2534496219
 30
0.0
 10
524.9621993325
 20
1091.1589901332
 30
0.0
 10
524.6884870777
 20
1091.0405292206
 30
0.0
 10
524.4327247646
 20
1090.8928656616
 30
0.0
  0
SPLINE
  5
335
100
AcDbEntity
  8
0
100
AcDbSpline
 62
7
  6
CONTINUOUS
 70
0
 71
3
 72
9
 73
5
 74
0
 42
0.0000001
 43
0.0000001
 44
0.0000000001
 40
0.0
 40
0.0
 40
0.0
 40
0.0
 40
0.2236097662
 40
1.0
 40
1.0
 40
1.0
 40
1.0
 10
323.8040242933
 20
1147.7023298957
 30
0.0
 10
323.6892529874
 20
1147.5540516829
 30
0.0
 10
323.250546029
 20
1146.8321991627
 30
0.0
 10
323.1186360627
 20
1145.9609630415
 30
0.0
 10
323.1186360627
 20
1145.3099243211
 30
0.0
  0
SPLINE
  5
336
100
AcDbEntity
  8
0
100
AcDbSpline
 62
7
  6
CONTINUOUS
 70
0
 71
3
 72
8
 73
4
 74
0
 42
0.0000001
 43
0.0000001
 44
0.0000000001
 40
0.0
 40
0.0
 40
0.0
 40
0.0
 40
1.0
 40
1.0
 40
1.0
 40
1.0
 10
565.2357841228
 20
171.1397645133
 30
0.0
 10
565.4252081534
 20
171.2489835403
 30
0.0
 10
565.6336481202
 20
171.3293552385
 30
0.0
 10
565.8466283058
 20
171.3788496806
 30
0.0
  0
SPLINE
  5
337
100
AcDbEntity
  8
0
100
AcDbSpline
 62
7
  6
CONTINUOUS
 70
0
 71
3
 72
11
 73
7
 74
0
 42
0.0000001
 43
0.0000001
 44
0.0000000001
 40
0.0
 40
0.0
 40
0.0
 40
0.0
 40
0.1980795881
 40
0.4559222641
 40
0.7401060645
 40
1.0
 40
1.0
 40
1.0
 40
1.0
 10
566.0745714948
 20
171.4204834538
 30
0.0
 10
566.8594477025
 20
171.5262729339
 30
0.0
 10
568.7321290905
 20
170.917790163
 30
0.0
 10
570.912649412
 20
168.8650038327
 30
0.0
 10
572.5632099172
 20
166.0699068246
 30
0.0
 10
573.081932734
 20
163.896235992
 30
0.0
 10
573.081932734
 20
162.8571126778
 30
0.0
  0
SPLINE
  5
338
100
AcDbEntity
  8
0
100
AcDbSpline
 62
7
  6
CONTINUOUS
 70
0
 71
3
 72
8
 73
4
 74
0
 42
0.0000001
 43
0.0000001
 44
0.0000000001
 40
0.0
 40
0.0
 40
0.0
 40
0.0
 40
1.0
 40
1.0
 40
1.0
 40
1.0
 10
377.5283147269
 20
1175.4034505946
 30
0.0
 10
377.4232244924
 20
1175.3301561232
 30
0.0
 10
377.3221771106
 20
1175.2504983848
 30
0.0
 10
377.2274936908
 20
1175.1641787059
 30
0.0
  0
SPLINE
  5
339
100
AcDbEntity
  8
0
100
AcDbSpline
 62
7
  6
CONTINUOUS
 70
0
 71
3
 72
8
 73
4
 74
0
 42
0.0000001
 43
0.0000001
 44
0.0000000001
 40
0.0
 40
0.0
 40
0.0
 40
0.0
 40
1.0
 40
1.0
 40
1.0
 40
1.0
 10
378.5874570837
 20
1175.9225821094
 30
0.0
 10
378.307642337
 20
1175.8281226207
 30
0.0
 10
378.0339300823
 20
1175.7096617081
 30
0.0
 10
377.7781677691
 20
1175.5619981492
 30
0.0
  0
SPLINE
  5
33A
100
AcDbEntity
  8
0
100
AcDbSpline
 62
7
  6
CONTINUOUS
 70
0
 71
3
 72
9
 73
5
 74
0
 42
0.0000001
 43
0.0000001
 44
0.0000000001
 40
0.0
 40
0.0
 40
0.0
 40
0.0
 40
0.2236097662
 40
1.0
 40
1.0
 40
1.0
 40
1.0
 10
565.6355502935
 20
171.1690142919
 30
0.0
 10
565.5207789876
 20
171.0207360791
 30
0.0
 10
565.0820720293
 20
170.2988835589
 30
0.0
 10
564.9501620629
 20
169.4276474377
 30
0.0
 10
564.9501620629
 20
168.7766087174
 30
0.0
  0
SPLINE
  5
33B
100
AcDbEntity
  8
0
100
AcDbSpline
 62
7
  6
CONTINUOUS
 70
0
 71
3
 72
8
 73
4
 74
0
 42
0.0000001
 43
0.0000001
 44
0.0000000001
 40
0.0
 40
0.0
 40
0.0
 40
0.0
 40
1.0
 40
1.0
 40
1.0
 40
1.0
 10
565.2357841228
 20
803.9291377887
 30
0.0
 10
565.4252081534
 20
804.0383568157
 30
0.0
 10
565.6336481202
 20
804.1187285139
 30
0.0
 10
565.8466283058
 20
804.168222956
 30
0.0
  0
SPLINE
  5
33C
100
AcDbEntity
  8
0
100
AcDbSpline
 62
7
  6
CONTINUOUS
 70
0
 71
3
 72
11
 73
7
 74
0
 42
0.0000001
 43
0.0000001
 44
0.0000000001
 40
0.0
 40
0.0
 40
0.0
 40
0.0
 40
0.1980795881
 40
0.4559222641
 40
0.7401060645
 40
1.0
 40
1.0
 40
1.0
 40
1.0
 10
566.0745714948
 20
804.2098567292
 30
0.0
 10
566.8594477025
 20
804.3156462094
 30
0.0
 10
568.7321290905
 20
803.7071634384
 30
0.0
 10
570.912649412
 20
801.6543771082
 30
0.0
 10
572.5632099172
 20
798.8592801
 30
0.0
 10
573.081932734
 20
796.6856092674
 30
0.0
 10
573.081932734
 20
795.6464859532
 30
0.0
  0
SPLINE
  5
33D
100
AcDbEntity
  8
0
100
AcDbSpline
 62
7
  6
CONTINUOUS
 70
0
 71
3
 72
9
 73
5
 74
0
 42
0.0000001
 43
0.0000001
 44
0.0000000001
 40
0.0
 40
0.0
 40
0.0
 40
0.0
 40
0.2236097662
 40
1.0
 40
1.0
 40
1.0
 40
1.0
 10
565.6355502935
 20
803.9583875674
 30
0.0
 10
565.5207789876
 20
803.8101093545
 30
0.0
 10
565.0820720293
 20
803.0882568343
 30
0.0
 10
564.9501620629
 20
802.2170207131
 30
0.0
 10
564.9501620629
 20
801.5659819928
 30
0.0
  0
SPLINE
  5
33E
100
AcDbEntity
  8
0
100
AcDbSpline
 62
7
  6
CONTINUOUS
 70
0
 71
3
 72
8
 73
4
 74
0
 42
0.0000001
 43
0.0000001
 44
0.0000000001
 40
0.0
 40
0.0
 40
0.0
 40
0.0
 40
1.0
 40
1.0
 40
1.0
 40
1.0
 10
565.2357841228
 20
375.2653687956
 30
0.0
 10
565.4252081534
 20
375.3745878227
 30
0.0
 10
565.6336481202
 20
375.4549595209
 30
0.0
 10
565.8466283058
 20
375.504453963
 30
0.0
  0
SPLINE
  5
33F
100
AcDbEntity
  8
0
100
AcDbSpline
 62
7
  6
CONTINUOUS
 70
0
 71
3
 72
11
 73
7
 74
0
 42
0.0000001
 43
0.0000001
 44
0.0000000001
 40
0.0
 40
0.0
 40
0.0
 40
0.0
 40
0.1980795881
 40
0.4559222641
 40
0.7401060645
 40
1.0
 40
1.0
 40
1.0
 40
1.0
 10
566.0745714948
 20
375.5460877362
 30
0.0
 10
566.8594477025
 20
375.6518772163
 30
0.0
 10
568.7321290905
 20
375.0433944454
 30
0.0
 10
570.912649412
 20
372.9906081151
 30
0.0
 10
572.5632099172
 20
370.195511107
 30
0.0
 10
573.081932734
 20
368.0218402744
 30
0.0
 10
573.081932734
 20
366.9827169602
 30
0.0
  0
SPLINE
  5
340
100
AcDbEntity
  8
0
100
AcDbSpline
 62
7
  6
CONTINUOUS
 70
0
 71
3
 72
9
 73
5
 74
0
 42
0.0000001
 43
0.0000001
 44
0.0000000001
 40
0.0
 40
0.0
 40
0.0
 40
0.0
 40
0.2236097662
 40
1.0
 40
1.0
 40
1.0
 40
1.0
 10
565.6355502935
 20
375.2946185743
 30
0.0
 10
565.5207789876
 20
375.1463403615
 30
0.0
 10
565.0820720293
 20
374.4244878413
 30
0.0
 10
564.9501620629
 20
373.5532517201
 30
0.0
 10
564.9501620629
 20
372.9022129998
 30
0.0
  0
SPLINE
  5
341
100
AcDbEntity
  8
0
100
AcDbSpline
 62
7
  6
CONTINUOUS
 70
0
 71
3
 72
8
 73
4
 74
0
 42
0.0000001
 43
0.0000001
 44
0.0000000001
 40
0.0
 40
0.0
 40
0.0
 40
0.0
 40
1.0
 40
1.0
 40
1.0
 40
1.0
 10
525.723559935
 20
1091.4744371394
 30
0.0
 10
525.8777630671
 20
1091.4828710973
 30
0.0
 10
526.0326770907
 20
1091.4886975238
 30
0.0
 10
526.1868336149
 20
1091.4794507061
 30
0.0
  0
SPLINE
  5
342
100
AcDbEntity
  8
0
100
AcDbSpline
 62
7
  6
CONTINUOUS
 70
0
 71
3
 72
9
 73
5
 74
0
 42
0.0000001
 43
0.0000001
 44
0.0000000001
 40
0.0
 40
0.0
 40
0.0
 40
0.0
 40
0.2293766236
 40
1.0
 40
1.0
 40
1.0
 40
1.0
 10
383.4350220185
 20
1175.5620117466
 30
0.0
 10
383.17075084
 20
1175.714585331
 30
0.0
 10
381.9406376597
 20
1176.239404834
 30
0.0
 10
380.5420611623
 20
1176.3164186884
 30
0.0
 10
379.5299390014
 20
1176.1531725977
 30
0.0
  0
SPLINE
  5
343
100
AcDbEntity
  8
0
100
AcDbSpline
 62
7
  6
CONTINUOUS
 70
0
 71
3
 72
9
 73
5
 74
0
 42
0.0000001
 43
0.0000001
 44
0.0000000001
 40
0.0
 40
0.0
 40
0.0
 40
0.0
 40
0.2293766236
 40
1.0
 40
1.0
 40
1.0
 40
1.0
 10
530.089579014
 20
1090.892879259
 30
0.0
 10
529.8253078354
 20
1091.0454528435
 30
0.0
 10
528.5951946552
 20
1091.5702723464
 30
0.0
 10
527.1966181577
 20
1091.6472862008
 30
0.0
 10
526.1844959969
 20
1091.4840401102
 30
0.0
  0
SPLINE
  5
344
100
AcDbEntity
  8
0
100
AcDbSpline
 62
7
  6
CONTINUOUS
 70
0
 71
3
 72
9
 73
5
 74
0
 42
0.0000001
 43
0.0000001
 44
0.0000000001
 40
0.0
 40
0.0
 40
0.0
 40
0.0
 40
0.2208390513
 40
1.0
 40
1.0
 40
1.0
 40
1.0
 10
586.5218132138
 20
1025.6125549768
 30
0.0
 10
586.5218491056
 20
1025.7077259794
 30
0.0
 10
586.4449162292
 20
1026.141669054
 30
0.0
 10
586.0802483404
 20
1026.465280102
 30
0.0
 10
585.7894519122
 20
1026.6331677
 30
0.0
  0
SPLINE
  5
345
100
AcDbEntity
  8
0
100
AcDbSpline
 62
7
  6
CONTINUOUS
 70
0
 71
3
 72
9
 73
5
 74
0
 42
0.0000001
 43
0.0000001
 44
0.0000000001
 40
0.0
 40
0.0
 40
0.0
 40
0.0
 40
0.7226796929
 40
1.0
 40
1.0
 40
1.0
 40
1.0
 10
586.5218131889
 20
148.8792280384
 30
0.0
 10
586.52173415
 20
148.6703440459
 30
0.0
 10
586.3980804522
 20
148.3786311223
 30
0.0
 10
586.2006920614
 20
148.1687703704
 30
0.0
 10
586.1418180752
 20
148.1143738144
 30
0.0
  0
SPLINE
  5
346
100
AcDbEntity
  8
0
100
AcDbSpline
 62
7
  6
CONTINUOUS
 70
0
 71
3
 72
8
 73
4
 74
0
 42
0.0000001
 43
0.0000001
 44
0.0000000001
 40
0.0
 40
0.0
 40
0.0
 40
0.0
 40
1.0
 40
1.0
 40
1.0
 40
1.0
 10
379.0689952313
 20
1176.1435692981
 30
0.0
 10
379.223200929
 20
1176.1520033963
 30
0.0
 10
379.378117523
 20
1176.1578301275
 30
0.0
 10
379.5322766159
 20
1176.1485832224
 30
0.0
  0
SPLINE
  5
347
100
AcDbEntity
  8
0
100
AcDbSpline
 62
7
  6
CONTINUOUS
 70
0
 71
3
 72
8
 73
4
 74
0
 42
0.0000001
 43
0.0000001
 44
0.0000000001
 40
0.0
 40
0.0
 40
0.0
 40
0.0
 40
1.0
 40
1.0
 40
1.0
 40
1.0
 10
565.2357841228
 20
1008.0547420711
 30
0.0
 10
565.4252081534
 20
1008.1639610981
 30
0.0
 10
565.6336481202
 20
1008.2443327963
 30
0.0
 10
565.8466283058
 20
1008.2938272384
 30
0.0
  0
SPLINE
  5
348
100
AcDbEntity
  8
0
100
AcDbSpline
 62
7
  6
CONTINUOUS
 70
0
 71
3
 72
11
 73
7
 74
0
 42
0.0000001
 43
0.0000001
 44
0.0000000001
 40
0.0
 40
0.0
 40
0.0
 40
0.0
 40
0.1980795881
 40
0.4559222641
 40
0.7401060645
 40
1.0
 40
1.0
 40
1.0
 40
1.0
 10
566.0745714948
 20
1008.3354610116
 30
0.0
 10
566.8594477025
 20
1008.4412504918
 30
0.0
 10
568.7321290905
 20
1007.8327677208
 30
0.0
 10
570.912649412
 20
1005.7799813906
 30
0.0
 10
572.5632099172
 20
1002.9848843824
 30
0.0
 10
573.081932734
 20
1000.8112135498
 30
0.0
 10
573.081932734
 20
999.7720902356
 30
0.0
  0
SPLINE
  5
349
100
AcDbEntity
  8
0
100
AcDbSpline
 62
7
  6
CONTINUOUS
 70
0
 71
3
 72
9
 73
5
 74
0
 42
0.0000001
 43
0.0000001
 44
0.0000000001
 40
0.0
 40
0.0
 40
0.0
 40
0.0
 40
0.2236097662
 40
1.0
 40
1.0
 40
1.0
 40
1.0
 10
565.6355502935
 20
1008.0839918498
 30
0.0
 10
565.5207789876
 20
1007.9357136369
 30
0.0
 10
565.0820720293
 20
1007.2138611167
 30
0.0
 10
564.9501620629
 20
1006.3426249955
 30
0.0
 10
564.9501620629
 20
1005.6915862752
 30
0.0
  0
SPLINE
  5
34A
100
AcDbEntity
  8
0
100
AcDbSpline
 62
7
  6
CONTINUOUS
 70
0
 71
3
 72
8
 73
4
 74
0
 42
0.0000001
 43
0.0000001
 44
0.0000000001
 40
0.0
 40
0.0
 40
0.0
 40
0.0
 40
1.0
 40
1.0
 40
1.0
 40
1.0
 10
385.6531165108
 20
1174.0796926356
 30
0.0
 10
385.4357202135
 20
1174.3513550987
 30
0.0
 10
385.1505673057
 20
1174.5715636202
 30
0.0
 10
384.8492414688
 20
1174.7455302375
 30
0.0
  0
SPLINE
  5
34B
100
AcDbEntity
  8
0
100
AcDbSpline
 62
7
  6
CONTINUOUS
 70
0
 71
3
 72
8
 73
4
 74
0
 42
0.0000001
 43
0.0000001
 44
0.0000000001
 40
0.0
 40
0.0
 40
0.0
 40
0.0
 40
1.0
 40
1.0
 40
1.0
 40
1.0
 10
532.3076735062
 20
1089.4105601481
 30
0.0
 10
532.090277209
 20
1089.6822226112
 30
0.0
 10
531.8051243012
 20
1089.9024311326
 30
0.0
 10
531.5037984643
 20
1090.07639775
 30
0.0
  0
SPLINE
  5
34C
100
AcDbEntity
  8
0
100
AcDbSpline
 62
7
  6
CONTINUOUS
 70
0
 71
3
 72
11
 73
7
 74
0
 42
0.0000001
 43
0.0000001
 44
0.0000000001
 40
0.0
 40
0.0
 40
0.0
 40
0.0
 40
0.2599631815
 40
0.5441993056
 40
0.8020240112
 40
1.0
 40
1.0
 40
1.0
 40
1.0
 10
564.9501620629
 20
1005.6915862752
 30
0.0
 10
564.9501620629
 20
1004.6516613466
 30
0.0
 10
565.4696067906
 20
1002.4764069135
 30
0.0
 10
567.1221047029
 20
999.6800488411
 30
0.0
 10
569.3046070852
 20
997.6273515464
 30
0.0
 10
571.1792405494
 20
997.0214110968
 30
0.0
 10
571.9638414955
 20
997.1291158771
 30
0.0
  0
SPLINE
  5
34D
100
AcDbEntity
  8
0
100
AcDbSpline
 62
7
  6
CONTINUOUS
 70
0
 71
3
 72
11
 73
7
 74
0
 42
0.0000001
 43
0.0000001
 44
0.0000000001
 40
0.0
 40
0.0
 40
0.0
 40
0.0
 40
0.2599631815
 40
0.5441993056
 40
0.8020240112
 40
1.0
 40
1.0
 40
1.0
 40
1.0
 10
564.9501620629
 20
372.9022129998
 30
0.0
 10
564.9501620629
 20
371.8622880712
 30
0.0
 10
565.4696067906
 20
369.687033638
 30
0.0
 10
567.1221047029
 20
366.8906755657
 30
0.0
 10
569.3046070852
 20
364.837978271
 30
0.0
 10
571.1792405494
 20
364.2320378213
 30
0.0
 10
571.9638414955
 20
364.3397426017
 30
0.0
  0
SPLINE
  5
34E
100
AcDbEntity
  8
0
100
AcDbSpline
 62
7
  6
CONTINUOUS
 70
0
 71
3
 72
11
 73
7
 74
0
 42
0.0000001
 43
0.0000001
 44
0.0000000001
 40
0.0
 40
0.0
 40
0.0
 40
0.0
 40
0.2599631815
 40
0.5441993056
 40
0.8020240112
 40
1.0
 40
1.0
 40
1.0
 40
1.0
 10
564.9501620629
 20
801.5659819928
 30
0.0
 10
564.9501620629
 20
800.5260570642
 30
0.0
 10
565.4696067906
 20
798.3508026311
 30
0.0
 10
567.1221047029
 20
795.5544445587
 30
0.0
 10
569.3046070852
 20
793.501747264
 30
0.0
 10
571.1792405494
 20
792.8958068144
 30
0.0
 10
571.9638414955
 20
793.0035115947
 30
0.0
  0
SPLINE
  5
34F
100
AcDbEntity
  8
0
100
AcDbSpline
 62
7
  6
CONTINUOUS
 70
0
 71
3
 72
11
 73
7
 74
0
 42
0.0000001
 43
0.0000001
 44
0.0000000001
 40
0.0
 40
0.0
 40
0.0
 40
0.0
 40
0.2599631815
 40
0.5441993056
 40
0.8020240112
 40
1.0
 40
1.0
 40
1.0
 40
1.0
 10
564.9501620629
 20
168.7766087174
 30
0.0
 10
564.9501620629
 20
167.7366837888
 30
0.0
 10
565.4696067906
 20
165.5614293556
 30
0.0
 10
567.1221047029
 20
162.7650712833
 30
0.0
 10
569.3046070852
 20
160.7123739886
 30
0.0
 10
571.1792405494
 20
160.1064335389
 30
0.0
 10
571.9638414955
 20
160.2141383193
 30
0.0
  0
SPLINE
  5
350
100
AcDbEntity
  8
0
100
AcDbSpline
 62
7
  6
CONTINUOUS
 70
0
 71
3
 72
11
 73
7
 74
0
 42
0.0000001
 43
0.0000001
 44
0.0000000001
 40
0.0
 40
0.0
 40
0.0
 40
0.0
 40
0.2599631815
 40
0.5441993056
 40
0.8020240112
 40
1.0
 40
1.0
 40
1.0
 40
1.0
 10
323.1186360627
 20
1145.3099243211
 30
0.0
 10
323.1186360627
 20
1144.2699993926
 30
0.0
 10
323.6380807904
 20
1142.0947449594
 30
0.0
 10
325.2905787026
 20
1139.2983868871
 30
0.0
 10
327.473081085
 20
1137.2456895924
 30
0.0
 10
329.3477145491
 20
1136.6397491427
 30
0.0
 10
330.1323154952
 20
1136.7474539231
 30
0.0
  0
SPLINE
  5
351
100
AcDbEntity
  8
0
100
AcDbSpline
 62
7
  6
CONTINUOUS
 70
0
 71
3
 72
11
 73
7
 74
0
 42
0.0000001
 43
0.0000001
 44
0.0000000001
 40
0.0
 40
0.0
 40
0.0
 40
0.0
 40
0.2599631815
 40
0.5441993056
 40
0.8020240112
 40
1.0
 40
1.0
 40
1.0
 40
1.0
 10
323.1186360627
 20
512.5205510457
 30
0.0
 10
323.1186360627
 20
511.4806261172
 30
0.0
 10
323.6380807904
 20
509.305371684
 30
0.0
 10
325.2905787026
 20
506.5090136117
 30
0.0
 10
327.473081085
 20
504.456316317
 30
0.0
 10
329.3477145491
 20
503.8503758673
 30
0.0
 10
330.1323154952
 20
503.9580806476
 30
0.0
  0
SPLINE
  5
352
100
AcDbEntity
  8
0
100
AcDbSpline
 62
7
  6
CONTINUOUS
 70
0
 71
3
 72
11
 73
7
 74
0
 42
0.0000001
 43
0.0000001
 44
0.0000000001
 40
0.0
 40
0.0
 40
0.0
 40
0.0
 40
0.2599631815
 40
0.5441993056
 40
0.8020240112
 40
1.0
 40
1.0
 40
1.0
 40
1.0
 10
323.1186360627
 20
941.1843200387
 30
0.0
 10
323.1186360627
 20
940.1443951102
 30
0.0
 10
323.6380807904
 20
937.969140677
 30
0.0
 10
325.2905787026
 20
935.1727826047
 30
0.0
 10
327.473081085
 20
933.12008531
 30
0.0
 10
329.3477145491
 20
932.5141448603
 30
0.0
 10
330.1323154952
 20
932.6218496407
 30
0.0
  0
SPLINE
  5
353
100
AcDbEntity
  8
0
100
AcDbSpline
 62
7
  6
CONTINUOUS
 70
0
 71
3
 72
11
 73
7
 74
0
 42
0.0000001
 43
0.0000001
 44
0.0000000001
 40
0.0
 40
0.0
 40
0.0
 40
0.0
 40
0.2599631815
 40
0.5441993056
 40
0.8020240112
 40
1.0
 40
1.0
 40
1.0
 40
1.0
 10
323.1186360627
 20
308.3949467633
 30
0.0
 10
323.1186360627
 20
307.3550218348
 30
0.0
 10
323.6380807904
 20
305.1797674016
 30
0.0
 10
325.2905787026
 20
302.3834093293
 30
0.0
 10
327.473081085
 20
300.3307120346
 30
0.0
 10
329.3477145491
 20
299.7247715849
 30
0.0
 10
330.1323154952
 20
299.8324763652
 30
0.0
  0
SPLINE
  5
354
100
AcDbEntity
  8
0
100
AcDbSpline
 62
7
  6
CONTINUOUS
 70
0
 71
3
 72
9
 73
5
 74
0
 42
0.0000001
 43
0.0000001
 44
0.0000000001
 40
0.0
 40
0.0
 40
0.0
 40
0.0
 40
0.2807306068
 40
1.0
 40
1.0
 40
1.0
 40
1.0
 10
573.081932734
 20
999.7720902356
 30
0.0
 10
573.081932734
 20
999.5370829304
 30
0.0
 10
573.0345274662
 20
998.7047276896
 30
0.0
 10
572.7651261761
 20
997.855901254
 30
0.0
 10
572.3966048998
 20
997.3797282048
 30
0.0
  0
SPLINE
  5
355
100
AcDbEntity
  8
0
100
AcDbSpline
 62
7
  6
CONTINUOUS
 70
0
 71
3
 72
8
 73
4
 74
0
 42
0.0000001
 43
0.0000001
 44
0.0000000001
 40
0.0
 40
0.0
 40
0.0
 40
0.0
 40
1.0
 40
1.0
 40
1.0
 40
1.0
 10
572.2486303276
 20
997.2057801444
 30
0.0
 10
572.0991945721
 20
997.046051634
 30
0.0
 10
571.925146257
 20
996.9058260447
 30
0.0
 10
571.7356549184
 20
996.7965682089
 30
0.0
  0
SPLINE
  5
356
100
AcDbEntity
  8
0
100
AcDbSpline
 62
7
  6
CONTINUOUS
 70
0
 71
3
 72
9
 73
5
 74
0
 42
0.0000001
 43
0.0000001
 44
0.0000000001
 40
0.0
 40
0.0
 40
0.0
 40
0.0
 40
0.2807306068
 40
1.0
 40
1.0
 40
1.0
 40
1.0
 10
573.081932734
 20
366.9827169602
 30
0.0
 10
573.081932734
 20
366.747709655
 30
0.0
 10
573.0345274662
 20
365.9153544142
 30
0.0
 10
572.7651261761
 20
365.0665279785
 30
0.0
 10
572.3966048998
 20
364.5903549294
 30
0.0
  0
SPLINE
  5
357
100
AcDbEntity
  8
0
100
AcDbSpline
 62
7
  6
CONTINUOUS
 70
0
 71
3
 72
8
 73
4
 74
0
 42
0.0000001
 43
0.0000001
 44
0.0000000001
 40
0.0
 40
0.0
 40
0.0
 40
0.0
 40
1.0
 40
1.0
 40
1.0
 40
1.0
 10
572.2486303276
 20
364.416406869
 30
0.0
 10
572.0991945721
 20
364.2566783586
 30
0.0
 10
571.925146257
 20
364.1164527693
 30
0.0
 10
571.7356549184
 20
364.0071949335
 30
0.0
  0
SPLINE
  5
358
100
AcDbEntity
  8
0
100
AcDbSpline
 62
7
  6
CONTINUOUS
 70
0
 71
3
 72
9
 73
5
 74
0
 42
0.0000001
 43
0.0000001
 44
0.0000000001
 40
0.0
 40
0.0
 40
0.0
 40
0.0
 40
0.2807306068
 40
1.0
 40
1.0
 40
1.0
 40
1.0
 10
573.081932734
 20
795.6464859532
 30
0.0
 10
573.081932734
 20
795.411478648
 30
0.0
 10
573.0345274662
 20
794.5791234072
 30
0.0
 10
572.7651261761
 20
793.7302969716
 30
0.0
 10
572.3966048998
 20
793.2541239224
 30
0.0
  0
SPLINE
  5
359
100
AcDbEntity
  8
0
100
AcDbSpline
 62
7
  6
CONTINUOUS
 70
0
 71
3
 72
8
 73
4
 74
0
 42
0.0000001
 43
0.0000001
 44
0.0000000001
 40
0.0
 40
0.0
 40
0.0
 40
0.0
 40
1.0
 40
1.0
 40
1.0
 40
1.0
 10
572.2486303276
 20
793.0801758621
 30
0.0
 10
572.0991945721
 20
792.9204473516
 30
0.0
 10
571.925146257
 20
792.7802217623
 30
0.0
 10
571.7356549184
 20
792.6709639265
 30
0.0
  0
SPLINE
  5
35A
100
AcDbEntity
  8
0
100
AcDbSpline
 62
7
  6
CONTINUOUS
 70
0
 71
3
 72
9
 73
5
 74
0
 42
0.0000001
 43
0.0000001
 44
0.0000000001
 40
0.0
 40
0.0
 40
0.0
 40
0.0
 40
0.2807306068
 40
1.0
 40
1.0
 40
1.0
 40
1.0
 10
573.081932734
 20
162.8571126778
 30
0.0
 10
573.081932734
 20
162.6221053726
 30
0.0
 10
573.0345274662
 20
161.7897501318
 30
0.0
 10
572.7651261761
 20
160.9409236961
 30
0.0
 10
572.3966048998
 20
160.464750647
 30
0.0
  0
SPLINE
  5
35B
100
AcDbEntity
  8
0
100
AcDbSpline
 62
7
  6
CONTINUOUS
 70
0
 71
3
 72
8
 73
4
 74
0
 42
0.0000001
 43
0.0000001
 44
0.0000000001
 40
0.0
 40
0.0
 40
0.0
 40
0.0
 40
1.0
 40
1.0
 40
1.0
 40
1.0
 10
572.2486303276
 20
160.2908025866
 30
0.0
 10
572.0991945721
 20
160.1310740762
 30
0.0
 10
571.925146257
 20
159.9908484869
 30
0.0
 10
571.7356549184
 20
159.8815906511
 30
0.0
  0
SPLINE
  5
35C
100
AcDbEntity
  8
0
100
AcDbSpline
 62
7
  6
CONTINUOUS
 70
0
 71
3
 72
9
 73
5
 74
0
 42
0.0000001
 43
0.0000001
 44
0.0000000001
 40
0.0
 40
0.0
 40
0.0
 40
0.0
 40
0.2807306068
 40
1.0
 40
1.0
 40
1.0
 40
1.0
 10
331.2504067338
 20
1139.3904282816
 30
0.0
 10
331.2504067338
 20
1139.1554209764
 30
0.0
 10
331.2030014659
 20
1138.3230657356
 30
0.0
 10
330.9336001759
 20
1137.4742392999
 30
0.0
 10
330.5650788995
 20
1136.9980662508
 30
0.0
  0
SPLINE
  5
35D
100
AcDbEntity
  8
0
100
AcDbSpline
 62
7
  6
CONTINUOUS
 70
0
 71
3
 72
8
 73
4
 74
0
 42
0.0000001
 43
0.0000001
 44
0.0000000001
 40
0.0
 40
0.0
 40
0.0
 40
0.0
 40
1.0
 40
1.0
 40
1.0
 40
1.0
 10
330.4171043274
 20
1136.8241181904
 30
0.0
 10
330.2676685718
 20
1136.66438968
 30
0.0
 10
330.0936202567
 20
1136.5241640906
 30
0.0
 10
329.9041289181
 20
1136.4149062549
 30
0.0
  0
SPLINE
  5
35E
100
AcDbEntity
  8
0
100
AcDbSpline
 62
7
  6
CONTINUOUS
 70
0
 71
3
 72
9
 73
5
 74
0
 42
0.0000001
 43
0.0000001
 44
0.0000000001
 40
0.0
 40
0.0
 40
0.0
 40
0.0
 40
0.2807306068
 40
1.0
 40
1.0
 40
1.0
 40
1.0
 10
331.2504067338
 20
506.6010550061
 30
0.0
 10
331.2504067338
 20
506.3660477009
 30
0.0
 10
331.2030014659
 20
505.5336924601
 30
0.0
 10
330.9336001759
 20
504.6848660245
 30
0.0
 10
330.5650788995
 20
504.2086929754
 30
0.0
  0
SPLINE
  5
35F
100
AcDbEntity
  8
0
100
AcDbSpline
 62
7
  6
CONTINUOUS
 70
0
 71
3
 72
8
 73
4
 74
0
 42
0.0000001
 43
0.0000001
 44
0.0000000001
 40
0.0
 40
0.0
 40
0.0
 40
0.0
 40
1.0
 40
1.0
 40
1.0
 40
1.0
 10
330.4171043274
 20
504.034744915
 30
0.0
 10
330.2676685718
 20
503.8750164045
 30
0.0
 10
330.0936202567
 20
503.7347908152
 30
0.0
 10
329.9041289181
 20
503.6255329795
 30
0.0
  0
SPLINE
  5
360
100
AcDbEntity
  8
0
100
AcDbSpline
 62
7
  6
CONTINUOUS
 70
0
 71
3
 72
9
 73
5
 74
0
 42
0.0000001
 43
0.0000001
 44
0.0000000001
 40
0.0
 40
0.0
 40
0.0
 40
0.0
 40
0.2807306068
 40
1.0
 40
1.0
 40
1.0
 40
1.0
 10
331.2504067338
 20
935.2648239992
 30
0.0
 10
331.2504067338
 20
935.029816694
 30
0.0
 10
331.2030014659
 20
934.1974614532
 30
0.0
 10
330.9336001759
 20
933.3486350175
 30
0.0
 10
330.5650788995
 20
932.8724619684
 30
0.0
  0
SPLINE
  5
361
100
AcDbEntity
  8
0
100
AcDbSpline
 62
7
  6
CONTINUOUS
 70
0
 71
3
 72
8
 73
4
 74
0
 42
0.0000001
 43
0.0000001
 44
0.0000000001
 40
0.0
 40
0.0
 40
0.0
 40
0.0
 40
1.0
 40
1.0
 40
1.0
 40
1.0
 10
330.4171043274
 20
932.698513908
 30
0.0
 10
330.2676685718
 20
932.5387853976
 30
0.0
 10
330.0936202567
 20
932.3985598082
 30
0.0
 10
329.9041289181
 20
932.2893019725
 30
0.0
  0
SPLINE
  5
362
100
AcDbEntity
  8
0
100
AcDbSpline
 62
7
  6
CONTINUOUS
 70
0
 71
3
 72
9
 73
5
 74
0
 42
0.0000001
 43
0.0000001
 44
0.0000000001
 40
0.0
 40
0.0
 40
0.0
 40
0.0
 40
0.2807306068
 40
1.0
 40
1.0
 40
1.0
 40
1.0
 10
331.2504067338
 20
302.4754507237
 30
0.0
 10
331.2504067338
 20
302.2404434185
 30
0.0
 10
331.2030014659
 20
301.4080881777
 30
0.0
 10
330.9336001759
 20
300.5592617421
 30
0.0
 10
330.5650788995
 20
300.083088693
 30
0.0
  0
SPLINE
  5
363
100
AcDbEntity
  8
0
100
AcDbSpline
 62
7
  6
CONTINUOUS
 70
0
 71
3
 72
8
 73
4
 74
0
 42
0.0000001
 43
0.0000001
 44
0.0000000001
 40
0.0
 40
0.0
 40
0.0
 40
0.0
 40
1.0
 40
1.0
 40
1.0
 40
1.0
 10
330.4171043274
 20
299.9091406326
 30
0.0
 10
330.2676685718
 20
299.7494121221
 30
0.0
 10
330.0936202567
 20
299.6091865328
 30
0.0
 10
329.9041289181
 20
299.4999286971
 30
0.0
  0
SPLINE
  5
364
100
AcDbEntity
  8
0
100
AcDbSpline
 62
7
  6
CONTINUOUS
 70
0
 71
3
 72
8
 73
4
 74
0
 42
0.0000001
 43
0.0000001
 44
0.0000000001
 40
0.0
 40
0.0
 40
0.0
 40
0.0
 40
1.0
 40
1.0
 40
1.0
 40
1.0
 10
579.244800267
 20
104.0000028713
 30
0.0
 10
579.0467007176
 20
103.8984072101
 30
0.0
 10
578.824707222
 20
103.8329356027
 30
0.0
 10
578.6027093777
 20
103.8161407538
 30
0.0
  0
SPLINE
  5
365
100
AcDbEntity
  8
0
100
AcDbSpline
 62
7
  6
CONTINUOUS
 70
0
 71
3
 72
8
 73
4
 74
0
 42
0.0000001
 43
0.0000001
 44
0.0000000001
 40
0.0
 40
0.0
 40
0.0
 40
0.0
 40
1.0
 40
1.0
 40
1.0
 40
1.0
 10
578.6027093777
 20
103.8161407538
 30
0.0
 10
578.1010169257
 20
103.7781861107
 30
0.0
 10
577.5845994506
 20
103.969781619
 30
0.0
 10
577.1486059255
 20
104.2208702835
 30
0.0
  0
SPLINE
  5
366
100
AcDbEntity
  8
0
100
AcDbSpline
 62
7
  6
CONTINUOUS
 70
0
 71
3
 72
8
 73
4
 74
0
 42
0.0000001
 43
0.0000001
 44
0.0000000001
 40
0.0
 40
0.0
 40
0.0
 40
0.0
 40
1.0
 40
1.0
 40
1.0
 40
1.0
 10
579.244800267
 20
104.0000028713
 30
0.0
 10
579.4082274749
 20
104.0913024119
 30
0.0
 10
579.555077078
 20
104.2184868374
 30
0.0
 10
579.6716539097
 20
104.3649583388
 30
0.0
  0
SPLINE
  5
367
100
AcDbEntity
  8
0
100
AcDbSpline
 62
7
  6
CONTINUOUS
 70
0
 71
3
 72
11
 73
7
 74
0
 42
0.0000001
 43
0.0000001
 44
0.0000000001
 40
0.0
 40
0.0
 40
0.0
 40
0.0
 40
0.406619416
 40
0.7190594458
 40
0.9242178375
 40
1.0
 40
1.0
 40
1.0
 40
1.0
 10
320.1286345347
 20
253.5976429027
 30
0.0
 10
319.9977757955
 20
253.5606847447
 30
0.0
 10
319.793140368
 20
253.4346003636
 30
0.0
 10
319.5051979045
 20
253.2909212571
 30
0.0
 10
319.3779948631
 20
253.164874545
 30
0.0
 10
319.2506566681
 20
253.1404436656
 30
0.0
 10
319.2505023306
 20
253.1151018174
 30
0.0
  0
SPLINE
  5
368
100
AcDbEntity
  8
0
100
AcDbSpline
 62
7
  6
CONTINUOUS
 70
0
 71
3
 72
9
 73
5
 74
0
 42
0.0000001
 43
0.0000001
 44
0.0000000001
 40
0.0
 40
0.0
 40
0.0
 40
0.0
 40
0.4936715168
 40
1.0
 40
1.0
 40
1.0
 40
1.0
 10
319.2505019662
 20
1204.0380689871
 30
0.0
 10
319.2505098016
 20
1203.5306841796
 30
0.0
 10
319.446976916
 20
1202.5107758812
 30
0.0
 10
319.8305695729
 20
1201.5368417102
 30
0.0
 10
320.1286345347
 20
1201.1102663604
 30
0.0
  0
SPLINE
  5
369
100
AcDbEntity
  8
0
100
AcDbSpline
 62
7
  6
CONTINUOUS
 70
0
 71
3
 72
12
 73
8
 74
0
 42
0.0000001
 43
0.0000001
 44
0.0000000001
 40
0.0
 40
0.0
 40
0.0
 40
0.0
 40
0.1832755849
 40
0.3014564547
 40
0.4361795015
 40
0.7288632917
 40
1.0
 40
1.0
 40
1.0
 40
1.0
 10
329.9041289181
 20
503.6255329795
 30
0.0
 10
329.224074366
 20
503.233423825
 30
0.0
 10
327.7357700933
 20
503.3095329505
 30
0.0
 10
326.1170264485
 20
504.22646749
 30
0.0
 10
324.3444585763
 20
505.7830568008
 30
0.0
 10
322.6983589056
 20
508.3403832011
 30
0.0
 10
322.0579803068
 20
510.7468620673
 30
0.0
 10
322.0579803068
 20
511.9081848149
 30
0.0
  0
SPLINE
  5
36A
100
AcDbEntity
  8
0
100
AcDbSpline
 62
7
  6
CONTINUOUS
 70
0
 71
3
 72
9
 73
5
 74
0
 42
0.0000001
 43
0.0000001
 44
0.0000000001
 40
0.0
 40
0.0
 40
0.0
 40
0.0
 40
0.7444233645
 40
1.0
 40
1.0
 40
1.0
 40
1.0
 10
577.1486059255
 20
104.2208702835
 30
0.0
 10
576.482497791
 20
104.604481948
 30
0.0
 10
575.7237538246
 20
105.3652163029
 30
0.0
 10
575.1622089471
 20
106.227922832
 30
0.0
 10
575.0112785063
 20
106.4444044076
 30
0.0
  0
SPLINE
  5
36B
100
AcDbEntity
  8
0
100
AcDbSpline
 62
7
  6
CONTINUOUS
 70
0
 71
3
 72
12
 73
8
 74
0
 42
0.0000001
 43
0.0000001
 44
0.0000000001
 40
0.0
 40
0.0
 40
0.0
 40
0.0
 40
0.1832755849
 40
0.3014564547
 40
0.4361795015
 40
0.7288632917
 40
1.0
 40
1.0
 40
1.0
 40
1.0
 10
571.7356549184
 20
159.8815906511
 30
0.0
 10
571.0556003663
 20
159.4894814966
 30
0.0
 10
569.5672960936
 20
159.5655906222
 30
0.0
 10
567.9485524488
 20
160.4825251617
 30
0.0
 10
566.1759845766
 20
162.0391144725
 30
0.0
 10
564.5298849059
 20
164.5964408728
 30
0.0
 10
563.8895063071
 20
167.0029197389
 30
0.0
 10
563.8895063071
 20
168.1642424866
 30
0.0
  0
SPLINE
  5
36C
100
AcDbEntity
  8
0
100
AcDbSpline
 62
7
  6
CONTINUOUS
 70
0
 71
3
 72
12
 73
8
 74
0
 42
0.0000001
 43
0.0000001
 44
0.0000000001
 40
0.0
 40
0.0
 40
0.0
 40
0.0
 40
0.1832755849
 40
0.3014564547
 40
0.4361795015
 40
0.7288632917
 40
1.0
 40
1.0
 40
1.0
 40
1.0
 10
571.7356549184
 20
996.7965682089
 30
0.0
 10
571.0556003663
 20
996.4044590545
 30
0.0
 10
569.5672960936
 20
996.48056818
 30
0.0
 10
567.9485524488
 20
997.3975027195
 30
0.0
 10
566.1759845766
 20
998.9540920303
 30
0.0
 10
564.5298849059
 20
1001.5114184306
 30
0.0
 10
563.8895063071
 20
1003.9178972967
 30
0.0
 10
563.8895063071
 20
1005.0792200444
 30
0.0
  0
SPLINE
  5
36D
100
AcDbEntity
  8
0
100
AcDbSpline
 62
7
  6
CONTINUOUS
 70
0
 71
3
 72
8
 73
4
 74
0
 42
0.0000001
 43
0.0000001
 44
0.0000000001
 40
0.0
 40
0.0
 40
0.0
 40
0.0
 40
1.0
 40
1.0
 40
1.0
 40
1.0
 10
563.8895063071
 20
1005.0792200444
 30
0.0
 10
563.8895063071
 20
1005.4647483261
 30
0.0
 10
563.9264627814
 20
1005.853575811
 30
0.0
 10
564.0135935981
 20
1006.2291291052
 30
0.0
  0
SPLINE
  5
36E
100
AcDbEntity
  8
0
100
AcDbSpline
 62
7
  6
CONTINUOUS
 70
0
 71
3
 72
9
 73
5
 74
0
 42
0.0000001
 43
0.0000001
 44
0.0000000001
 40
0.0
 40
0.0
 40
0.0
 40
0.0
 40
0.2787808137
 40
1.0
 40
1.0
 40
1.0
 40
1.0
 10
564.0135935981
 20
1006.2291291052
 30
0.0
 10
564.0604468472
 20
1006.4310770808
 30
0.0
 10
564.2750017436
 20
1007.1408268964
 30
0.0
 10
564.7711585758
 20
1007.786846018
 30
0.0
 10
565.2357841228
 20
1008.0547420711
 30
0.0
  0
SPLINE
  5
36F
100
AcDbEntity
  8
0
100
AcDbSpline
 62
7
  6
CONTINUOUS
 70
0
 71
3
 72
8
 73
4
 74
0
 42
0.0000001
 43
0.0000001
 44
0.0000000001
 40
0.0
 40
0.0
 40
0.0
 40
0.0
 40
1.0
 40
1.0
 40
1.0
 40
1.0
 10
563.8895063071
 20
372.289846769
 30
0.0
 10
563.8895063071
 20
372.6753750507
 30
0.0
 10
563.9264627814
 20
373.0642025356
 30
0.0
 10
564.0135935981
 20
373.4397558298
 30
0.0
  0
SPLINE
  5
370
100
AcDbEntity
  8
0
100
AcDbSpline
 62
7
  6
CONTINUOUS
 70
0
 71
3
 72
9
 73
5
 74
0
 42
0.0000001
 43
0.0000001
 44
0.0000000001
 40
0.0
 40
0.0
 40
0.0
 40
0.0
 40
0.2787808137
 40
1.0
 40
1.0
 40
1.0
 40
1.0
 10
564.0135935981
 20
373.4397558298
 30
0.0
 10
564.0604468472
 20
373.6417038054
 30
0.0
 10
564.2750017436
 20
374.3514536209
 30
0.0
 10
564.7711585758
 20
374.9974727426
 30
0.0
 10
565.2357841228
 20
375.2653687956
 30
0.0
  0
SPLINE
  5
371
100
AcDbEntity
  8
0
100
AcDbSpline
 62
7
  6
CONTINUOUS
 70
0
 71
3
 72
8
 73
4
 74
0
 42
0.0000001
 43
0.0000001
 44
0.0000000001
 40
0.0
 40
0.0
 40
0.0
 40
0.0
 40
1.0
 40
1.0
 40
1.0
 40
1.0
 10
563.8895063071
 20
800.953615762
 30
0.0
 10
563.8895063071
 20
801.3391440437
 30
0.0
 10
563.9264627814
 20
801.7279715286
 30
0.0
 10
564.0135935981
 20
802.1035248228
 30
0.0
  0
SPLINE
  5
372
100
AcDbEntity
  8
0
100
AcDbSpline
 62
7
  6
CONTINUOUS
 70
0
 71
3
 72
9
 73
5
 74
0
 42
0.0000001
 43
0.0000001
 44
0.0000000001
 40
0.0
 40
0.0
 40
0.0
 40
0.0
 40
0.2787808137
 40
1.0
 40
1.0
 40
1.0
 40
1.0
 10
564.0135935981
 20
802.1035248228
 30
0.0
 10
564.0604468472
 20
802.3054727984
 30
0.0
 10
564.2750017436
 20
803.015222614
 30
0.0
 10
564.7711585758
 20
803.6612417356
 30
0.0
 10
565.2357841228
 20
803.9291377887
 30
0.0
  0
SPLINE
  5
373
100
AcDbEntity
  8
0
100
AcDbSpline
 62
7
  6
CONTINUOUS
 70
0
 71
3
 72
8
 73
4
 74
0
 42
0.0000001
 43
0.0000001
 44
0.0000000001
 40
0.0
 40
0.0
 40
0.0
 40
0.0
 40
1.0
 40
1.0
 40
1.0
 40
1.0
 10
563.8895063071
 20
168.1642424866
 30
0.0
 10
563.8895063071
 20
168.5497707683
 30
0.0
 10
563.9264627814
 20
168.9385982532
 30
0.0
 10
564.0135935981
 20
169.3141515474
 30
0.0
  0
SPLINE
  5
374
100
AcDbEntity
  8
0
100
AcDbSpline
 62
7
  6
CONTINUOUS
 70
0
 71
3
 72
9
 73
5
 74
0
 42
0.0000001
 43
0.0000001
 44
0.0000000001
 40
0.0
 40
0.0
 40
0.0
 40
0.0
 40
0.2787808137
 40
1.0
 40
1.0
 40
1.0
 40
1.0
 10
564.0135935981
 20
169.3141515474
 30
0.0
 10
564.0604468472
 20
169.516099523
 30
0.0
 10
564.2750017436
 20
170.2258493385
 30
0.0
 10
564.7711585758
 20
170.8718684602
 30
0.0
 10
565.2357841228
 20
171.1397645133
 30
0.0
  0
SPLINE
  5
375
100
AcDbEntity
  8
0
100
AcDbSpline
 62
7
  6
CONTINUOUS
 70
0
 71
3
 72
8
 73
4
 74
0
 42
0.0000001
 43
0.0000001
 44
0.0000000001
 40
0.0
 40
0.0
 40
0.0
 40
0.0
 40
1.0
 40
1.0
 40
1.0
 40
1.0
 10
322.0579803068
 20
1144.6975580903
 30
0.0
 10
322.0579803068
 20
1145.083086372
 30
0.0
 10
322.0949367811
 20
1145.471913857
 30
0.0
 10
322.1820675978
 20
1145.8474671511
 30
0.0
  0
SPLINE
  5
376
100
AcDbEntity
  8
0
100
AcDbSpline
 62
7
  6
CONTINUOUS
 70
0
 71
3
 72
9
 73
5
 74
0
 42
0.0000001
 43
0.0000001
 44
0.0000000001
 40
0.0
 40
0.0
 40
0.0
 40
0.0
 40
0.2787808137
 40
1.0
 40
1.0
 40
1.0
 40
1.0
 10
322.1820675978
 20
1145.8474671511
 30
0.0
 10
322.2289208469
 20
1146.0494151267
 30
0.0
 10
322.4434757433
 20
1146.7591649423
 30
0.0
 10
322.9396325756
 20
1147.405184064
 30
0.0
 10
323.4042581225
 20
1147.673080117
 30
0.0
  0
SPLINE
  5
377
100
AcDbEntity
  8
0
100
AcDbSpline
 62
7
  6
CONTINUOUS
 70
0
 71
3
 72
12
 73
8
 74
0
 42
0.0000001
 43
0.0000001
 44
0.0000000001
 40
0.0
 40
0.0
 40
0.0
 40
0.0
 40
0.1832755849
 40
0.3014564547
 40
0.4361795015
 40
0.7288632917
 40
1.0
 40
1.0
 40
1.0
 40
1.0
 10
329.9041289181
 20
299.4999286971
 30
0.0
 10
329.224074366
 20
299.1078195426
 30
0.0
 10
327.7357700933
 20
299.1839286682
 30
0.0
 10
326.1170264485
 20
300.1008632076
 30
0.0
 10
324.3444585763
 20
301.6574525184
 30
0.0
 10
322.6983589056
 20
304.2147789187
 30
0.0
 10
322.0579803068
 20
306.6212577849
 30
0.0
 10
322.0579803068
 20
307.7825805325
 30
0.0
  0
SPLINE
  5
378
100
AcDbEntity
  8
0
100
AcDbSpline
 62
7
  6
CONTINUOUS
 70
0
 71
3
 72
8
 73
4
 74
0
 42
0.0000001
 43
0.0000001
 44
0.0000000001
 40
0.0
 40
0.0
 40
0.0
 40
0.0
 40
1.0
 40
1.0
 40
1.0
 40
1.0
 10
322.0579803068
 20
511.9081848149
 30
0.0
 10
322.0579803068
 20
512.2937130966
 30
0.0
 10
322.0949367811
 20
512.6825405815
 30
0.0
 10
322.1820675978
 20
513.0580938757
 30
0.0
  0
SPLINE
  5
379
100
AcDbEntity
  8
0
100
AcDbSpline
 62
7
  6
CONTINUOUS
 70
0
 71
3
 72
9
 73
5
 74
0
 42
0.0000001
 43
0.0000001
 44
0.0000000001
 40
0.0
 40
0.0
 40
0.0
 40
0.0
 40
0.2787808137
 40
1.0
 40
1.0
 40
1.0
 40
1.0
 10
322.1820675978
 20
513.0580938757
 30
0.0
 10
322.2289208469
 20
513.2600418513
 30
0.0
 10
322.4434757433
 20
513.9697916669
 30
0.0
 10
322.9396325756
 20
514.6158107886
 30
0.0
 10
323.4042581225
 20
514.8837068416
 30
0.0
  0
SPLINE
  5
37A
100
AcDbEntity
  8
0
100
AcDbSpline
 62
7
  6
CONTINUOUS
 70
0
 71
3
 72
8
 73
4
 74
0
 42
0.0000001
 43
0.0000001
 44
0.0000000001
 40
0.0
 40
0.0
 40
0.0
 40
0.0
 40
1.0
 40
1.0
 40
1.0
 40
1.0
 10
322.0579803068
 20
940.5719538079
 30
0.0
 10
322.0579803068
 20
940.9574820896
 30
0.0
 10
322.0949367811
 20
941.3463095746
 30
0.0
 10
322.1820675978
 20
941.7218628687
 30
0.0
  0
SPLINE
  5
37B
100
AcDbEntity
  8
0
100
AcDbSpline
 62
7
  6
CONTINUOUS
 70
0
 71
3
 72
9
 73
5
 74
0
 42
0.0000001
 43
0.0000001
 44
0.0000000001
 40
0.0
 40
0.0
 40
0.0
 40
0.0
 40
0.2787808137
 40
1.0
 40
1.0
 40
1.0
 40
1.0
 10
322.1820675978
 20
941.7218628687
 30
0.0
 10
322.2289208469
 20
941.9238108443
 30
0.0
 10
322.4434757433
 20
942.6335606599
 30
0.0
 10
322.9396325756
 20
943.2795797816
 30
0.0
 10
323.4042581225
 20
943.5474758346
 30
0.0
  0
SPLINE
  5
37C
100
AcDbEntity
  8
0
100
AcDbSpline
 62
7
  6
CONTINUOUS
 70
0
 71
3
 72
8
 73
4
 74
0
 42
0.0000001
 43
0.0000001
 44
0.0000000001
 40
0.0
 40
0.0
 40
0.0
 40
0.0
 40
1.0
 40
1.0
 40
1.0
 40
1.0
 10
322.0579803068
 20
307.7825805325
 30
0.0
 10
322.0579803068
 20
308.1681088142
 30
0.0
 10
322.0949367811
 20
308.5569362991
 30
0.0
 10
322.1820675978
 20
308.9324895933
 30
0.0
  0
SPLINE
  5
37D
100
AcDbEntity
  8
0
100
AcDbSpline
 62
7
  6
CONTINUOUS
 70
0
 71
3
 72
9
 73
5
 74
0
 42
0.0000001
 43
0.0000001
 44
0.0000000001
 40
0.0
 40
0.0
 40
0.0
 40
0.0
 40
0.2787808137
 40
1.0
 40
1.0
 40
1.0
 40
1.0
 10
322.1820675978
 20
308.9324895933
 30
0.0
 10
322.2289208469
 20
309.1344375689
 30
0.0
 10
322.4434757433
 20
309.8441873845
 30
0.0
 10
322.9396325756
 20
310.4902065062
 30
0.0
 10
323.4042581225
 20
310.7581025592
 30
0.0
  0
SPLINE
  5
37E
100
AcDbEntity
  8
0
100
AcDbSpline
 62
7
  6
CONTINUOUS
 70
0
 71
3
 72
10
 73
6
 74
0
 42
0.0000001
 43
0.0000001
 44
0.0000000001
 40
0.0
 40
0.0
 40
0.0
 40
0.0
 40
0.1961237283
 40
0.4409540028
 40
1.0
 40
1.0
 40
1.0
 40
1.0
 10
575.0112785063
 20
1053.9570278654
 30
0.0
 10
575.3188498391
 20
1054.0437516669
 30
0.0
 10
575.917847438
 20
1054.4726616084
 30
0.0
 10
577.3324340846
 20
1055.2620799521
 30
0.0
 10
578.4781451289
 20
1055.9075992216
 30
0.0
 10
579.244800267
 20
1056.3995301378
 30
0.0
  0
SPLINE
  5
37F
100
AcDbEntity
  8
0
100
AcDbSpline
 62
7
  6
CONTINUOUS
 70
0
 71
3
 72
12
 73
8
 74
0
 42
0.0000001
 43
0.0000001
 44
0.0000000001
 40
0.0
 40
0.0
 40
0.0
 40
0.0
 40
0.1832755849
 40
0.3014564547
 40
0.4361795015
 40
0.7288632917
 40
1.0
 40
1.0
 40
1.0
 40
1.0
 10
571.7356549184
 20
792.6709639265
 30
0.0
 10
571.0556003663
 20
792.2788547721
 30
0.0
 10
569.5672960936
 20
792.3549638976
 30
0.0
 10
567.9485524488
 20
793.2718984371
 30
0.0
 10
566.1759845766
 20
794.8284877479
 30
0.0
 10
564.5298849059
 20
797.3858141482
 30
0.0
 10
563.8895063071
 20
799.7922930143
 30
0.0
 10
563.8895063071
 20
800.953615762
 30
0.0
  0
SPLINE
  5
380
100
AcDbEntity
  8
0
100
AcDbSpline
 62
7
  6
CONTINUOUS
 70
0
 71
3
 72
9
 73
5
 74
0
 42
0.0000001
 43
0.0000001
 44
0.0000000001
 40
0.0
 40
0.0
 40
0.0
 40
0.0
 40
0.277321201
 40
1.0
 40
1.0
 40
1.0
 40
1.0
 10
586.1418180752
 20
1024.8477007713
 30
0.0
 10
586.2006922624
 20
1024.902097513
 30
0.0
 10
586.3980812755
 20
1025.1119577698
 30
0.0
 10
586.5217344377
 20
1025.4036712028
 30
0.0
 10
586.5218132138
 20
1025.6125549768
 30
0.0
  0
SPLINE
  5
381
100
AcDbEntity
  8
0
100
AcDbSpline
 62
7
  6
CONTINUOUS
 70
0
 71
3
 72
12
 73
8
 74
0
 42
0.0000001
 43
0.0000001
 44
0.0000000001
 40
0.0
 40
0.0
 40
0.0
 40
0.0
 40
0.1832755849
 40
0.3014564547
 40
0.4361795015
 40
0.7288632917
 40
1.0
 40
1.0
 40
1.0
 40
1.0
 10
329.9041289181
 20
932.2893019725
 30
0.0
 10
329.224074366
 20
931.897192818
 30
0.0
 10
327.7357700933
 20
931.9733019436
 30
0.0
 10
326.1170264485
 20
932.8902364831
 30
0.0
 10
324.3444585763
 20
934.4468257939
 30
0.0
 10
322.6983589056
 20
937.0041521941
 30
0.0
 10
322.0579803068
 20
939.4106310603
 30
0.0
 10
322.0579803068
 20
940.5719538079
 30
0.0
  0
SPLINE
  5
382
100
AcDbEntity
  8
0
100
AcDbSpline
 62
7
  6
CONTINUOUS
 70
0
 71
3
 72
12
 73
8
 74
0
 42
0.0000001
 43
0.0000001
 44
0.0000000001
 40
0.0
 40
0.0
 40
0.0
 40
0.0
 40
0.1832755849
 40
0.3014564547
 40
0.4361795015
 40
0.7288632917
 40
1.0
 40
1.0
 40
1.0
 40
1.0
 10
329.9041289181
 20
1136.4149062549
 30
0.0
 10
329.224074366
 20
1136.0227971004
 30
0.0
 10
327.7357700933
 20
1136.098906226
 30
0.0
 10
326.1170264485
 20
1137.0158407655
 30
0.0
 10
324.3444585763
 20
1138.5724300763
 30
0.0
 10
322.6983589056
 20
1141.1297564765
 30
0.0
 10
322.0579803068
 20
1143.5362353427
 30
0.0
 10
322.0579803068
 20
1144.6975580903
 30
0.0
  0
SPLINE
  5
383
100
AcDbEntity
  8
0
100
AcDbSpline
 62
7
  6
CONTINUOUS
 70
0
 71
3
 72
12
 73
8
 74
0
 42
0.0000001
 43
0.0000001
 44
0.0000000001
 40
0.0
 40
0.0
 40
0.0
 40
0.0
 40
0.1832755849
 40
0.3014564547
 40
0.4361795015
 40
0.7288632917
 40
1.0
 40
1.0
 40
1.0
 40
1.0
 10
571.7356549184
 20
364.0071949335
 30
0.0
 10
571.0556003663
 20
363.615085779
 30
0.0
 10
569.5672960936
 20
363.6911949046
 30
0.0
 10
567.9485524488
 20
364.6081294441
 30
0.0
 10
566.1759845766
 20
366.1647187549
 30
0.0
 10
564.5298849059
 20
368.7220451552
 30
0.0
 10
563.8895063071
 20
371.1285240213
 30
0.0
 10
563.8895063071
 20
372.289846769
 30
0.0
  0
ELLIPSE
  5
384
100
AcDbEntity
  8
0
100
AcDbEllipse
 62
7
  6
CONTINUOUS
 10
585.2436900926
 20
172.8235849622
 30
0.0
 11
3.9897363519
 21
-0.659194334
 31
0.0
 40
0.4344138212
 41
0.6352989396
 42
0.857054404
  0
ELLIPSE
  5
385
100
AcDbEntity
  8
0
100
AcDbEllipse
 62
7
  6
CONTINUOUS
 10
583.8294706423
 20
173.6400664712
 30
0.0
 11
3.9897363519
 21
-0.659194334
 31
0.0
 40
0.4344138212
 41
0.857054404
 42
0.891685476
  0
ELLIPSE
  5
386
100
AcDbEntity
  8
0
100
AcDbEllipse
 62
7
  6
CONTINUOUS
 10
583.8294706423
 20
1123.5459010153
 30
0.0
 11
3.9374589769
 21
1.02581769
 31
0.0
 40
0.6868360053
 41
6.8915217137
 42
10.0331143673
  0
ELLIPSE
  5
387
100
AcDbEntity
  8
0
100
AcDbEllipse
 62
7
  6
CONTINUOUS
 10
437.1749136468
 20
1208.2150335028
 30
0.0
 11
3.9374589769
 21
1.02581769
 31
0.0
 40
0.6868360053
 41
0.6083364066
 42
3.7499290601
  0
ELLIPSE
  5
388
100
AcDbEntity
  8
0
100
AcDbEllipse
 62
7
  6
CONTINUOUS
 10
585.2436900926
 20
1122.7294195062
 30
0.0
 11
3.9374589769
 21
1.02581769
 31
0.0
 40
0.6868360053
 41
3.7499290601
 42
6.8915217137
  0
ELLIPSE
  5
389
100
AcDbEntity
  8
0
100
AcDbEllipse
 62
7
  6
CONTINUOUS
 10
438.5891330971
 20
1207.3985519938
 30
0.0
 11
3.9374589769
 21
1.02581769
 31
0.0
 40
0.6868360053
 41
3.7499290601
 42
6.8915217137
  0
ELLIPSE
  5
38A
100
AcDbEntity
  8
0
100
AcDbEllipse
 62
7
  6
CONTINUOUS
 10
528.6753831155
 20
1090.0698871965
 30
0.0
 11
3.9897363519
 21
-0.659194334
 31
0.0
 40
0.4344138212
 41
3.9986470576
 42
7.1402397112
  0
ELLIPSE
  5
38B
100
AcDbEntity
  8
0
100
AcDbEllipse
 62
7
  6
CONTINUOUS
 10
527.2611636652
 20
1090.8863687056
 30
0.0
 11
3.9897363519
 21
-0.659194334
 31
0.0
 40
0.4344138212
 41
7.1402397112
 42
10.2818323648
  0
ELLIPSE
  5
38C
100
AcDbEntity
  8
0
100
AcDbEllipse
 62
7
  6
CONTINUOUS
 10
380.6066066697
 20
1175.5555011931
 30
0.0
 11
3.9897363519
 21
-0.659194334
 31
0.0
 40
0.4344138212
 41
7.1402397112
 42
10.2818323648
  0
ELLIPSE
  5
38D
100
AcDbEntity
  8
0
100
AcDbEllipse
 62
7
  6
CONTINUOUS
 10
382.02082612
 20
1174.739019684
 30
0.0
 11
3.9897363519
 21
-0.659194334
 31
0.0
 40
0.4344138212
 41
3.9986470576
 42
7.1402397112
  0
ENDSEC
  0
SECTION
  2
OBJECTS
  0
DICTIONARY
  5
C
100
AcDbDictionary
280
0
281
1
  3
ACAD_GROUP
350
D
  3
ACAD_MLINESTYLE
350
17
  3
ACAD_LAYOUT
350
1A
  3
ACAD_PLOTSETTINGS
350
19
  3
ACAD_PLOTSTYLENAME
350
E
  0
DICTIONARY
  5
D
102
{ACAD_REACTORS
330
C
102
}
100
AcDbDictionary
280
0
281
1
  0
ACDBDICTIONARYWDFLT
  5
E
102
{ACAD_REACTORS
330
C
102
}
100
AcDbDictionary
281
1
  3
Normal
350
F
100
AcDbDictionaryWithDefault
340
F
  0
DICTIONARY
  5
17
102
{ACAD_REACTORS
330
C
102
}
100
AcDbDictionary
280
0
281
1
  3
Standard
350
18
  0
DICTIONARY
  5
19
102
{ACAD_REACTORS
330
C
102
}
100
AcDbDictionary
281
1
  0
DICTIONARY
  5
1A
102
{ACAD_REACTORS
330
C
102
}
100
AcDbDictionary
281
1
  3
Model
350
38E
  3
Layout1
350
38F
  0
ACDBPLACEHOLDER
  5
F
102
{ACAD_REACTORS
330
E
102
}
  0
MLINESTYLE
  5
18
102
{ACAD_REACTORS
330
17
102
}
100
AcDbMlineStyle
  2
STANDARD
 70
0
  3

 62
256
 51
90.0
 52
90.0
 71
2
 49
0.5
 62
256
  6
BYLAYER
 49
-0.5
 62
256
  6
BYLAYER
  0
LAYOUT
  5
38E
102
{ACAD_REACTORS
330
1A
102
}
100
AcDbPlotSettings
  1

  2
none_device
  4

  6

 40
0.0
 41
0.0
 42
0.0
 43
0.0
 44
210.0
 45
297.0
 46
0.0
 47
0.0
 48
0.0
 49
0.0
140
0.0
141
0.0
142
1.0
143
1.0
 70
1024
 72
1
 73
0
 74
0
  7

 75
0
147
1.0
148
0.0
149
0.0
100
AcDbLayout
  1
Model
 70
0
 71
0
 10
0.0
 20
0.0
 11
210.0
 21
297.0
 12
0.0
 22
0.0
 32
0.0
 14
0.0
 24
0.0
 34
0.0
 15
0.0
 25
0.0
 35
0.0
146
0.0
 13
0.0
 23
0.0
 33
0.0
 16
1.0
 26
0.0
 36
0.0
 17
0.0
 27
1.0
 37
0.0
 76
0
330
210
345
0
346
0
  0
LAYOUT
  5
38F
102
{ACAD_REACTORS
330
1A
102
}
100
AcDbPlotSettings
  1

  2
none_device
  4

  6

 40
0.0
 41
0.0
 42
0.0
 43
0.0
 44
210.0
 45
297.0
 46
0.0
 47
0.0
 48
0.0
 49
0.0
140
0.0
141
0.0
142
1.0
143
1.0
 70
0
 72
1
 73
0
 74
0
  7

 75
0
147
1.0
148
0.0
149
0.0
100
AcDbLayout
  1
Layout1
 70
0
 71
1
 10
0.0
 20
0.0
 11
210.0
 21
297.0
 12
0.0
 22
0.0
 32
0.0
 14
0.0
 24
0.0
 34
0.0
 15
0.0
 25
0.0
 35
0.0
146
0.0
 13
0.0
 23
0.0
 33
0.0
 16
1.0
 26
0.0
 36
0.0
 17
0.0
 27
1.0
 37
0.0
 76
0
330
211
345
0
346
0
  0
ENDSEC
  0
EOF
