999
DXF file: C:\Users\sesa63760\Dev\_Creo\CAD\MCADID0004816_3D-CAD\drw0001_6.dxf
999
Pro/ENGINEER 2019471 by Parametric Technology Corporation
  0
SECTION
  2
HEADER
  9
$ACADVER
  1
AC1024
  9
$DWGCODEPAGE
  3
ANSI_1252
  9
$EXTMAX
 10
57.6829734293
 20
81.5802052786
 30
0.0
  9
$EXTMIN
 10
0.0
 20
0.0
 30
0.0
  9
$LIMMIN
 10
0.0
 20
0.0
  9
$LIMMAX
 10
57.6829734293
 20
81.5802052786
  9
$VIEWCTR
 10
28.8414867147
 20
40.7901026393
  9
$VIEWSIZE
 40
81.5802052786
  9
$CLAYER
  8
0
  9
$LTSCALE
 40
5.3178207885
  9
$CELTYPE
  6
BYLAYER
  9
$DIMSCALE
 40
1.0
  9
$DIMASZ
 40
0.6867020646
  9
$DIMEXO
 40
1.0
  9
$DIMDLI
 40
3.6741307266
  9
$DIMEXE
 40
1.0
  9
$DIMCEN
 40
0.8701888563
  9
$DIMLFAC
 40
1.0
  9
$DIMBLK
  1
_FILLED
  9
$DIMALT
 70
0
  9
$DIMALTF
 40
0.0393700787
  9
$DIMTXT
 40
0.9613828905
  9
$DIMTOL
 70
1
  9
$DIMLIM
 70
0
  9
$DIMTFAC
 40
1.0
  9
$DIMTP
 40
0.01
  9
$DIMTM
 40
0.01
  9
$DIMGAP
 40
0.625
  9
$DIMDSEP
 70
46
  9
$AUNITS
 70
0
  9
$PDMODE
 70
3
  9
$PDSIZE
 40
0.3125
  9
$HANDSEED
  5
2AC
  9
$TILEMODE
 70
1
  9
$MEASUREMENT
 70
1
  9
$INSUNITS
 70
4
  0
ENDSEC
  0
SECTION
  2
CLASSES
  0
CLASS
  1
ACDBDICTIONARYWDFLT
  2
AcDbDictionaryWithDefault
  3
AutoCAD 2000
 90
0
 91
1
280
0
281
0
  0
CLASS
  1
ACDBPLACEHOLDER
  2
AcDbPlaceHolder
  3
AutoCAD 2000
 90
0
 91
1
280
0
281
0
  0
CLASS
  1
LAYOUT
  2
AcDbLayout
  3
AutoCAD 2000
 90
0
 91
0
280
0
281
0
  0
ENDSEC
  0
SECTION
  2
TABLES
  0
TABLE
  2
VPORT
  5
8
100
AcDbSymbolTable
 70
2
  0
VPORT
  5
1F4
100
AcDbSymbolTableRecord
100
AcDbViewportTableRecord
  2
*ACTIVE
 70
0
 10
0.0
 20
0.0
 11
1.0
 21
1.0
 12
28.8414867147
 22
40.7901026393
 13
0.0
 23
0.0
 14
1.0
 24
1.0
 15
0.0
 25
0.0
 16
0.0
 26
0.0
 36
1.0
 17
0.0
 27
0.0
 37
0.0
 40
81.5802052786
 41
0.7070707071
 42
50.0
 43
0.0
 44
0.0
 50
0.0
 51
0.0
 71
0
 72
100
 73
1
 74
1
 75
0
 76
0
 77
0
 78
0
  0
ENDTAB
  0
TABLE
  2
LTYPE
  5
5
100
AcDbSymbolTable
 70
6
  0
LTYPE
  5
14
100
AcDbSymbolTableRecord
100
AcDbLinetypeTableRecord
  2
BYBLOCK
 70
0
  3

 72
65
 73
0
 40
0.0
  0
LTYPE
  5
15
100
AcDbSymbolTableRecord
100
AcDbLinetypeTableRecord
  2
BYLAYER
 70
0
  3

 72
65
 73
0
 40
0.0
  0
LTYPE
  5
16
100
AcDbSymbolTableRecord
100
AcDbLinetypeTableRecord
  2
CONTINUOUS
 70
64
  3
Solid line
 72
65
 73
0
 40
0.0
  0
LTYPE
  5
1F5
100
AcDbSymbolTableRecord
100
AcDbLinetypeTableRecord
  2
CENTER
 70
64
  3
____ _ ____ _ ____ _ ____ _ ____ _ ____ _ ____
 72
65
 73
4
 40
0.6
 49
0.375
 74
0
 49
-0.075
 74
0
 49
0.075
 74
0
 49
-0.075
 74
0
  0
LTYPE
  5
1F6
100
AcDbSymbolTableRecord
100
AcDbLinetypeTableRecord
  2
HIDDEN
 70
64
  3
- - - - - - - - - - - - - - - - - - - -
 72
65
 73
2
 40
0.2
 49
0.1
 74
0
 49
-0.1
 74
0
  0
LTYPE
  5
1F7
100
AcDbSymbolTableRecord
100
AcDbLinetypeTableRecord
  2
PHANTOM
 70
64
  3
_____ _ _ _____ _ _ _____ _ _ _____
 72
65
 73
6
 40
0.8
 49
0.45
 74
0
 49
-0.05
 74
0
 49
0.1
 74
0
 49
-0.05
 74
0
 49
0.1
 74
0
 49
-0.05
 74
0
  0
LTYPE
  5
1F8
100
AcDbSymbolTableRecord
100
AcDbLinetypeTableRecord
  2
DOT
 70
64
  3
. . . . . . . . . . . . . . . . . . . .
 72
65
 73
2
 40
0.2
 49
0.1
 74
0
 49
-0.1
 74
0
  0
LTYPE
  5
1F9
100
AcDbSymbolTableRecord
100
AcDbLinetypeTableRecord
  2
DASHED
 70
64
  3
- - - - - - - - - - - - - - - - - - - -
 72
65
 73
2
 40
0.2
 49
0.1
 74
0
 49
-0.1
 74
0
  0
ENDTAB
  0
TABLE
  2
LAYER
  5
2
100
AcDbSymbolTable
 70
36
  0
LAYER
  5
10
100
AcDbSymbolTableRecord
100
AcDbLayerTableRecord
  2
0
 70
0
 62
7
  6
CONTINUOUS
370
-3
390
F
  0
LAYER
  5
1FA
100
AcDbSymbolTableRecord
100
AcDbLayerTableRecord
  2
DEFAULT_1
 70
0
 62
7
  6
CENTER
370
-3
390
F
  0
LAYER
  5
1FB
100
AcDbSymbolTableRecord
100
AcDbLayerTableRecord
  2
DEFAULT_2
 70
0
 62
7
  6
HIDDEN
370
-3
390
F
  0
LAYER
  5
1FC
100
AcDbSymbolTableRecord
100
AcDbLayerTableRecord
  2
DEFAULT_3
 70
0
 62
7
  6
PHANTOM
370
-3
390
F
  0
LAYER
  5
1FD
100
AcDbSymbolTableRecord
100
AcDbLayerTableRecord
  2
00_COMPONENTS
 70
0
 62
7
  6
CONTINUOUS
370
-3
390
F
  0
LAYER
  5
1FE
100
AcDbSymbolTableRecord
100
AcDbLayerTableRecord
  2
01_1_DEFAULT_DATUMS
 70
0
 62
7
  6
CONTINUOUS
370
-3
390
F
  0
LAYER
  5
1FF
100
AcDbSymbolTableRecord
100
AcDbLayerTableRecord
  2
01_PLANES
 70
0
 62
7
  6
CONTINUOUS
370
-3
390
F
  0
LAYER
  5
200
100
AcDbSymbolTableRecord
100
AcDbLayerTableRecord
  2
02_COORD_SYS
 70
0
 62
7
  6
CONTINUOUS
370
-3
390
F
  0
LAYER
  5
201
100
AcDbSymbolTableRecord
100
AcDbLayerTableRecord
  2
03_AXES
 70
0
 62
7
  6
CONTINUOUS
370
-3
390
F
  0
LAYER
  5
202
100
AcDbSymbolTableRecord
100
AcDbLayerTableRecord
  2
04_POINTS
 70
0
 62
7
  6
CONTINUOUS
370
-3
390
F
  0
LAYER
  5
203
100
AcDbSymbolTableRecord
100
AcDbLayerTableRecord
  2
05_CURVES
 70
0
 62
7
  6
CONTINUOUS
370
-3
390
F
  0
LAYER
  5
204
100
AcDbSymbolTableRecord
100
AcDbLayerTableRecord
  2
06_SURFS
 70
0
 62
7
  6
CONTINUOUS
370
-3
390
F
  0
LAYER
  5
205
100
AcDbSymbolTableRecord
100
AcDbLayerTableRecord
  2
07_COSMETICS
 70
0
 62
7
  6
CONTINUOUS
370
-3
390
F
  0
LAYER
  5
206
100
AcDbSymbolTableRecord
100
AcDbLayerTableRecord
  2
10_NOTES
 70
0
 62
7
  6
CONTINUOUS
370
-3
390
F
  0
LAYER
  5
207
100
AcDbSymbolTableRecord
100
AcDbLayerTableRecord
  2
11_NOTES_PUB
 70
0
 62
7
  6
CONTINUOUS
370
-3
390
F
  0
LAYER
  5
208
100
AcDbSymbolTableRecord
100
AcDbLayerTableRecord
  2
13_REF_GTOL
 70
0
 62
7
  6
CONTINUOUS
370
-3
390
F
  0
LAYER
  5
209
100
AcDbSymbolTableRecord
100
AcDbLayerTableRecord
  2
16_MISC
 70
0
 62
7
  6
CONTINUOUS
370
-3
390
F
  0
LAYER
  5
20A
100
AcDbSymbolTableRecord
100
AcDbLayerTableRecord
  2
17_NO_PRINT
 70
0
 62
7
  6
CONTINUOUS
370
-3
390
F
  0
LAYER
  5
20B
100
AcDbSymbolTableRecord
100
AcDbLayerTableRecord
  2
18_DATUM_CAMS_JOINTS
 70
0
 62
7
  6
CONTINUOUS
370
-3
390
F
  0
LAYER
  5
20C
100
AcDbSymbolTableRecord
100
AcDbLayerTableRecord
  2
19_DATUM_FUNCTIONAL
 70
0
 62
7
  6
CONTINUOUS
370
-3
390
F
  0
LAYER
  5
20D
100
AcDbSymbolTableRecord
100
AcDbLayerTableRecord
  2
20_DATUM_KINEMATIC_SCHEME
 70
0
 62
7
  6
CONTINUOUS
370
-3
390
F
  0
ENDTAB
  0
TABLE
  2
STYLE
  5
3
100
AcDbSymbolTable
 70
1
  0
STYLE
  5
11
100
AcDbSymbolTableRecord
100
AcDbTextStyleTableRecord
  2
STANDARD
 70
0
 40
0.0
 41
1.0
 50
0.0
 71
0
 42
0.2
  3
ARIAL.TTF
  4

  0
STYLE
  5
20E
100
AcDbSymbolTableRecord
100
AcDbTextStyleTableRecord
  2
TEXTSTYLE_1
 70
0
 40
0.0
 41
0.8
 50
0.0
 71
0
 42
0.2
  3
gdt
  4

  0
ENDTAB
  0
TABLE
  2
VIEW
  5
6
100
AcDbSymbolTable
 70
0
  0
ENDTAB
  0
TABLE
  2
UCS
  5
7
100
AcDbSymbolTable
 70
0
  0
ENDTAB
  0
TABLE
  2
APPID
  5
9
100
AcDbSymbolTable
 70
1
  0
APPID
  5
20F
100
AcDbSymbolTableRecord
100
AcDbRegAppTableRecord
  2
ACAD
 70
0
  0
ENDTAB
  0
TABLE
  2
BLOCK_RECORD
  5
1
100
AcDbSymbolTable
 70
0
  0
BLOCK_RECORD
  5
210
100
AcDbSymbolTableRecord
100
AcDbBlockTableRecord
  2
*Model_Space
  0
BLOCK_RECORD
  5
211
100
AcDbSymbolTableRecord
100
AcDbBlockTableRecord
  2
*Paper_Space
  0
BLOCK_RECORD
  5
212
100
AcDbSymbolTableRecord
100
AcDbBlockTableRecord
  2
_FILLED
  0
ENDTAB
  0
TABLE
  2
DIMSTYLE
  5
A
100
AcDbSymbolTable
 70
1
100
AcDbDimStyleTable
 71
0
  0
DIMSTYLE
105
213
100
AcDbSymbolTableRecord
100
AcDbDimStyleTableRecord
  2
STANDARD
 70
0
  3

  4

 40
1.0
 41
0.6867020646
 42
1.0
 43
0.38
 44
1.0
 45
0.0
 46
0.0
 47
0.01
 48
0.01
140
0.9613828905
141
0.09
142
0.0
143
25.4
144
1.0
145
0.0
146
1.0
147
0.625
 71
1
 72
0
 73
0
 74
0
 75
0
 76
0
 77
1
 78
8
 79
2
170
0
171
1
172
0
173
0
174
0
175
0
176
0
177
0
178
0
270
2
179
2
271
2
272
2
273
2
274
2
275
0
280
0
281
0
282
0
283
1
284
8
285
0
286
0
287
3
288
0
340
11
278
46
341
212
342
212
343
212
344
212
  0
ENDTAB
  0
ENDSEC
  0
SECTION
  2
BLOCKS
  0
BLOCK
  5
20
100
AcDbEntity
  8
0
100
AcDbBlockBegin
  2
*Model_Space
 70
0
 10
0.0
 20
0.0
 30
0.0
  3
*Model_Space
  1

  0
ENDBLK
  5
21
100
AcDbEntity
  8
0
100
AcDbBlockEnd
  0
BLOCK
  5
1C
100
AcDbEntity
  8
0
100
AcDbBlockBegin
  2
*Paper_Space
 70
0
 10
0.0
 20
0.0
 30
0.0
  3
*Paper_Space
  1

  0
ENDBLK
  5
1D
100
AcDbEntity
  8
0
100
AcDbBlockEnd
  0
BLOCK
  5
214
100
AcDbEntity
  8
0
100
AcDbBlockBegin
  2
_FILLED
 70
64
 10
0.0
 20
0.0
  3
_FILLED
  1

  0
SOLID
  5
215
100
AcDbEntity
  8
0
  6
BYBLOCK
 62
0
100
AcDbTrace
 10
0.0
 20
0.0
 11
-1.0
 21
0.25
 12
-1.0
 22
-0.25
 13
-1.0
 23
-0.25
  0
ENDBLK
  5
216
100
AcDbEntity
  8
0
  6
BYBLOCK
 62
0
100
AcDbBlockEnd
  0
ENDSEC
  0
SECTION
  2
ENTITIES
  0
LINE
  5
217
100
AcDbEntity
  8
0
100
AcDbLine
 62
7
  6
BYLAYER
 10
13.3907535768
 20
6.7401026393
 11
45.2907535768
 21
6.7401026393
  0
LINE
  5
218
100
AcDbEntity
  8
0
100
AcDbLine
 62
7
  6
BYLAYER
 10
30.8407535768
 20
7.4865128008
 11
27.8407535768
 21
7.4865128008
  0
LINE
  5
219
100
AcDbEntity
  8
0
100
AcDbLine
 62
7
  6
BYLAYER
 10
30.8407535768
 20
13.2475678584
 11
27.8407535768
 21
13.2475678584
  0
LINE
  5
21A
100
AcDbEntity
  8
0
100
AcDbLine
 62
7
  6
BYLAYER
 10
27.8407535768
 20
14.9676404189
 11
30.8407535768
 21
14.9676404189
  0
LINE
  5
21B
100
AcDbEntity
  8
0
100
AcDbLine
 62
7
  6
BYLAYER
 10
13.3907535768
 20
16.2401026393
 11
27.8407535768
 21
16.2401026393
  0
LINE
  5
21C
100
AcDbEntity
  8
0
100
AcDbLine
 62
7
  6
BYLAYER
 10
30.8407535768
 20
16.2401026393
 11
45.2907535768
 21
16.2401026393
  0
LINE
  5
21D
100
AcDbEntity
  8
0
100
AcDbLine
 62
7
  6
BYLAYER
 10
30.8407535768
 20
17.4401026393
 11
27.8407535768
 21
17.4401026393
  0
LINE
  5
21E
100
AcDbEntity
  8
0
100
AcDbLine
 62
7
  6
BYLAYER
 10
18.902585519
 20
69.0003921428
 11
20.1459533381
 21
73.6407040163
  0
LINE
  5
21F
100
AcDbEntity
  8
0
100
AcDbLine
 62
7
  6
BYLAYER
 10
13.3907535768
 20
6.7401026393
 11
13.3907535768
 21
16.2401026393
  0
LINE
  5
220
100
AcDbEntity
  8
0
100
AcDbLine
 62
7
  6
BYLAYER
 10
14.3407535768
 20
29.8401026393
 11
14.3407535768
 21
73.0401026393
  0
LINE
  5
221
100
AcDbEntity
  8
0
100
AcDbLine
 62
7
  6
BYLAYER
 10
14.4407535768
 20
29.6401026675
 11
14.4407535768
 21
29.7401026393
  0
LINE
  5
222
100
AcDbEntity
  8
0
100
AcDbLine
 62
7
  6
BYLAYER
 10
39.2407535641
 20
24.6401026393
 11
19.4407535896
 21
24.6401026393
  0
LINE
  5
223
100
AcDbEntity
  8
0
100
AcDbLine
 62
7
  6
BYLAYER
 10
39.2407535615
 20
25.1401026394
 11
19.4407535921
 21
25.1401026394
  0
LINE
  5
224
100
AcDbEntity
  8
0
100
AcDbLine
 62
7
  6
BYLAYER
 10
14.9407535771
 20
29.6401026562
 11
14.9407535768
 21
29.7401026393
  0
LINE
  5
225
100
AcDbEntity
  8
0
100
AcDbLine
 62
7
  6
BYLAYER
 10
15.3157535768
 20
16.2401026393
 11
15.3157535768
 21
26.8144591368
  0
LINE
  5
226
100
AcDbEntity
  8
0
100
AcDbLine
 62
7
  6
BYLAYER
 10
15.3907535768
 20
29.8401026393
 11
15.3907535768
 21
29.7401026393
  0
LINE
  5
227
100
AcDbEntity
  8
0
100
AcDbLine
 62
7
  6
BYLAYER
 10
17.0907535768
 20
29.7401026393
 11
17.0907535768
 21
29.8401026393
  0
LINE
  5
228
100
AcDbEntity
  8
0
100
AcDbLine
 62
7
  6
BYLAYER
 10
21.5092588443
 20
68.2966305077
 11
22.7711175856
 21
73.0059514424
  0
LINE
  5
229
100
AcDbEntity
  8
0
100
AcDbLine
 62
7
  6
BYLAYER
 10
22.1093597478
 20
68.6071233282
 11
21.9407535768
 21
67.9778765317
  0
LINE
  5
22A
100
AcDbEntity
  8
0
100
AcDbLine
 62
7
  6
BYLAYER
 10
19.4407535896
 20
24.6401026394
 11
19.4407535921
 21
25.1401026394
  0
LINE
  5
22B
100
AcDbEntity
  8
0
100
AcDbLine
 62
7
  6
BYLAYER
 10
25.3702297666
 20
66.858700805
 11
25.800088396
 21
68.6221195585
  0
LINE
  5
22C
100
AcDbEntity
  8
0
100
AcDbLine
 62
7
  6
BYLAYER
 10
14.4407535772
 20
29.6401026675
 11
14.9407535771
 21
29.6401026562
  0
LINE
  5
22D
100
AcDbEntity
  8
0
100
AcDbLine
 62
7
  6
BYLAYER
 10
44.2407535766
 20
29.6401026534
 11
43.7407535766
 21
29.6401026562
  0
LINE
  5
22E
100
AcDbEntity
  8
0
100
AcDbLine
 62
7
  6
BYLAYER
 10
14.4407535768
 20
29.7401026393
 11
44.2407535768
 21
29.7401026393
  0
LINE
  5
22F
100
AcDbEntity
  8
0
100
AcDbLine
 62
7
  6
BYLAYER
 10
14.3407535768
 20
29.8401026393
 11
44.3407535768
 21
29.8401026393
  0
LINE
  5
230
100
AcDbEntity
  8
0
100
AcDbLine
 62
7
  6
BYLAYER
 10
20.2907535768
 20
6.7401026393
 11
20.2907535768
 21
16.2401026393
  0
LINE
  5
231
100
AcDbEntity
  8
0
100
AcDbLine
 62
7
  6
BYLAYER
 10
20.3657535768
 20
16.2401026393
 11
20.3657535768
 21
24.6401026393
  0
LINE
  5
232
100
AcDbEntity
  8
0
100
AcDbLine
 62
7
  6
BYLAYER
 10
21.3407535768
 20
74.3333455196
 11
21.3407535768
 21
74.8401026393
  0
LINE
  5
233
100
AcDbEntity
  8
0
100
AcDbLine
 62
7
  6
BYLAYER
 10
16.2145213941
 20
72.4438896421
 11
16.0407535768
 21
73.4293759049
  0
LINE
  5
234
100
AcDbEntity
  8
0
100
AcDbLine
 62
7
  6
BYLAYER
 10
16.9407535768
 20
68.1333722912
 11
16.8477771028
 21
68.7949342792
  0
LINE
  5
235
100
AcDbEntity
  8
0
100
AcDbLine
 62
7
  6
BYLAYER
 10
22.7881546725
 20
73.1353609649
 11
22.7881546725
 21
73.965125547
  0
LINE
  5
236
100
AcDbEntity
  8
0
100
AcDbLine
 62
7
  6
BYLAYER
 10
22.8407535768
 20
74.5060205348
 11
22.8407535768
 21
73.5006376032
  0
LINE
  5
237
100
AcDbEntity
  8
0
100
AcDbLine
 62
7
  6
BYLAYER
 10
25.367214782
 20
69.8885510579
 11
25.3662406475
 21
69.8506843426
  0
LINE
  5
238
100
AcDbEntity
  8
0
100
AcDbLine
 62
7
  6
BYLAYER
 10
24.7407535768
 20
70.3244018524
 11
24.7407535768
 21
70.3087010656
  0
LINE
  5
239
100
AcDbEntity
  8
0
100
AcDbLine
 62
7
  6
BYLAYER
 10
25.4604127337
 20
70.3244018524
 11
25.4604127337
 21
70.1201034834
  0
LINE
  5
23A
100
AcDbEntity
  8
0
100
AcDbLine
 62
7
  6
BYLAYER
 10
26.3407535768
 20
67.2710408584
 11
26.3407535768
 21
70.3244018524
  0
LINE
  5
23B
100
AcDbEntity
  8
0
100
AcDbLine
 62
7
  6
BYLAYER
 10
25.367214782
 20
69.8885510579
 11
25.3663767222
 21
69.8506805093
  0
LINE
  5
23C
100
AcDbEntity
  8
0
100
AcDbLine
 62
7
  6
BYLAYER
 10
33.3040688294
 20
69.8503962785
 11
33.3555313247
 21
70.0424569258
  0
LINE
  5
23D
100
AcDbEntity
  8
0
100
AcDbLine
 62
7
  6
BYLAYER
 10
27.8407535768
 20
6.7401026393
 11
27.8407535768
 21
17.4401026393
  0
LINE
  5
23E
100
AcDbEntity
  8
0
100
AcDbLine
 62
7
  6
BYLAYER
 10
28.4477250219
 20
74.8338128951
 11
28.4477250219
 21
74.8401026393
  0
LINE
  5
23F
100
AcDbEntity
  8
0
100
AcDbLine
 62
7
  6
BYLAYER
 10
28.8407535768
 20
71.2029057868
 11
28.8407535768
 21
70.3244018524
  0
LINE
  5
240
100
AcDbEntity
  8
0
100
AcDbLine
 62
7
  6
BYLAYER
 10
28.8407535768
 20
68.7161898277
 11
28.8407535768
 21
70.0919626434
  0
LINE
  5
241
100
AcDbEntity
  8
0
100
AcDbLine
 62
7
  6
BYLAYER
 10
29.8407535768
 20
68.7161898277
 11
29.8407535768
 21
70.0919626434
  0
LINE
  5
242
100
AcDbEntity
  8
0
100
AcDbLine
 62
7
  6
BYLAYER
 10
29.8407535768
 20
70.3244018524
 11
29.8407535768
 21
71.2029057868
  0
LINE
  5
243
100
AcDbEntity
  8
0
100
AcDbLine
 62
7
  6
BYLAYER
 10
30.2337821318
 20
74.8401026393
 11
30.2337821318
 21
74.8338128951
  0
LINE
  5
244
100
AcDbEntity
  8
0
100
AcDbLine
 62
7
  6
BYLAYER
 10
30.8407535768
 20
6.7401026393
 11
30.8407535768
 21
17.4401026393
  0
LINE
  5
245
100
AcDbEntity
  8
0
100
AcDbLine
 62
7
  6
BYLAYER
 10
33.3152664757
 20
69.8506843328
 11
33.3142923717
 21
69.8885510579
  0
LINE
  5
246
100
AcDbEntity
  8
0
100
AcDbLine
 62
7
  6
BYLAYER
 10
32.3407535768
 20
70.3244018524
 11
32.3407535768
 21
67.2710408584
  0
LINE
  5
247
100
AcDbEntity
  8
0
100
AcDbLine
 62
7
  6
BYLAYER
 10
33.2210944199
 20
70.1200992675
 11
33.2210944199
 21
70.3244018524
  0
LINE
  5
248
100
AcDbEntity
  8
0
100
AcDbLine
 62
7
  6
BYLAYER
 10
33.9407535768
 20
70.3087010656
 11
33.9407535768
 21
70.3244018524
  0
LINE
  5
249
100
AcDbEntity
  8
0
100
AcDbLine
 62
7
  6
BYLAYER
 10
25.3774383243
 20
69.8503962785
 11
25.3259758289
 21
70.0424569258
  0
LINE
  5
24A
100
AcDbEntity
  8
0
100
AcDbLine
 62
7
  6
BYLAYER
 10
37.3407535768
 20
74.8401026393
 11
37.3407535768
 21
74.3333455196
  0
LINE
  5
24B
100
AcDbEntity
  8
0
100
AcDbLine
 62
7
  6
BYLAYER
 10
38.3157535768
 20
24.6401026393
 11
38.3157535768
 21
16.2401026393
  0
LINE
  5
24C
100
AcDbEntity
  8
0
100
AcDbLine
 62
7
  6
BYLAYER
 10
38.3907535768
 20
16.2401026393
 11
38.3907535768
 21
6.7401026393
  0
LINE
  5
24D
100
AcDbEntity
  8
0
100
AcDbLine
 62
7
  6
BYLAYER
 10
38.5907535768
 20
72.3401026393
 11
38.5907535768
 21
70.3087010656
  0
LINE
  5
24E
100
AcDbEntity
  8
0
100
AcDbLine
 62
7
  6
BYLAYER
 10
38.7157535768
 20
69.8951026393
 11
38.7157535768
 21
72.5351026393
  0
LINE
  5
24F
100
AcDbEntity
  8
0
100
AcDbLine
 62
7
  6
BYLAYER
 10
39.2407535641
 20
24.6401026394
 11
39.2407535615
 21
25.1401026394
  0
LINE
  5
250
100
AcDbEntity
  8
0
100
AcDbLine
 62
7
  6
BYLAYER
 10
33.3112773916
 20
66.8587008523
 11
32.8814187576
 21
68.6221195585
  0
LINE
  5
251
100
AcDbEntity
  8
0
100
AcDbLine
 62
7
  6
BYLAYER
 10
41.5907535768
 20
29.8401026393
 11
41.5907535768
 21
29.7401026393
  0
LINE
  5
252
100
AcDbEntity
  8
0
100
AcDbLine
 62
7
  6
BYLAYER
 10
43.2907535768
 20
29.7401026393
 11
43.2907535768
 21
29.8401026393
  0
LINE
  5
253
100
AcDbEntity
  8
0
100
AcDbLine
 62
7
  6
BYLAYER
 10
43.3657535768
 20
26.8144591368
 11
43.3657535768
 21
16.2401026393
  0
LINE
  5
254
100
AcDbEntity
  8
0
100
AcDbLine
 62
7
  6
BYLAYER
 10
43.7407535768
 20
29.7401026393
 11
43.7407535766
 21
29.6401026562
  0
LINE
  5
255
100
AcDbEntity
  8
0
100
AcDbLine
 62
7
  6
BYLAYER
 10
44.2407535768
 20
29.7401026393
 11
44.2407535768
 21
29.6401026534
  0
LINE
  5
256
100
AcDbEntity
  8
0
100
AcDbLine
 62
7
  6
BYLAYER
 10
44.3407535768
 20
29.8401026393
 11
44.3407535768
 21
73.0401026393
  0
LINE
  5
257
100
AcDbEntity
  8
0
100
AcDbLine
 62
7
  6
BYLAYER
 10
45.2907535768
 20
16.2401026393
 11
45.2907535768
 21
6.7401026393
  0
LINE
  5
258
100
AcDbEntity
  8
0
100
AcDbLine
 62
7
  6
BYLAYER
 10
22.9449493802
 20
63.1052330156
 11
21.8698014436
 21
63.6065827321
  0
LINE
  5
259
100
AcDbEntity
  8
0
100
AcDbLine
 62
7
  6
BYLAYER
 10
15.6960905468
 20
66.488262643
 11
16.7712267539
 21
65.986918396
  0
LINE
  5
25A
100
AcDbEntity
  8
0
100
AcDbLine
 62
7
  6
BYLAYER
 10
22.9854166068
 20
63.1919426356
 11
21.9102893119
 21
63.6932823497
  0
LINE
  5
25B
100
AcDbEntity
  8
0
100
AcDbLine
 62
7
  6
BYLAYER
 10
15.7365577735
 20
66.574972263
 11
16.8117057101
 21
66.0736225465
  0
LINE
  5
25C
100
AcDbEntity
  8
0
100
AcDbLine
 62
7
  6
BYLAYER
 10
16.526920875
 20
64.8401026393
 11
15.3407535768
 21
64.8401026393
  0
LINE
  5
25D
100
AcDbEntity
  8
0
100
AcDbLine
 62
7
  6
BYLAYER
 10
22.1545862786
 20
64.8401026393
 11
23.3407535768
 21
64.8401026393
  0
LINE
  5
25E
100
AcDbEntity
  8
0
100
AcDbLine
 62
7
  6
BYLAYER
 10
23.3384167049
 20
64.7033930402
 11
22.1530593308
 21
64.7474159637
  0
LINE
  5
25F
100
AcDbEntity
  8
0
100
AcDbLine
 62
7
  6
BYLAYER
 10
23.3343134256
 20
64.6132111805
 11
22.1487622736
 21
64.6585930336
  0
LINE
  5
260
100
AcDbEntity
  8
0
100
AcDbLine
 62
7
  6
BYLAYER
 10
15.3434470292
 20
64.9868689977
 11
16.5286983721
 21
64.940102635
  0
LINE
  5
261
100
AcDbEntity
  8
0
100
AcDbLine
 62
7
  6
BYLAYER
 10
15.3477670394
 20
65.0768694282
 11
16.5332517577
 21
65.0287504844
  0
LINE
  5
262
100
AcDbEntity
  8
0
100
AcDbLine
 62
7
  6
BYLAYER
 10
21.5092588443
 20
68.2966305077
 11
18.9012168285
 21
68.9954532597
  0
LINE
  5
263
100
AcDbEntity
  8
0
100
AcDbLine
 62
7
  6
BYLAYER
 10
18.9271410178
 20
69.0920345121
 11
21.5351407488
 21
68.3932230903
  0
LINE
  5
264
100
AcDbEntity
  8
0
100
AcDbLine
 62
7
  6
BYLAYER
 10
19.0306686358
 20
69.4784048426
 11
21.6386683668
 21
68.7795934209
  0
LINE
  5
265
100
AcDbEntity
  8
0
100
AcDbLine
 62
7
  6
BYLAYER
 10
29.8407535768
 20
68.9078116187
 11
28.8407535768
 21
68.9078116187
  0
LINE
  5
266
100
AcDbEntity
  8
0
100
AcDbLine
 62
7
  6
BYLAYER
 10
29.8407535768
 20
69.2901026393
 11
28.8407535768
 21
69.2901026393
  0
LINE
  5
267
100
AcDbEntity
  8
0
100
AcDbLine
 62
7
  6
BYLAYER
 10
25.3259758289
 20
70.0424569258
 11
28.8407535768
 21
70.0424569258
  0
LINE
  5
268
100
AcDbEntity
  8
0
100
AcDbLine
 62
7
  6
BYLAYER
 10
29.8407535768
 20
70.0424569258
 11
33.3555313247
 21
70.0424569258
  0
LINE
  5
269
100
AcDbEntity
  8
0
100
AcDbLine
 62
7
  6
BYLAYER
 10
38.7157535768
 20
70.0901026393
 11
33.364249808
 21
70.0901026393
  0
LINE
  5
26A
100
AcDbEntity
  8
0
100
AcDbLine
 62
7
  6
BYLAYER
 10
21.9898182536
 20
70.0901026393
 11
25.4621640622
 21
70.0901026393
  0
LINE
  5
26B
100
AcDbEntity
  8
0
100
AcDbLine
 62
7
  6
BYLAYER
 10
33.2193430914
 20
70.0901026393
 11
33.3555313247
 21
70.0901026393
  0
LINE
  5
26C
100
AcDbEntity
  8
0
100
AcDbLine
 62
7
  6
BYLAYER
 10
28.8407535768
 20
70.0919626434
 11
29.8407535768
 21
70.0919626434
  0
LINE
  5
26D
100
AcDbEntity
  8
0
100
AcDbLine
 62
7
  6
BYLAYER
 10
33.2210944199
 20
70.1201026393
 11
25.4604127337
 21
70.1201026393
  0
LINE
  5
26E
100
AcDbEntity
  8
0
100
AcDbLine
 62
7
  6
BYLAYER
 10
38.5907535768
 20
70.3087010656
 11
33.9407535768
 21
70.3087010656
  0
LINE
  5
26F
100
AcDbEntity
  8
0
100
AcDbLine
 62
7
  6
BYLAYER
 10
24.7407535768
 20
70.3087010656
 11
22.0483915254
 21
70.3087010656
  0
LINE
  5
270
100
AcDbEntity
  8
0
100
AcDbLine
 62
7
  6
BYLAYER
 10
33.9407535768
 20
70.3244018524
 11
29.8407535768
 21
70.3244018524
  0
LINE
  5
271
100
AcDbEntity
  8
0
100
AcDbLine
 62
7
  6
BYLAYER
 10
28.8407535768
 20
70.3244018524
 11
24.7407535768
 21
70.3244018524
  0
LINE
  5
272
100
AcDbEntity
  8
0
100
AcDbLine
 62
7
  6
BYLAYER
 10
38.5907535768
 20
70.3401026393
 11
29.8407535768
 21
70.3401026393
  0
LINE
  5
273
100
AcDbEntity
  8
0
100
AcDbLine
 62
7
  6
BYLAYER
 10
28.8407535768
 20
70.3401026393
 11
22.0568055517
 21
70.3401026393
  0
LINE
  5
274
100
AcDbEntity
  8
0
100
AcDbLine
 62
7
  6
BYLAYER
 10
29.8407535768
 20
71.171504213
 11
28.8407535768
 21
71.171504213
  0
LINE
  5
275
100
AcDbEntity
  8
0
100
AcDbLine
 62
7
  6
BYLAYER
 10
38.7157535768
 20
71.1901026393
 11
38.5907535768
 21
71.1901026393
  0
LINE
  5
276
100
AcDbEntity
  8
0
100
AcDbLine
 62
7
  6
BYLAYER
 10
22.2879929583
 20
71.2029057868
 11
38.5907535768
 21
71.2029057868
  0
LINE
  5
277
100
AcDbEntity
  8
0
100
AcDbLine
 62
7
  6
BYLAYER
 10
22.5927039366
 20
72.3401026393
 11
38.7157535768
 21
72.3401026393
  0
LINE
  5
278
100
AcDbEntity
  8
0
100
AcDbLine
 62
7
  6
BYLAYER
 10
22.7881546725
 20
73.5621216168
 11
20.0342952052
 21
73.2239901913
  0
LINE
  5
279
100
AcDbEntity
  8
0
100
AcDbLine
 62
7
  6
BYLAYER
 10
22.7881546725
 20
73.965125547
 11
20.1459533381
 21
73.6407040163
  0
LINE
  5
27A
100
AcDbEntity
  8
0
100
AcDbLine
 62
7
  6
BYLAYER
 10
21.3407535768
 20
74.8401026393
 11
37.3407535768
 21
74.8401026393
  0
ARC
  5
27B
100
AcDbEntity
  8
0
100
AcDbCircle
 62
7
  6
BYLAYER
 10
6.7023672896
 20
70.2852381514
 40
18.6690676908
100
AcDbArc
 50
357.177212487
 51
358.6662125728
  0
ARC
  5
27C
100
AcDbEntity
  8
0
100
AcDbCircle
 62
7
  6
BYLAYER
 10
19.4407535768
 20
29.6401026393
 40
5.0
100
AcDbArc
 50
179.9999997575
 51
270.0
  0
ARC
  5
27D
100
AcDbEntity
  8
0
100
AcDbCircle
 62
7
  6
BYLAYER
 10
19.4407535768
 20
29.6401026393
 40
4.5
100
AcDbArc
 50
180.000000034
 51
270.0000001762
  0
CIRCLE
  5
27E
100
AcDbEntity
  8
0
100
AcDbCircle
 62
7
  6
BYLAYER
 10
16.2407535768
 20
32.7401026393
 40
1.0
  0
ARC
  5
27F
100
AcDbEntity
  8
0
100
AcDbCircle
 62
7
  6
BYLAYER
 10
19.3407535768
 20
64.8401026393
 40
4.675
100
AcDbArc
 50
94.7899723975
 51
122.2257824749
  0
ARC
  5
280
100
AcDbEntity
  8
0
100
AcDbCircle
 62
7
  6
BYLAYER
 10
19.3407535768
 20
64.8401026393
 40
4.675
100
AcDbArc
 50
53.6856347167
 51
62.1392929901
  0
ARC
  5
281
100
AcDbEntity
  8
0
100
AcDbCircle
 62
7
  6
BYLAYER
 10
19.3407535768
 20
64.8401026393
 40
4.075
100
AcDbArc
 50
126.0830325568
 51
50.3544153637
  0
ARC
  5
282
100
AcDbEntity
  8
0
100
AcDbCircle
 62
7
  6
BYLAYER
 10
19.3407535768
 20
64.8401026393
 40
4.0
100
AcDbArc
 50
0.0
 51
54.5837898711
  0
ARC
  5
283
100
AcDbEntity
  8
0
100
AcDbCircle
 62
7
  6
BYLAYER
 10
19.3407535768
 20
64.8401026393
 40
4.0
100
AcDbArc
 50
180.0
 51
311.4490721244
  0
ARC
  5
284
100
AcDbEntity
  8
0
100
AcDbCircle
 62
7
  6
BYLAYER
 10
19.3407535768
 20
64.8401026393
 40
4.0
100
AcDbArc
 50
338.8747229238
 51
358.0413978061
  0
ARC
  5
285
100
AcDbEntity
  8
0
100
AcDbCircle
 62
7
  6
BYLAYER
 10
19.3407535768
 20
64.8401026393
 40
4.0
100
AcDbArc
 50
99.746524587
 51
177.8972547801
  0
ARC
  5
286
100
AcDbEntity
  8
0
100
AcDbCircle
 62
7
  6
BYLAYER
 10
19.3407535768
 20
64.8401026393
 40
4.0
100
AcDbArc
 50
313.0242265631
 51
335.6669834478
  0
ARC
  5
287
100
AcDbEntity
  8
0
100
AcDbCircle
 62
7
  6
BYLAYER
 10
19.3407535768
 20
64.8401026393
 40
2.8138327018
100
AcDbArc
 50
178.0242718551
 51
180.0
  0
ARC
  5
288
100
AcDbEntity
  8
0
100
AcDbCircle
 62
7
  6
BYLAYER
 10
19.3407535768
 20
64.8401026393
 40
2.8138327018
100
AcDbArc
 50
153.9997167781
 51
177.9633528102
  0
ARC
  5
289
100
AcDbEntity
  8
0
100
AcDbCircle
 62
7
  6
BYLAYER
 10
19.3407535768
 20
64.8401026393
 40
2.8138327018
100
AcDbArc
 50
333.9997197467
 51
360.0
  0
CIRCLE
  5
28A
100
AcDbEntity
  8
0
100
AcDbCircle
 62
7
  6
BYLAYER
 10
19.3407535768
 20
64.8401026393
 40
2.25
  0
CIRCLE
  5
28B
100
AcDbEntity
  8
0
100
AcDbCircle
 62
7
  6
BYLAYER
 10
19.3407535768
 20
64.8401026393
 40
2.125
  0
ARC
  5
28C
100
AcDbEntity
  8
0
100
AcDbCircle
 62
7
  6
BYLAYER
 10
21.8326541672
 20
68.3444472924
 40
0.3
100
AcDbArc
 50
170.6724841831
 51
234.583789871
  0
ARC
  5
28D
100
AcDbEntity
  8
0
100
AcDbCircle
 62
7
  6
BYLAYER
 10
18.6128077711
 20
69.0780378563
 40
0.3
100
AcDbArc
 50
279.7465245869
 51
345.0000000001
  0
ARC
  5
28E
100
AcDbEntity
  8
0
100
AcDbCircle
 62
7
  6
BYLAYER
 10
25.6157535768
 20
70.1201026393
 40
0.3
100
AcDbArc
 50
185.7392305012
 51
195.0
  0
ARC
  5
28F
100
AcDbEntity
  8
0
100
AcDbCircle
 62
7
  6
BYLAYER
 10
25.7186246551
 20
70.1201258787
 40
0.2582119223
100
AcDbArc
 50
180.004969379
 51
186.6770919402
  0
ARC
  5
290
100
AcDbEntity
  8
0
100
AcDbCircle
 62
7
  6
BYLAYER
 10
29.2786034728
 20
137.9932932384
 40
68.7496795931
100
AcDbArc
 50
273.3807811421
 51
277.8898837842
  0
ARC
  5
291
100
AcDbEntity
  8
0
100
AcDbCircle
 62
7
  6
BYLAYER
 10
22.2881546725
 20
73.1353609649
 40
0.5
100
AcDbArc
 50
344.9999999997
 51
360.0
  0
ARC
  5
292
100
AcDbEntity
  8
0
100
AcDbCircle
 62
7
  6
BYLAYER
 10
29.3407535768
 20
5.1259221939
 40
68.0586684452
100
AcDbArc
 50
82.0823190937
 51
95.6113348398
  0
ARC
  5
293
100
AcDbEntity
  8
0
100
AcDbCircle
 62
7
  6
BYLAYER
 10
29.3407535768
 20
11.4401026393
 40
63.4
100
AcDbArc
 50
76.3144531747
 51
89.1929265096
  0
ARC
  5
294
100
AcDbEntity
  8
0
100
AcDbCircle
 62
7
  6
BYLAYER
 10
29.3407535768
 20
11.4401026393
 40
63.4
100
AcDbArc
 50
90.8070734904
 51
103.6855468253
  0
ARC
  5
295
100
AcDbEntity
  8
0
100
AcDbCircle
 62
7
  6
BYLAYER
 10
29.3407535768
 20
11.4401026393
 40
62.4
100
AcDbArc
 50
95.9791567963
 51
96.0278392051
  0
ARC
  5
296
100
AcDbEntity
  8
0
100
AcDbCircle
 62
7
  6
BYLAYER
 10
29.3407535768
 20
11.4401026393
 40
62.4
100
AcDbArc
 50
98.6016311184
 51
102.1432322654
  0
ARC
  5
297
100
AcDbEntity
  8
0
100
AcDbCircle
 62
7
  6
BYLAYER
 10
51.9785017306
 20
70.2852081901
 40
18.6684290477
100
AcDbArc
 50
181.3337409943
 51
182.8227937681
  0
ARC
  5
298
100
AcDbEntity
  8
0
100
AcDbCircle
 62
7
  6
BYLAYER
 10
39.2407535768
 20
29.6401026393
 40
5.0
100
AcDbArc
 50
270.0
 51
0.0000002425
  0
ARC
  5
299
100
AcDbEntity
  8
0
100
AcDbCircle
 62
7
  6
BYLAYER
 10
39.2407535768
 20
29.6401026393
 40
4.5
100
AcDbArc
 50
270.0000000189
 51
0.0000001821
  0
CIRCLE
  5
29A
100
AcDbEntity
  8
0
100
AcDbCircle
 62
7
  6
BYLAYER
 10
39.3407535768
 20
64.8401026393
 40
4.075
  0
CIRCLE
  5
29B
100
AcDbEntity
  8
0
100
AcDbCircle
 62
7
  6
BYLAYER
 10
39.3407535768
 20
64.8401026393
 40
2.125
  0
CIRCLE
  5
29C
100
AcDbEntity
  8
0
100
AcDbCircle
 62
7
  6
BYLAYER
 10
42.4407535768
 20
32.7401026393
 40
1.0
  0
ARC
  5
29D
100
AcDbEntity
  8
0
100
AcDbCircle
 62
7
  6
BYLAYER
 10
33.0657535768
 20
70.1201026393
 40
0.3
100
AcDbArc
 50
345.0
 51
354.2608240641
  0
ARC
  5
29E
100
AcDbEntity
  8
0
100
AcDbCircle
 62
7
  6
BYLAYER
 10
32.9629186961
 20
70.1201230662
 40
0.258175725
100
AcDbArc
 50
353.3225960657
 51
359.9947184643
  0
ARC
  5
29F
100
AcDbEntity
  8
0
100
AcDbCircle
 62
7
  6
BYLAYER
 10
29.40290374
 20
137.9932937698
 40
68.7496801276
100
AcDbArc
 50
263.7130431297
 51
266.6192188348
  0
SPLINE
  5
2A0
100
AcDbEntity
  8
0
100
AcDbSpline
 62
7
  6
BYLAYER
 70
0
 71
3
 72
9
 73
5
 74
0
 42
0.0000001
 43
0.0000001
 44
0.0000000001
 40
0.0
 40
0.0
 40
0.0
 40
0.0
 40
0.5004485425
 40
1.0
 40
1.0
 40
1.0
 40
1.0
 10
25.3697816068
 20
66.8586594431
 30
0.0
 10
25.3312690813
 20
67.2753143944
 30
0.0
 10
25.3104298652
 20
68.1128420427
 30
0.0
 10
25.3387641375
 20
68.9482816071
 30
0.0
 10
25.3487628165
 20
69.3658429226
 30
0.0
  0
SPLINE
  5
2A1
100
AcDbEntity
  8
0
100
AcDbSpline
 62
7
  6
BYLAYER
 70
0
 71
3
 72
14
 73
10
 74
0
 42
0.0000001
 43
0.0000001
 44
0.0000000001
 40
0.0
 40
0.0
 40
0.0
 40
0.0
 40
0.0970717486
 40
0.2102733953
 40
0.334750757
 40
0.4651960402
 40
0.5982528913
 40
0.7321826333
 40
1.0
 40
1.0
 40
1.0
 40
1.0
 10
25.3774383243
 20
69.8503962785
 30
0.0
 10
25.3883252428
 20
69.8097657453
 30
0.0
 10
25.41871114
 20
69.7236623936
 30
0.0
 10
25.4736739178
 20
69.5894724634
 30
0.0
 10
25.5339797615
 20
69.4417739644
 30
0.0
 10
25.594282194
 20
69.2848232748
 30
0.0
 10
25.6515734373
 20
69.1223875505
 30
0.0
 10
25.7226803431
 20
68.9017985342
 30
0.0
 10
25.7702366485
 20
68.7342670672
 30
0.0
 10
25.800088396
 20
68.6221195585
 30
0.0
  0
SPLINE
  5
2A2
100
AcDbEntity
  8
0
100
AcDbSpline
 62
7
  6
BYLAYER
 70
0
 71
3
 72
14
 73
10
 74
0
 42
0.0000001
 43
0.0000001
 44
0.0000000001
 40
0.0
 40
0.0
 40
0.0
 40
0.0
 40
0.097072224
 40
0.2102739081
 40
0.3347502475
 40
0.4651950715
 40
0.598252012
 40
0.7321820435
 40
1.0
 40
1.0
 40
1.0
 40
1.0
 10
33.3040688294
 20
69.8503962785
 30
0.0
 10
33.2931818575
 20
69.8097655464
 30
0.0
 10
33.2627958839
 20
69.7236619831
 30
0.0
 10
33.2078330284
 20
69.5894723232
 30
0.0
 10
33.1475274729
 20
69.4417743817
 30
0.0
 10
33.0872254386
 20
69.2848241876
 30
0.0
 10
33.0299340337
 20
69.1223885588
 30
0.0
 10
32.9588270091
 20
68.9017991381
 30
0.0
 10
32.9112705708
 20
68.734267314
 30
0.0
 10
32.8814187576
 20
68.6221195585
 30
0.0
  0
SPLINE
  5
2A3
100
AcDbEntity
  8
0
100
AcDbSpline
 62
7
  6
BYLAYER
 70
0
 71
3
 72
32
 73
28
 74
0
 42
0.0000001
 43
0.0000001
 44
0.0000000001
 40
0.0
 40
0.0
 40
0.0
 40
0.0
 40
0.1251542456
 40
0.250334845
 40
0.3129316274
 40
0.3755319176
 40
0.4381356934
 40
0.5007434176
 40
0.563356147
 40
0.625975766
 40
0.6886054041
 40
0.7512502008
 40
0.7825817913
 40
0.8139214138
 40
0.8452710149
 40
0.8766307432
 40
0.8923167381
 40
0.9079998643
 40
0.923653429
 40
0.9314643641
 40
0.9392256695
 40
0.9468751578
 40
0.9544520098
 40
0.9620135795
 40
0.9695841368
 40
0.9847610941
 40
1.0
 40
1.0
 40
1.0
 40
1.0
 10
25.800088396
 20
68.6221195585
 30
0.0
 10
25.8171748213
 20
68.5579290104
 30
0.0
 10
25.8516418772
 20
68.4296116209
 30
0.0
 10
25.8954107769
 20
68.2693932581
 30
0.0
 10
25.9309091238
 20
68.1413340803
 30
0.0
 10
25.9578150704
 20
68.0453586056
 30
0.0
 10
25.9850586874
 20
67.9494723211
 30
0.0
 10
26.0127250243
 20
67.8537000923
 30
0.0
 10
26.0409416014
 20
67.7580795265
 30
0.0
 10
26.0699025259
 20
67.6626686378
 30
0.0
 10
26.0999284336
 20
67.5675691279
 30
0.0
 10
26.1262825215
 20
67.4887302796
 30
0.0
 10
26.1487319434
 20
67.4261189759
 30
0.0
 10
26.1665248381
 20
67.3794912149
 30
0.0
 10
26.1857100081
 20
67.3334007179
 30
0.0
 10
26.2035006945
 20
67.2957500082
 30
0.0
 10
26.2197542568
 20
67.2666678511
 30
0.0
 10
26.2334625007
 20
67.2457952504
 30
0.0
 10
26.2469536026
 20
67.2298128967
 30
0.0
 10
26.2599201825
 20
67.2193823845
 30
0.0
 10
26.2710714038
 20
67.2137861421
 30
0.0
 10
26.2834799769
 20
67.2121809386
 30
0.0
 10
26.2953978048
 20
67.2155124243
 30
0.0
 10
26.3055791544
 20
67.2221714212
 30
0.0
 10
26.3172080899
 20
67.2333644678
 30
0.0
 10
26.3291037681
 20
67.2497866418
 30
0.0
 10
26.3370302651
 20
67.2638607721
 30
0.0
 10
26.3407535768
 20
67.2710408584
 30
0.0
  0
SPLINE
  5
2A4
100
AcDbEntity
  8
0
100
AcDbSpline
 62
7
  6
BYLAYER
 70
0
 71
3
 72
15
 73
11
 74
0
 42
0.0000001
 43
0.0000001
 44
0.0000000001
 40
0.0
 40
0.0
 40
0.0
 40
0.0
 40
0.126590021
 40
0.2529109039
 40
0.3787876144
 40
0.504067344
 40
0.6287198602
 40
0.7528401882
 40
0.8765603398
 40
1.0
 40
1.0
 40
1.0
 40
1.0
 10
28.8407535768
 20
69.1533244794
 30
0.0
 10
28.7035095057
 20
69.1359191095
 30
0.0
 10
28.4308371889
 20
69.0870324291
 30
0.0
 10
28.0336024082
 20
68.9667883514
 30
0.0
 10
27.6578373595
 20
68.7927345431
 30
0.0
 10
27.3157575478
 20
68.5621979387
 30
0.0
 10
27.0157830226
 20
68.2822898548
 30
0.0
 10
26.7574036309
 20
67.9664938167
 30
0.0
 10
26.5339292354
 20
67.627215075
 30
0.0
 10
26.4028545838
 20
67.3907973077
 30
0.0
 10
26.3407535768
 20
67.2710408584
 30
0.0
  0
SPLINE
  5
2A5
100
AcDbEntity
  8
0
100
AcDbSpline
 62
7
  6
BYLAYER
 70
0
 71
3
 72
15
 73
11
 74
0
 42
0.0000001
 43
0.0000001
 44
0.0000000001
 40
0.0
 40
0.0
 40
0.0
 40
0.0
 40
0.1234402384
 40
0.2471618689
 40
0.3712850175
 40
0.4959405046
 40
0.6212212095
 40
0.747096206
 40
0.87341442
 40
1.0
 40
1.0
 40
1.0
 40
1.0
 10
32.3407535768
 20
67.2710408584
 30
0.0
 10
32.2786522845
 20
67.3907978579
 30
0.0
 10
32.1475765165
 20
67.6272175188
 30
0.0
 10
31.9240991349
 20
67.9665007879
 30
0.0
 10
31.6657122022
 20
68.2823007292
 30
0.0
 10
31.3657325253
 20
68.562214507
 30
0.0
 10
31.0236455232
 20
68.7927448527
 30
0.0
 10
30.6478839427
 20
68.9667964889
 30
0.0
 10
30.2506573358
 20
69.0870344624
 30
0.0
 10
29.9779928207
 20
69.1359197217
 30
0.0
 10
29.8407535768
 20
69.1533244794
 30
0.0
  0
SPLINE
  5
2A6
100
AcDbEntity
  8
0
100
AcDbSpline
 62
7
  6
BYLAYER
 70
0
 71
3
 72
32
 73
28
 74
0
 42
0.0000001
 43
0.0000001
 44
0.0000000001
 40
0.0
 40
0.0
 40
0.0
 40
0.0
 40
0.1251539519
 40
0.2503342576
 40
0.3129308931
 40
0.3755310364
 40
0.4381346653
 40
0.5007422425
 40
0.5633548248
 40
0.6259742964
 40
0.6886037868
 40
0.7512484344
 40
0.7825799494
 40
0.813919496
 40
0.8452690164
 40
0.8766286534
 40
0.8923146113
 40
0.907997676
 40
0.9236509784
 40
0.9314610722
 40
0.9392239005
 40
0.9468742415
 40
0.95445076
 40
0.9620132329
 40
0.9695839816
 40
0.9847610791
 40
1.0
 40
1.0
 40
1.0
 40
1.0
 10
32.8814187576
 20
68.6221195585
 30
0.0
 10
32.8643323764
 20
68.5579291764
 30
0.0
 10
32.8298654102
 20
68.4296121184
 30
0.0
 10
32.7860966269
 20
68.2693941689
 30
0.0
 10
32.7505983758
 20
68.1413353211
 30
0.0
 10
32.7236925031
 20
68.0453600932
 30
0.0
 10
32.6964489632
 20
67.9494740548
 30
0.0
 10
32.6687827048
 20
67.8537020718
 30
0.0
 10
32.6405662163
 20
67.7580817489
 30
0.0
 10
32.6116053851
 20
67.6626711021
 30
0.0
 10
32.5815795939
 20
67.5675718275
 30
0.0
 10
32.5552256241
 20
67.4887331695
 30
0.0
 10
32.5327763119
 20
67.4261220123
 30
0.0
 10
32.5149835734
 20
67.3794943394
 30
0.0
 10
32.4957985568
 20
67.3334039233
 30
0.0
 10
32.478008034
 20
67.2957533045
 30
0.0
 10
32.4617548148
 20
67.2666710269
 30
0.0
 10
32.4480472518
 20
67.2457984179
 30
0.0
 10
32.4345565234
 20
67.2298158815
 30
0.0
 10
32.4215899629
 20
67.2193864009
 30
0.0
 10
32.4104405955
 20
67.2137822661
 30
0.0
 10
32.3980298398
 20
67.2121860184
 30
0.0
 10
32.3861104693
 20
67.2155106597
 30
0.0
 10
32.3759283857
 20
67.2221708079
 30
0.0
 10
32.3642992128
 20
67.2333641152
 30
0.0
 10
32.3524034156
 20
67.2497866104
 30
0.0
 10
32.3444768913
 20
67.2638607668
 30
0.0
 10
32.3407535768
 20
67.2710408584
 30
0.0
  0
SPLINE
  5
2A7
100
AcDbEntity
  8
0
100
AcDbSpline
 62
7
  6
BYLAYER
 70
0
 71
3
 72
11
 73
7
 74
0
 42
0.0000001
 43
0.0000001
 44
0.0000000001
 40
0.0
 40
0.0
 40
0.0
 40
0.0
 40
0.2499555744
 40
0.499999952
 40
0.7500444051
 40
1.0
 40
1.0
 40
1.0
 40
1.0
 10
28.8407535768
 20
68.7161898277
 30
0.0
 10
28.9237492802
 20
68.7248437529
 30
0.0
 10
29.0903402963
 20
68.7368924471
 30
0.0
 10
29.3407535541
 20
68.7425678909
 30
0.0
 10
29.5911668205
 20
68.7368924765
 30
0.0
 10
29.7577578666
 20
68.7248437536
 30
0.0
 10
29.8407535768
 20
68.7161898277
 30
0.0
  0
SPLINE
  5
2A8
100
AcDbEntity
  8
0
100
AcDbSpline
 62
7
  6
BYLAYER
 70
0
 71
3
 72
37
 73
33
 74
0
 42
0.0000001
 43
0.0000001
 44
0.0000000001
 40
0.0
 40
0.0
 40
0.0
 40
0.0
 40
0.062493595
 40
0.1249750805
 40
0.1562319324
 40
0.187490403
 40
0.218747852
 40
0.2500054657
 40
0.2812631625
 40
0.3125199764
 40
0.3437753569
 40
0.3750285601
 40
0.4062777295
 40
0.4375190509
 40
0.4687458115
 40
0.4843743709
 40
0.500002632
 40
0.5156305085
 40
0.5312592293
 40
0.5624863154
 40
0.5937272588
 40
0.6249764473
 40
0.6562297161
 40
0.6874852138
 40
0.7187423137
 40
0.7500000272
 40
0.7812574369
 40
0.8125152297
 40
0.8437729915
 40
0.8750305246
 40
0.9375105468
 40
1.0
 40
1.0
 40
1.0
 40
1.0
 10
33.3112773995
 20
66.8587009596
 30
0.0
 10
33.2840012125
 20
66.5645322092
 30
0.0
 10
33.2013390008
 20
65.978201136
 30
0.0
 10
33.0071996304
 20
65.2630861526
 30
0.0
 10
32.7928056298
 20
64.7119884248
 30
0.0
 10
32.6042748168
 20
64.3104142358
 30
0.0
 10
32.3906413591
 20
63.9216612137
 30
0.0
 10
32.1533119675
 20
63.5469021988
 30
0.0
 10
31.892638661
 20
63.1879605632
 30
0.0
 10
31.608242643
 20
62.8474491361
 30
0.0
 10
31.2991031029
 20
62.5291209227
 30
0.0
 10
30.9636102354
 20
62.2384987546
 30
0.0
 10
30.5998025261
 20
61.9837524507
 30
0.0
 10
30.2063806571
 20
61.7770102878
 30
0.0
 10
29.8540620475
 20
61.6592318598
 30
0.0
 10
29.5624789715
 20
61.6089238424
 30
0.0
 10
29.3407182315
 20
61.5956978931
 30
0.0
 10
29.1189568959
 20
61.6089306576
 30
0.0
 10
28.8273763939
 20
61.6592559772
 30
0.0
 10
28.475059522
 20
61.7770386333
 30
0.0
 10
28.0816413543
 20
61.9837882712
 30
0.0
 10
27.7178393748
 20
62.2385400582
 30
0.0
 10
27.3823490459
 20
62.5291664926
 30
0.0
 10
27.0732113169
 20
62.8474998294
 30
0.0
 10
26.7888228497
 20
63.1880198823
 30
0.0
 10
26.5281542219
 20
63.5469664794
 30
0.0
 10
26.2908473259
 20
63.9217381572
 30
0.0
 10
26.0771444107
 20
64.310452399
 30
0.0
 10
25.8887282397
 20
64.7120820598
 30
0.0
 10
25.674255244
 20
65.26313873
 30
0.0
 10
25.4801786265
 20
65.9782527424
 30
0.0
 10
25.3975041409
 20
66.5645516131
 30
0.0
 10
25.3702297629
 20
66.8587008673
 30
0.0
  0
SPLINE
  5
2A9
100
AcDbEntity
  8
0
100
AcDbSpline
 62
7
  6
BYLAYER
 70
0
 71
3
 72
9
 73
5
 74
0
 42
0.0000001
 43
0.0000001
 44
0.0000000001
 40
0.0
 40
0.0
 40
0.0
 40
0.0
 40
0.4995514576
 40
1.0
 40
1.0
 40
1.0
 40
1.0
 10
33.3327443371
 20
69.3658429226
 30
0.0
 10
33.3427430158
 20
68.9482816224
 30
0.0
 10
33.3710772867
 20
68.1128420888
 30
0.0
 10
33.3502380753
 20
67.2753144716
 30
0.0
 10
33.3117255553
 20
66.8586595354
 30
0.0
  0
ENDSEC
  0
SECTION
  2
OBJECTS
  0
DICTIONARY
  5
C
100
AcDbDictionary
280
0
281
1
  3
ACAD_GROUP
350
D
  3
ACAD_MLINESTYLE
350
17
  3
ACAD_LAYOUT
350
1A
  3
ACAD_PLOTSETTINGS
350
19
  3
ACAD_PLOTSTYLENAME
350
E
  0
DICTIONARY
  5
D
102
{ACAD_REACTORS
330
C
102
}
100
AcDbDictionary
280
0
281
1
  0
ACDBDICTIONARYWDFLT
  5
E
102
{ACAD_REACTORS
330
C
102
}
100
AcDbDictionary
281
1
  3
Normal
350
F
100
AcDbDictionaryWithDefault
340
F
  0
DICTIONARY
  5
17
102
{ACAD_REACTORS
330
C
102
}
100
AcDbDictionary
280
0
281
1
  3
Standard
350
18
  0
DICTIONARY
  5
19
102
{ACAD_REACTORS
330
C
102
}
100
AcDbDictionary
281
1
  0
DICTIONARY
  5
1A
102
{ACAD_REACTORS
330
C
102
}
100
AcDbDictionary
281
1
  3
Model
350
2AA
  3
Layout1
350
2AB
  0
ACDBPLACEHOLDER
  5
F
102
{ACAD_REACTORS
330
E
102
}
  0
MLINESTYLE
  5
18
102
{ACAD_REACTORS
330
17
102
}
100
AcDbMlineStyle
  2
STANDARD
 70
0
  3

 62
256
 51
90.0
 52
90.0
 71
2
 49
0.5
 62
256
  6
BYLAYER
 49
-0.5
 62
256
  6
BYLAYER
  0
LAYOUT
  5
2AA
102
{ACAD_REACTORS
330
1A
102
}
100
AcDbPlotSettings
  1

  2
none_device
  4

  6

 40
0.0
 41
0.0
 42
0.0
 43
0.0
 44
210.0
 45
297.0
 46
0.0
 47
0.0
 48
0.0
 49
0.0
140
0.0
141
0.0
142
1.0
143
1.0
 70
1024
 72
1
 73
0
 74
0
  7

 75
0
147
1.0
148
0.0
149
0.0
100
AcDbLayout
  1
Model
 70
0
 71
0
 10
0.0
 20
0.0
 11
210.0
 21
297.0
 12
0.0
 22
0.0
 32
0.0
 14
0.0
 24
0.0
 34
0.0
 15
0.0
 25
0.0
 35
0.0
146
0.0
 13
0.0
 23
0.0
 33
0.0
 16
1.0
 26
0.0
 36
0.0
 17
0.0
 27
1.0
 37
0.0
 76
0
330
210
345
0
346
0
  0
LAYOUT
  5
2AB
102
{ACAD_REACTORS
330
1A
102
}
100
AcDbPlotSettings
  1

  2
none_device
  4

  6

 40
0.0
 41
0.0
 42
0.0
 43
0.0
 44
210.0
 45
297.0
 46
0.0
 47
0.0
 48
0.0
 49
0.0
140
0.0
141
0.0
142
1.0
143
1.0
 70
0
 72
1
 73
0
 74
0
  7

 75
0
147
1.0
148
0.0
149
0.0
100
AcDbLayout
  1
Layout1
 70
0
 71
1
 10
0.0
 20
0.0
 11
210.0
 21
297.0
 12
0.0
 22
0.0
 32
0.0
 14
0.0
 24
0.0
 34
0.0
 15
0.0
 25
0.0
 35
0.0
146
0.0
 13
0.0
 23
0.0
 33
0.0
 16
1.0
 26
0.0
 36
0.0
 17
0.0
 27
1.0
 37
0.0
 76
0
330
211
345
0
346
0
  0
ENDSEC
  0
EOF
