999
DXF file: C:\Users\sesa63760\Dev\_Creo\CAD\MCADID0003882_3D-CAD\drw0001_6.dxf
999
Pro/ENGINEER 2019471 by Parametric Technology Corporation
  0
SECTION
  2
HEADER
  9
$ACADVER
  1
AC1024
  9
$DWGCODEPAGE
  3
ANSI_1252
  9
$EXTMAX
 10
50.5625179586
 20
71.5098468271
 30
0.0
  9
$EXTMIN
 10
0.0
 20
0.0
 30
0.0
  9
$LIMMIN
 10
0.0
 20
0.0
  9
$LIMMAX
 10
50.5625179586
 20
71.5098468271
  9
$VIEWCTR
 10
25.2812589793
 20
35.7549234136
  9
$VIEWSIZE
 40
71.5098468271
  9
$CLAYER
  8
0
  9
$LTSCALE
 40
4.661382608
  9
$CELTYPE
  6
BYLAYER
  9
$DIMSCALE
 40
1.0
  9
$DIMASZ
 40
0.6019347376
  9
$DIMEXO
 40
1.0
  9
$DIMDLI
 40
3.2205916201
  9
$DIMEXE
 40
1.0
  9
$DIMCEN
 40
0.7627716995
  9
$DIMLFAC
 40
1.0
  9
$DIMBLK
  1
_FILLED
  9
$DIMALT
 70
0
  9
$DIMALTF
 40
0.0393700787
  9
$DIMTXT
 40
0.8427086326
  9
$DIMTOL
 70
1
  9
$DIMLIM
 70
0
  9
$DIMTFAC
 40
1.0
  9
$DIMTP
 40
0.01
  9
$DIMTM
 40
0.01
  9
$DIMGAP
 40
0.625
  9
$DIMDSEP
 70
46
  9
$AUNITS
 70
0
  9
$PDMODE
 70
3
  9
$PDSIZE
 40
0.3125
  9
$HANDSEED
  5
273
  9
$TILEMODE
 70
1
  9
$MEASUREMENT
 70
1
  9
$INSUNITS
 70
4
  0
ENDSEC
  0
SECTION
  2
CLASSES
  0
CLASS
  1
ACDBDICTIONARYWDFLT
  2
AcDbDictionaryWithDefault
  3
AutoCAD 2000
 90
0
 91
1
280
0
281
0
  0
CLASS
  1
ACDBPLACEHOLDER
  2
AcDbPlaceHolder
  3
AutoCAD 2000
 90
0
 91
1
280
0
281
0
  0
CLASS
  1
LAYOUT
  2
AcDbLayout
  3
AutoCAD 2000
 90
0
 91
0
280
0
281
0
  0
ENDSEC
  0
SECTION
  2
TABLES
  0
TABLE
  2
VPORT
  5
8
100
AcDbSymbolTable
 70
2
  0
VPORT
  5
1F4
100
AcDbSymbolTableRecord
100
AcDbViewportTableRecord
  2
*ACTIVE
 70
0
 10
0.0
 20
0.0
 11
1.0
 21
1.0
 12
25.2812589793
 22
35.7549234136
 13
0.0
 23
0.0
 14
1.0
 24
1.0
 15
0.0
 25
0.0
 16
0.0
 26
0.0
 36
1.0
 17
0.0
 27
0.0
 37
0.0
 40
71.5098468271
 41
0.7070707071
 42
50.0
 43
0.0
 44
0.0
 50
0.0
 51
0.0
 71
0
 72
100
 73
1
 74
1
 75
0
 76
0
 77
0
 78
0
  0
ENDTAB
  0
TABLE
  2
LTYPE
  5
5
100
AcDbSymbolTable
 70
6
  0
LTYPE
  5
14
100
AcDbSymbolTableRecord
100
AcDbLinetypeTableRecord
  2
BYBLOCK
 70
0
  3

 72
65
 73
0
 40
0.0
  0
LTYPE
  5
15
100
AcDbSymbolTableRecord
100
AcDbLinetypeTableRecord
  2
BYLAYER
 70
0
  3

 72
65
 73
0
 40
0.0
  0
LTYPE
  5
16
100
AcDbSymbolTableRecord
100
AcDbLinetypeTableRecord
  2
CONTINUOUS
 70
64
  3
Solid line
 72
65
 73
0
 40
0.0
  0
LTYPE
  5
1F5
100
AcDbSymbolTableRecord
100
AcDbLinetypeTableRecord
  2
CENTER
 70
64
  3
____ _ ____ _ ____ _ ____ _ ____ _ ____ _ ____
 72
65
 73
4
 40
0.6
 49
0.375
 74
0
 49
-0.075
 74
0
 49
0.075
 74
0
 49
-0.075
 74
0
  0
LTYPE
  5
1F6
100
AcDbSymbolTableRecord
100
AcDbLinetypeTableRecord
  2
HIDDEN
 70
64
  3
- - - - - - - - - - - - - - - - - - - -
 72
65
 73
2
 40
0.2
 49
0.1
 74
0
 49
-0.1
 74
0
  0
LTYPE
  5
1F7
100
AcDbSymbolTableRecord
100
AcDbLinetypeTableRecord
  2
PHANTOM
 70
64
  3
_____ _ _ _____ _ _ _____ _ _ _____
 72
65
 73
6
 40
0.8
 49
0.45
 74
0
 49
-0.05
 74
0
 49
0.1
 74
0
 49
-0.05
 74
0
 49
0.1
 74
0
 49
-0.05
 74
0
  0
LTYPE
  5
1F8
100
AcDbSymbolTableRecord
100
AcDbLinetypeTableRecord
  2
DOT
 70
64
  3
. . . . . . . . . . . . . . . . . . . .
 72
65
 73
2
 40
0.2
 49
0.1
 74
0
 49
-0.1
 74
0
  0
LTYPE
  5
1F9
100
AcDbSymbolTableRecord
100
AcDbLinetypeTableRecord
  2
DASHED
 70
64
  3
- - - - - - - - - - - - - - - - - - - -
 72
65
 73
2
 40
0.2
 49
0.1
 74
0
 49
-0.1
 74
0
  0
ENDTAB
  0
TABLE
  2
LAYER
  5
2
100
AcDbSymbolTable
 70
36
  0
LAYER
  5
10
100
AcDbSymbolTableRecord
100
AcDbLayerTableRecord
  2
0
 70
0
 62
7
  6
CONTINUOUS
370
-3
390
F
  0
LAYER
  5
1FA
100
AcDbSymbolTableRecord
100
AcDbLayerTableRecord
  2
DEFAULT_1
 70
0
 62
7
  6
CENTER
370
-3
390
F
  0
LAYER
  5
1FB
100
AcDbSymbolTableRecord
100
AcDbLayerTableRecord
  2
DEFAULT_2
 70
0
 62
7
  6
HIDDEN
370
-3
390
F
  0
LAYER
  5
1FC
100
AcDbSymbolTableRecord
100
AcDbLayerTableRecord
  2
DEFAULT_3
 70
0
 62
7
  6
PHANTOM
370
-3
390
F
  0
LAYER
  5
1FD
100
AcDbSymbolTableRecord
100
AcDbLayerTableRecord
  2
00_COMPONENTS
 70
0
 62
7
  6
CONTINUOUS
370
-3
390
F
  0
LAYER
  5
1FE
100
AcDbSymbolTableRecord
100
AcDbLayerTableRecord
  2
01_1_DEFAULT_DATUMS
 70
0
 62
7
  6
CONTINUOUS
370
-3
390
F
  0
LAYER
  5
1FF
100
AcDbSymbolTableRecord
100
AcDbLayerTableRecord
  2
01_PLANES
 70
0
 62
7
  6
CONTINUOUS
370
-3
390
F
  0
LAYER
  5
200
100
AcDbSymbolTableRecord
100
AcDbLayerTableRecord
  2
02_COORD_SYS
 70
0
 62
7
  6
CONTINUOUS
370
-3
390
F
  0
LAYER
  5
201
100
AcDbSymbolTableRecord
100
AcDbLayerTableRecord
  2
03_AXES
 70
0
 62
7
  6
CONTINUOUS
370
-3
390
F
  0
LAYER
  5
202
100
AcDbSymbolTableRecord
100
AcDbLayerTableRecord
  2
04_POINTS
 70
0
 62
7
  6
CONTINUOUS
370
-3
390
F
  0
LAYER
  5
203
100
AcDbSymbolTableRecord
100
AcDbLayerTableRecord
  2
05_CURVES
 70
0
 62
7
  6
CONTINUOUS
370
-3
390
F
  0
LAYER
  5
204
100
AcDbSymbolTableRecord
100
AcDbLayerTableRecord
  2
06_SURFS
 70
0
 62
7
  6
CONTINUOUS
370
-3
390
F
  0
LAYER
  5
205
100
AcDbSymbolTableRecord
100
AcDbLayerTableRecord
  2
07_COSMETICS
 70
0
 62
7
  6
CONTINUOUS
370
-3
390
F
  0
LAYER
  5
206
100
AcDbSymbolTableRecord
100
AcDbLayerTableRecord
  2
10_NOTES
 70
0
 62
7
  6
CONTINUOUS
370
-3
390
F
  0
LAYER
  5
207
100
AcDbSymbolTableRecord
100
AcDbLayerTableRecord
  2
11_NOTES_PUB
 70
0
 62
7
  6
CONTINUOUS
370
-3
390
F
  0
LAYER
  5
208
100
AcDbSymbolTableRecord
100
AcDbLayerTableRecord
  2
13_REF_GTOL
 70
0
 62
7
  6
CONTINUOUS
370
-3
390
F
  0
LAYER
  5
209
100
AcDbSymbolTableRecord
100
AcDbLayerTableRecord
  2
16_MISC
 70
0
 62
7
  6
CONTINUOUS
370
-3
390
F
  0
LAYER
  5
20A
100
AcDbSymbolTableRecord
100
AcDbLayerTableRecord
  2
17_NO_PRINT
 70
0
 62
7
  6
CONTINUOUS
370
-3
390
F
  0
LAYER
  5
20B
100
AcDbSymbolTableRecord
100
AcDbLayerTableRecord
  2
18_DATUM_CAMS_JOINTS
 70
0
 62
7
  6
CONTINUOUS
370
-3
390
F
  0
LAYER
  5
20C
100
AcDbSymbolTableRecord
100
AcDbLayerTableRecord
  2
19_DATUM_FUNCTIONAL
 70
0
 62
7
  6
CONTINUOUS
370
-3
390
F
  0
LAYER
  5
20D
100
AcDbSymbolTableRecord
100
AcDbLayerTableRecord
  2
20_DATUM_KINEMATIC_SCHEME
 70
0
 62
7
  6
CONTINUOUS
370
-3
390
F
  0
ENDTAB
  0
TABLE
  2
STYLE
  5
3
100
AcDbSymbolTable
 70
1
  0
STYLE
  5
11
100
AcDbSymbolTableRecord
100
AcDbTextStyleTableRecord
  2
STANDARD
 70
0
 40
0.0
 41
1.0
 50
0.0
 71
0
 42
0.2
  3
ARIAL.TTF
  4

  0
STYLE
  5
20E
100
AcDbSymbolTableRecord
100
AcDbTextStyleTableRecord
  2
TEXTSTYLE_1
 70
0
 40
0.0
 41
0.8
 50
0.0
 71
0
 42
0.2
  3
gdt
  4

  0
ENDTAB
  0
TABLE
  2
VIEW
  5
6
100
AcDbSymbolTable
 70
0
  0
ENDTAB
  0
TABLE
  2
UCS
  5
7
100
AcDbSymbolTable
 70
0
  0
ENDTAB
  0
TABLE
  2
APPID
  5
9
100
AcDbSymbolTable
 70
1
  0
APPID
  5
20F
100
AcDbSymbolTableRecord
100
AcDbRegAppTableRecord
  2
ACAD
 70
0
  0
ENDTAB
  0
TABLE
  2
BLOCK_RECORD
  5
1
100
AcDbSymbolTable
 70
0
  0
BLOCK_RECORD
  5
210
100
AcDbSymbolTableRecord
100
AcDbBlockTableRecord
  2
*Model_Space
  0
BLOCK_RECORD
  5
211
100
AcDbSymbolTableRecord
100
AcDbBlockTableRecord
  2
*Paper_Space
  0
BLOCK_RECORD
  5
212
100
AcDbSymbolTableRecord
100
AcDbBlockTableRecord
  2
_FILLED
  0
ENDTAB
  0
TABLE
  2
DIMSTYLE
  5
A
100
AcDbSymbolTable
 70
1
100
AcDbDimStyleTable
 71
0
  0
DIMSTYLE
105
213
100
AcDbSymbolTableRecord
100
AcDbDimStyleTableRecord
  2
STANDARD
 70
0
  3

  4

 40
1.0
 41
0.6019347376
 42
1.0
 43
0.38
 44
1.0
 45
0.0
 46
0.0
 47
0.01
 48
0.01
140
0.8427086326
141
0.09
142
0.0
143
25.4
144
1.0
145
0.0
146
1.0
147
0.625
 71
1
 72
0
 73
0
 74
0
 75
0
 76
0
 77
1
 78
8
 79
2
170
0
171
1
172
0
173
0
174
0
175
0
176
0
177
0
178
0
270
2
179
2
271
2
272
2
273
2
274
2
275
0
280
0
281
0
282
0
283
1
284
8
285
0
286
0
287
3
288
0
340
11
278
46
341
212
342
212
343
212
344
212
  0
ENDTAB
  0
ENDSEC
  0
SECTION
  2
BLOCKS
  0
BLOCK
  5
20
100
AcDbEntity
  8
0
100
AcDbBlockBegin
  2
*Model_Space
 70
0
 10
0.0
 20
0.0
 30
0.0
  3
*Model_Space
  1

  0
ENDBLK
  5
21
100
AcDbEntity
  8
0
100
AcDbBlockEnd
  0
BLOCK
  5
1C
100
AcDbEntity
  8
0
100
AcDbBlockBegin
  2
*Paper_Space
 70
0
 10
0.0
 20
0.0
 30
0.0
  3
*Paper_Space
  1

  0
ENDBLK
  5
1D
100
AcDbEntity
  8
0
100
AcDbBlockEnd
  0
BLOCK
  5
214
100
AcDbEntity
  8
0
100
AcDbBlockBegin
  2
_FILLED
 70
64
 10
0.0
 20
0.0
  3
_FILLED
  1

  0
SOLID
  5
215
100
AcDbEntity
  8
0
  6
BYBLOCK
 62
0
100
AcDbTrace
 10
0.0
 20
0.0
 11
-1.0
 21
0.25
 12
-1.0
 22
-0.25
 13
-1.0
 23
-0.25
  0
ENDBLK
  5
216
100
AcDbEntity
  8
0
  6
BYBLOCK
 62
0
100
AcDbBlockEnd
  0
ENDSEC
  0
SECTION
  2
ENTITIES
  0
LINE
  5
217
100
AcDbEntity
  8
0
100
AcDbLine
 62
7
  6
BYLAYER
 10
5.7188957408
 20
34.1549453698
 11
5.7188957408
 21
37.3549167511
  0
LINE
  5
218
100
AcDbEntity
  8
0
100
AcDbLine
 62
7
  6
BYLAYER
 10
17.7188957408
 20
33.6950390684
 11
17.7188957408
 21
37.8148077587
  0
LINE
  5
219
100
AcDbEntity
  8
0
100
AcDbLine
 62
7
  6
BYLAYER
 10
21.8188957408
 20
38.0549234136
 11
22.0188957408
 21
38.2549234136
  0
LINE
  5
21A
100
AcDbEntity
  8
0
100
AcDbLine
 62
7
  6
BYLAYER
 10
36.4438762865
 20
31.28612126
 11
32.993915195
 21
31.28612126
  0
LINE
  5
21B
100
AcDbEntity
  8
0
100
AcDbLine
 62
7
  6
BYLAYER
 10
38.9939154554
 20
31.28612126
 11
42.4438760262
 21
31.28612126
  0
LINE
  5
21C
100
AcDbEntity
  8
0
100
AcDbLine
 62
7
  6
BYLAYER
 10
21.8188957408
 20
33.4549234136
 11
22.0188957408
 21
33.2549234136
  0
LINE
  5
21D
100
AcDbEntity
  8
0
100
AcDbLine
 62
7
  6
BYLAYER
 10
21.8188957408
 20
33.4550414385
 11
21.8188957408
 21
38.0548053886
  0
LINE
  5
21E
100
AcDbEntity
  8
0
100
AcDbLine
 62
7
  6
BYLAYER
 10
22.0188957408
 20
33.2549234136
 11
22.0188957408
 21
38.2549234136
  0
LINE
  5
21F
100
AcDbEntity
  8
0
100
AcDbLine
 62
7
  6
BYLAYER
 10
45.1188957408
 20
33.2549234136
 11
42.7188957408
 21
33.2549234136
  0
LINE
  5
220
100
AcDbEntity
  8
0
100
AcDbLine
 62
7
  6
BYLAYER
 10
38.7188957408
 20
33.2549234136
 11
36.7188957408
 21
33.2549234136
  0
LINE
  5
221
100
AcDbEntity
  8
0
100
AcDbLine
 62
7
  6
BYLAYER
 10
32.7188957408
 20
33.2549234136
 11
22.0188957408
 21
33.2549234136
  0
LINE
  5
222
100
AcDbEntity
  8
0
100
AcDbLine
 62
7
  6
BYLAYER
 10
36.443876031
 20
33.2955223368
 11
32.9939154506
 21
33.2955223368
  0
LINE
  5
223
100
AcDbEntity
  8
0
100
AcDbLine
 62
7
  6
BYLAYER
 10
38.9939151875
 20
33.2955223368
 11
42.443876294
 21
33.2955223368
  0
LINE
  5
224
100
AcDbEntity
  8
0
100
AcDbLine
 62
7
  6
BYLAYER
 10
21.8188957408
 20
33.6949234136
 11
17.7188957408
 21
33.6949234136
  0
LINE
  5
225
100
AcDbEntity
  8
0
100
AcDbLine
 62
7
  6
BYLAYER
 10
45.3188957408
 20
33.8549234136
 11
45.6921024579
 21
33.8549234136
  0
LINE
  5
226
100
AcDbEntity
  8
0
100
AcDbLine
 62
7
  6
BYLAYER
 10
36.4936086516
 20
33.9455223368
 11
32.94418283
 21
33.9455223368
  0
LINE
  5
227
100
AcDbEntity
  8
0
100
AcDbLine
 62
7
  6
BYLAYER
 10
38.9441828316
 20
33.9455223368
 11
42.4936086499
 21
33.9455223368
  0
LINE
  5
228
100
AcDbEntity
  8
0
100
AcDbLine
 62
7
  6
BYLAYER
 10
5.7188957408
 20
34.1549234136
 11
17.7188957408
 21
34.1549234136
  0
LINE
  5
229
100
AcDbEntity
  8
0
100
AcDbLine
 62
7
  6
BYLAYER
 10
5.7188957408
 20
37.3549234136
 11
17.7188957408
 21
37.3549234136
  0
LINE
  5
22A
100
AcDbEntity
  8
0
100
AcDbLine
 62
7
  6
BYLAYER
 10
36.4936086499
 20
37.5643244903
 11
32.9441828316
 21
37.5643244903
  0
LINE
  5
22B
100
AcDbEntity
  8
0
100
AcDbLine
 62
7
  6
BYLAYER
 10
38.94418283
 20
37.5643244903
 11
42.4936086516
 21
37.5643244903
  0
LINE
  5
22C
100
AcDbEntity
  8
0
100
AcDbLine
 62
7
  6
BYLAYER
 10
45.3188957408
 20
37.6549234136
 11
45.6921024579
 21
37.6549234136
  0
LINE
  5
22D
100
AcDbEntity
  8
0
100
AcDbLine
 62
7
  6
BYLAYER
 10
21.8188957408
 20
37.8149234136
 11
17.7188957408
 21
37.8149234136
  0
LINE
  5
22E
100
AcDbEntity
  8
0
100
AcDbLine
 62
7
  6
BYLAYER
 10
36.4438762865
 20
38.2143244903
 11
32.993915195
 21
38.2143244903
  0
LINE
  5
22F
100
AcDbEntity
  8
0
100
AcDbLine
 62
7
  6
BYLAYER
 10
38.9939154554
 20
38.2143244903
 11
42.4438760262
 21
38.2143244903
  0
LINE
  5
230
100
AcDbEntity
  8
0
100
AcDbLine
 62
7
  6
BYLAYER
 10
45.1188957408
 20
38.2549234136
 11
42.7188957408
 21
38.2549234136
  0
LINE
  5
231
100
AcDbEntity
  8
0
100
AcDbLine
 62
7
  6
BYLAYER
 10
38.7188957408
 20
38.2549234136
 11
36.7188957408
 21
38.2549234136
  0
LINE
  5
232
100
AcDbEntity
  8
0
100
AcDbLine
 62
7
  6
BYLAYER
 10
32.7188957408
 20
38.2549234136
 11
22.0188957408
 21
38.2549234136
  0
LINE
  5
233
100
AcDbEntity
  8
0
100
AcDbLine
 62
7
  6
BYLAYER
 10
32.7188957408
 20
39.7549234136
 11
32.9679081552
 21
40.1862255671
  0
LINE
  5
234
100
AcDbEntity
  8
0
100
AcDbLine
 62
7
  6
BYLAYER
 10
32.7188957408
 20
31.7549234136
 11
32.9679081552
 21
31.32362126
  0
LINE
  5
235
100
AcDbEntity
  8
0
100
AcDbLine
 62
7
  6
BYLAYER
 10
36.443876031
 20
40.2237255671
 11
32.9939154506
 21
40.2237255671
  0
LINE
  5
236
100
AcDbEntity
  8
0
100
AcDbLine
 62
7
  6
BYLAYER
 10
38.9939151875
 20
40.2237255671
 11
42.443876294
 21
40.2237255671
  0
LINE
  5
237
100
AcDbEntity
  8
0
100
AcDbLine
 62
7
  6
BYLAYER
 10
32.7188957408
 20
31.754924763
 11
32.7188957408
 21
39.7549220641
  0
LINE
  5
238
100
AcDbEntity
  8
0
100
AcDbLine
 62
7
  6
BYLAYER
 10
38.7188957408
 20
39.7549234136
 11
38.9679081552
 21
40.1862255671
  0
LINE
  5
239
100
AcDbEntity
  8
0
100
AcDbLine
 62
7
  6
BYLAYER
 10
38.7188957408
 20
31.7549234136
 11
38.9679081552
 21
31.32362126
  0
LINE
  5
23A
100
AcDbEntity
  8
0
100
AcDbLine
 62
7
  6
BYLAYER
 10
36.7188957408
 20
39.7549220641
 11
36.7188957408
 21
31.754924763
  0
LINE
  5
23B
100
AcDbEntity
  8
0
100
AcDbLine
 62
7
  6
BYLAYER
 10
36.7188957408
 20
31.7549234136
 11
36.4698833263
 21
31.32362126
  0
LINE
  5
23C
100
AcDbEntity
  8
0
100
AcDbLine
 62
7
  6
BYLAYER
 10
36.7188957408
 20
39.7549234136
 11
36.4698833263
 21
40.1862255671
  0
LINE
  5
23D
100
AcDbEntity
  8
0
100
AcDbLine
 62
7
  6
BYLAYER
 10
38.7188957408
 20
31.754924763
 11
38.7188957408
 21
39.7549220641
  0
LINE
  5
23E
100
AcDbEntity
  8
0
100
AcDbLine
 62
7
  6
BYLAYER
 10
45.3188957408
 20
33.4549234136
 11
45.1188957408
 21
33.2549234136
  0
LINE
  5
23F
100
AcDbEntity
  8
0
100
AcDbLine
 62
7
  6
BYLAYER
 10
45.3188957408
 20
38.0549234136
 11
45.1188957408
 21
38.2549234136
  0
LINE
  5
240
100
AcDbEntity
  8
0
100
AcDbLine
 62
7
  6
BYLAYER
 10
42.7188957408
 20
39.7549220641
 11
42.7188957408
 21
31.754924763
  0
LINE
  5
241
100
AcDbEntity
  8
0
100
AcDbLine
 62
7
  6
BYLAYER
 10
42.7188957408
 20
31.7549234136
 11
42.4698833263
 21
31.32362126
  0
LINE
  5
242
100
AcDbEntity
  8
0
100
AcDbLine
 62
7
  6
BYLAYER
 10
42.7188957408
 20
39.7549234136
 11
42.4698833263
 21
40.1862255671
  0
LINE
  5
243
100
AcDbEntity
  8
0
100
AcDbLine
 62
7
  6
BYLAYER
 10
45.1188957408
 20
38.2549234136
 11
45.1188957408
 21
33.2549234136
  0
LINE
  5
244
100
AcDbEntity
  8
0
100
AcDbLine
 62
7
  6
BYLAYER
 10
45.3188957408
 20
38.0549101688
 11
45.3188957408
 21
33.455050804
  0
LINE
  5
245
100
AcDbEntity
  8
0
100
AcDbLine
 62
7
  6
BYLAYER
 10
45.5188957408
 20
37.6549234136
 11
45.5188957408
 21
33.8549234136
  0
LINE
  5
246
100
AcDbEntity
  8
0
100
AcDbLine
 62
7
  6
BYLAYER
 10
45.7188957408
 20
37.5549195507
 11
45.7188957408
 21
33.9549003786
  0
LINE
  5
247
100
AcDbEntity
  8
0
100
AcDbLine
 62
7
  6
BYLAYER
 10
45.6921008215
 20
33.8549234136
 11
45.7188957408
 21
33.9549234136
  0
LINE
  5
248
100
AcDbEntity
  8
0
100
AcDbLine
 62
7
  6
BYLAYER
 10
45.6921008215
 20
37.6549234136
 11
45.7188957408
 21
37.5549234136
  0
ARC
  5
249
100
AcDbEntity
  8
0
100
AcDbCircle
 62
7
  6
BYLAYER
 10
39.7196525675
 20
34.1371162918
 40
6.7781818264
100
AcDbArc
 50
181.6197549203
 51
187.1323705284
  0
ARC
  5
24A
100
AcDbEntity
  8
0
100
AcDbCircle
 62
7
  6
BYLAYER
 10
29.7181389286
 20
34.1371162907
 40
6.7781818117
100
AcDbArc
 50
352.867629465
 51
358.380245085
  0
ARC
  5
24B
100
AcDbEntity
  8
0
100
AcDbCircle
 62
7
  6
BYLAYER
 10
39.7196478268
 20
37.3727308246
 40
6.7781770787
100
AcDbArc
 50
172.867626914
 51
178.3802463907
  0
ARC
  5
24C
100
AcDbEntity
  8
0
100
AcDbCircle
 62
7
  6
BYLAYER
 10
29.7181437085
 20
37.3727308285
 40
6.778177025
100
AcDbArc
 50
1.6197535895
 51
7.13237311
  0
ARC
  5
24D
100
AcDbEntity
  8
0
100
AcDbCircle
 62
7
  6
BYLAYER
 10
35.7199859326
 20
34.1368786031
 40
6.7763251073
100
AcDbArc
 50
352.8676845974
 51
358.3818125656
  0
ARC
  5
24E
100
AcDbEntity
  8
0
100
AcDbCircle
 62
7
  6
BYLAYER
 10
45.7178055481
 20
34.1368786031
 40
6.7763251064
100
AcDbArc
 50
181.618187434
 51
187.132315403
  0
ARC
  5
24F
100
AcDbEntity
  8
0
100
AcDbCircle
 62
7
  6
BYLAYER
 10
35.719987057
 20
37.3729682321
 40
6.7763239831
100
AcDbArc
 50
1.6181876346
 51
7.1323165232
  0
ARC
  5
250
100
AcDbEntity
  8
0
100
AcDbCircle
 62
7
  6
BYLAYER
 10
45.7178044237
 20
37.3729682321
 40
6.7763239822
100
AcDbArc
 50
172.8676834764
 51
178.3818123657
  0
SPLINE
  5
251
100
AcDbEntity
  8
0
100
AcDbSpline
 62
7
  6
BYLAYER
 70
0
 71
3
 72
9
 73
5
 74
0
 42
0.0000001
 43
0.0000001
 44
0.0000000001
 40
0.0
 40
0.0
 40
0.0
 40
0.0
 40
0.2403891324
 40
1.0
 40
1.0
 40
1.0
 40
1.0
 10
42.4698891331
 20
40.1862256354
 30
0.0
 10
42.4680604065
 20
40.189395109
 30
0.0
 10
42.4601562444
 20
40.2024082342
 30
0.0
 10
42.4511462386
 20
40.214734098
 30
0.0
 10
42.443876294
 20
40.2237255671
 30
0.0
  0
SPLINE
  5
252
100
AcDbEntity
  8
0
100
AcDbSpline
 62
7
  6
BYLAYER
 70
0
 71
3
 72
9
 73
5
 74
0
 42
0.0000001
 43
0.0000001
 44
0.0000000001
 40
0.0
 40
0.0
 40
0.0
 40
0.0
 40
0.2600682595
 40
1.0
 40
1.0
 40
1.0
 40
1.0
 10
38.9939151875
 20
40.2237255671
 30
0.0
 10
38.9914262767
 20
40.2206472816
 30
0.0
 10
38.9820568803
 20
40.2086520714
 30
0.0
 10
38.9735310427
 20
40.1959810565
 30
0.0
 10
38.9679023484
 20
40.1862256354
 30
0.0
  0
SPLINE
  5
253
100
AcDbEntity
  8
0
100
AcDbSpline
 62
7
  6
BYLAYER
 70
0
 71
3
 72
9
 73
5
 74
0
 42
0.0000001
 43
0.0000001
 44
0.0000000001
 40
0.0
 40
0.0
 40
0.0
 40
0.0
 40
0.2403891362
 40
1.0
 40
1.0
 40
1.0
 40
1.0
 10
38.9679023477
 20
31.3236211917
 30
0.0
 10
38.969731075
 20
31.320451718
 30
0.0
 10
38.9776352406
 20
31.3074385932
 30
0.0
 10
38.9866452498
 20
31.29511273
 30
0.0
 10
38.9939151951
 20
31.28612126
 30
0.0
  0
SPLINE
  5
254
100
AcDbEntity
  8
0
100
AcDbSpline
 62
7
  6
BYLAYER
 70
0
 71
3
 72
9
 73
5
 74
0
 42
0.0000001
 43
0.0000001
 44
0.0000000001
 40
0.0
 40
0.0
 40
0.0
 40
0.0
 40
0.2600682452
 40
1.0
 40
1.0
 40
1.0
 40
1.0
 10
42.4438762865
 20
31.28612126
 30
0.0
 10
42.4463651974
 20
31.2891995457
 30
0.0
 10
42.4557345955
 20
31.3011947564
 30
0.0
 10
42.4642604372
 20
31.3138657704
 30
0.0
 10
42.4698891339
 20
31.3236211917
 30
0.0
  0
SPLINE
  5
255
100
AcDbEntity
  8
0
100
AcDbSpline
 62
7
  6
BYLAYER
 70
0
 71
3
 72
11
 73
7
 74
0
 42
0.0000001
 43
0.0000001
 44
0.0000000001
 40
0.0
 40
0.0
 40
0.0
 40
0.0
 40
0.2422509531
 40
0.4881426002
 40
0.7403086769
 40
1.0
 40
1.0
 40
1.0
 40
1.0
 10
38.7188968126
 20
39.2190249678
 30
0.0
 10
38.7188960737
 20
39.3039162547
 30
0.0
 10
38.7316374611
 20
39.4752209622
 30
0.0
 10
38.7873048071
 20
39.729348578
 30
0.0
 10
38.8756820769
 20
39.9803254931
 30
0.0
 10
38.952036845
 20
40.1429313612
 30
0.0
 10
38.9939154506
 20
40.2237255671
 30
0.0
  0
SPLINE
  5
256
100
AcDbEntity
  8
0
100
AcDbSpline
 62
7
  6
BYLAYER
 70
0
 71
3
 72
11
 73
7
 74
0
 42
0.0000001
 43
0.0000001
 44
0.0000000001
 40
0.0
 40
0.0
 40
0.0
 40
0.0
 40
0.2596913603
 40
0.5118574596
 40
0.7577490886
 40
1.0
 40
1.0
 40
1.0
 40
1.0
 10
42.443876031
 20
33.2955223368
 30
0.0
 10
42.4857546425
 20
33.2147281194
 30
0.0
 10
42.5621094364
 20
33.0521222396
 30
0.0
 10
42.6504866748
 20
32.8011452973
 30
0.0
 10
42.7061540171
 20
32.5470176961
 30
0.0
 10
42.7188954082
 20
32.3757130097
 30
0.0
 10
42.7188946689
 20
32.2908217375
 30
0.0
  0
SPLINE
  5
257
100
AcDbEntity
  8
0
100
AcDbSpline
 62
7
  6
BYLAYER
 70
0
 71
3
 72
11
 73
7
 74
0
 42
0.0000001
 43
0.0000001
 44
0.0000000001
 40
0.0
 40
0.0
 40
0.0
 40
0.0
 40
0.2499983962
 40
0.4999982272
 40
0.7499982939
 40
1.0
 40
1.0
 40
1.0
 40
1.0
 10
42.7188957408
 20
35.7549234136
 30
0.0
 10
42.7188957408
 20
35.6026463642
 30
0.0
 10
42.7087637523
 20
35.2979996417
 30
0.0
 10
42.6641771804
 20
34.8430633814
 30
0.0
 10
42.592546686
 20
34.3916359979
 30
0.0
 10
42.528859502
 20
34.0936651436
 30
0.0
 10
42.4936086499
 20
33.9455223368
 30
0.0
  0
SPLINE
  5
258
100
AcDbEntity
  8
0
100
AcDbSpline
 62
7
  6
BYLAYER
 70
0
 71
3
 72
11
 73
7
 74
0
 42
0.0000001
 43
0.0000001
 44
0.0000000001
 40
0.0
 40
0.0
 40
0.0
 40
0.0
 40
0.2422509531
 40
0.4881426002
 40
0.7403086769
 40
1.0
 40
1.0
 40
1.0
 40
1.0
 10
38.7188968126
 20
32.2908217375
 30
0.0
 10
38.7188960737
 20
32.3757130244
 30
0.0
 10
38.7316374611
 20
32.5470177319
 30
0.0
 10
38.7873048071
 20
32.8011453477
 30
0.0
 10
38.8756820769
 20
33.0521222628
 30
0.0
 10
38.952036845
 20
33.2147281309
 30
0.0
 10
38.9939154506
 20
33.2955223368
 30
0.0
  0
SPLINE
  5
259
100
AcDbEntity
  8
0
100
AcDbSpline
 62
7
  6
BYLAYER
 70
0
 71
3
 72
11
 73
7
 74
0
 42
0.0000001
 43
0.0000001
 44
0.0000000001
 40
0.0
 40
0.0
 40
0.0
 40
0.0
 40
0.2500017264
 40
0.500001809
 40
0.7500016288
 40
1.0
 40
1.0
 40
1.0
 40
1.0
 10
38.9441828316
 20
33.9455223368
 30
0.0
 10
38.9089319767
 20
34.0936651556
 30
0.0
 10
38.8452447821
 20
34.3916360304
 30
0.0
 10
38.773614302
 20
34.8430634316
 30
0.0
 10
38.7290277305
 20
35.297999679
 30
0.0
 10
38.7188957408
 20
35.6026463795
 30
0.0
 10
38.7188957408
 20
35.7549234136
 30
0.0
  0
SPLINE
  5
25A
100
AcDbEntity
  8
0
100
AcDbSpline
 62
7
  6
BYLAYER
 70
0
 71
3
 72
11
 73
7
 74
0
 42
0.0000001
 43
0.0000001
 44
0.0000000001
 40
0.0
 40
0.0
 40
0.0
 40
0.0
 40
0.2422509513
 40
0.4881426007
 40
0.7403086806
 40
1.0
 40
1.0
 40
1.0
 40
1.0
 10
42.7188946689
 20
39.2190249678
 30
0.0
 10
42.7188954019
 20
39.134133691
 30
0.0
 10
42.7061540372
 20
38.9628290009
 30
0.0
 10
42.6504866566
 20
38.7087014185
 30
0.0
 10
42.5621093727
 20
38.4577245418
 30
0.0
 10
42.4857546266
 20
38.2951186859
 30
0.0
 10
42.4438760262
 20
38.2143244903
 30
0.0
  0
SPLINE
  5
25B
100
AcDbEntity
  8
0
100
AcDbSpline
 62
7
  6
BYLAYER
 70
0
 71
3
 72
11
 73
7
 74
0
 42
0.0000001
 43
0.0000001
 44
0.0000000001
 40
0.0
 40
0.0
 40
0.0
 40
0.0
 40
0.2500017264
 40
0.500001809
 40
0.7500016288
 40
1.0
 40
1.0
 40
1.0
 40
1.0
 10
42.4936086499
 20
37.5643244903
 30
0.0
 10
42.5288595048
 20
37.4161816716
 30
0.0
 10
42.5925466994
 20
37.1182107968
 30
0.0
 10
42.6641771796
 20
36.6667833955
 30
0.0
 10
42.7087637511
 20
36.2118471481
 30
0.0
 10
42.7188957408
 20
35.9072004476
 30
0.0
 10
42.7188957408
 20
35.7549234136
 30
0.0
  0
SPLINE
  5
25C
100
AcDbEntity
  8
0
100
AcDbSpline
 62
7
  6
BYLAYER
 70
0
 71
3
 72
11
 73
7
 74
0
 42
0.0000001
 43
0.0000001
 44
0.0000000001
 40
0.0
 40
0.0
 40
0.0
 40
0.0
 40
0.2596913603
 40
0.5118574596
 40
0.7577490886
 40
1.0
 40
1.0
 40
1.0
 40
1.0
 10
42.443876031
 20
40.2237255671
 30
0.0
 10
42.4857546425
 20
40.1429313497
 30
0.0
 10
42.5621094364
 20
39.9803254699
 30
0.0
 10
42.6504866748
 20
39.7293485276
 30
0.0
 10
42.7061540171
 20
39.4752209264
 30
0.0
 10
42.7188954082
 20
39.30391624
 30
0.0
 10
42.7188946689
 20
39.2190249678
 30
0.0
  0
SPLINE
  5
25D
100
AcDbEntity
  8
0
100
AcDbSpline
 62
7
  6
BYLAYER
 70
0
 71
3
 72
11
 73
7
 74
0
 42
0.0000001
 43
0.0000001
 44
0.0000000001
 40
0.0
 40
0.0
 40
0.0
 40
0.0
 40
0.2499983962
 40
0.4999982272
 40
0.7499982939
 40
1.0
 40
1.0
 40
1.0
 40
1.0
 10
38.7188957408
 20
35.7549234136
 30
0.0
 10
38.7188957408
 20
35.9072004629
 30
0.0
 10
38.7290277293
 20
36.2118471855
 30
0.0
 10
38.7736143011
 20
36.6667834457
 30
0.0
 10
38.8452447955
 20
37.1182108292
 30
0.0
 10
38.9089319796
 20
37.4161816836
 30
0.0
 10
38.9441828316
 20
37.5643244903
 30
0.0
  0
SPLINE
  5
25E
100
AcDbEntity
  8
0
100
AcDbSpline
 62
7
  6
BYLAYER
 70
0
 71
3
 72
11
 73
7
 74
0
 42
0.0000001
 43
0.0000001
 44
0.0000000001
 40
0.0
 40
0.0
 40
0.0
 40
0.0
 40
0.2422509513
 40
0.4881426007
 40
0.7403086806
 40
1.0
 40
1.0
 40
1.0
 40
1.0
 10
42.7188946689
 20
32.2908217375
 30
0.0
 10
42.7188954019
 20
32.2059304608
 30
0.0
 10
42.7061540372
 20
32.0346257707
 30
0.0
 10
42.6504866566
 20
31.7804981883
 30
0.0
 10
42.5621093727
 20
31.5295213115
 30
0.0
 10
42.4857546266
 20
31.3669154557
 30
0.0
 10
42.4438760262
 20
31.28612126
 30
0.0
  0
SPLINE
  5
25F
100
AcDbEntity
  8
0
100
AcDbSpline
 62
7
  6
BYLAYER
 70
0
 71
3
 72
11
 73
7
 74
0
 42
0.0000001
 43
0.0000001
 44
0.0000000001
 40
0.0
 40
0.0
 40
0.0
 40
0.0
 40
0.2596913565
 40
0.5118574591
 40
0.7577490904
 40
1.0
 40
1.0
 40
1.0
 40
1.0
 10
38.9939154554
 20
38.2143244903
 30
0.0
 10
38.952036849
 20
38.2951186974
 30
0.0
 10
38.875682077
 20
38.457724565
 30
0.0
 10
38.7873048247
 20
38.708701469
 30
0.0
 10
38.7316374478
 20
38.9628290368
 30
0.0
 10
38.7188960793
 20
39.1341337057
 30
0.0
 10
38.7188968126
 20
39.2190249678
 30
0.0
  0
SPLINE
  5
260
100
AcDbEntity
  8
0
100
AcDbSpline
 62
7
  6
BYLAYER
 70
0
 71
3
 72
11
 73
7
 74
0
 42
0.0000001
 43
0.0000001
 44
0.0000000001
 40
0.0
 40
0.0
 40
0.0
 40
0.0
 40
0.2596913565
 40
0.5118574591
 40
0.7577490904
 40
1.0
 40
1.0
 40
1.0
 40
1.0
 10
38.9939154554
 20
31.28612126
 30
0.0
 10
38.952036849
 20
31.3669154672
 30
0.0
 10
38.875682077
 20
31.5295213347
 30
0.0
 10
38.7873048247
 20
31.7804982387
 30
0.0
 10
38.7316374478
 20
32.0346258065
 30
0.0
 10
38.7188960793
 20
32.2059304755
 30
0.0
 10
38.7188968126
 20
32.2908217375
 30
0.0
  0
SPLINE
  5
261
100
AcDbEntity
  8
0
100
AcDbSpline
 62
7
  6
BYLAYER
 70
0
 71
3
 72
9
 73
5
 74
0
 42
0.0000001
 43
0.0000001
 44
0.0000000001
 40
0.0
 40
0.0
 40
0.0
 40
0.0
 40
0.2402933485
 40
1.0
 40
1.0
 40
1.0
 40
1.0
 10
32.9678849435
 20
40.1862258397
 30
0.0
 10
32.969710761
 20
40.1893962583
 30
0.0
 10
32.9776141846
 20
40.2024142992
 30
0.0
 10
32.9866426885
 20
40.2147309387
 30
0.0
 10
32.9939151875
 20
40.2237255671
 30
0.0
  0
SPLINE
  5
262
100
AcDbEntity
  8
0
100
AcDbSpline
 62
7
  6
BYLAYER
 70
0
 71
3
 72
9
 73
5
 74
0
 42
0.0000001
 43
0.0000001
 44
0.0000000001
 40
0.0
 40
0.0
 40
0.0
 40
0.0
 40
0.2402933526
 40
1.0
 40
1.0
 40
1.0
 40
1.0
 10
36.4699065349
 20
31.3236209874
 30
0.0
 10
36.4680807169
 20
31.3204505689
 30
0.0
 10
36.4601772913
 20
31.3074325282
 30
0.0
 10
36.4511487858
 20
31.2951158889
 30
0.0
 10
36.4438762865
 20
31.28612126
 30
0.0
  0
SPLINE
  5
263
100
AcDbEntity
  8
0
100
AcDbSpline
 62
7
  6
BYLAYER
 70
0
 71
3
 72
9
 73
5
 74
0
 42
0.0000001
 43
0.0000001
 44
0.0000000001
 40
0.0
 40
0.0
 40
0.0
 40
0.0
 40
0.2600778921
 40
1.0
 40
1.0
 40
1.0
 40
1.0
 10
32.993915195
 20
31.28612126
 30
0.0
 10
32.9914256593
 20
31.2892003185
 30
0.0
 10
32.9820497577
 20
31.3011941209
 30
0.0
 10
32.9735067921
 20
31.3138590051
 30
0.0
 10
32.9678849466
 20
31.3236209874
 30
0.0
  0
SPLINE
  5
264
100
AcDbEntity
  8
0
100
AcDbSpline
 62
7
  6
BYLAYER
 70
0
 71
3
 72
9
 73
5
 74
0
 42
0.0000001
 43
0.0000001
 44
0.0000000001
 40
0.0
 40
0.0
 40
0.0
 40
0.0
 40
0.2600779006
 40
1.0
 40
1.0
 40
1.0
 40
1.0
 10
36.443876294
 20
40.2237255671
 30
0.0
 10
36.4463658297
 20
40.2206465087
 30
0.0
 10
36.4557417305
 20
40.2086527067
 30
0.0
 10
36.4642846941
 20
40.1959878222
 30
0.0
 10
36.469906538
 20
40.1862258397
 30
0.0
  0
SPLINE
  5
265
100
AcDbEntity
  8
0
100
AcDbSpline
 62
7
  6
BYLAYER
 70
0
 71
3
 72
11
 73
7
 74
0
 42
0.0000001
 43
0.0000001
 44
0.0000000001
 40
0.0
 40
0.0
 40
0.0
 40
0.0
 40
0.2422509531
 40
0.4881426002
 40
0.7403086769
 40
1.0
 40
1.0
 40
1.0
 40
1.0
 10
32.7188968126
 20
32.2908217375
 30
0.0
 10
32.7188960737
 20
32.3757130244
 30
0.0
 10
32.7316374611
 20
32.5470177319
 30
0.0
 10
32.7873048071
 20
32.8011453477
 30
0.0
 10
32.8756820769
 20
33.0521222628
 30
0.0
 10
32.9520368449
 20
33.2147281309
 30
0.0
 10
32.9939154506
 20
33.2955223368
 30
0.0
  0
SPLINE
  5
266
100
AcDbEntity
  8
0
100
AcDbSpline
 62
7
  6
BYLAYER
 70
0
 71
3
 72
11
 73
7
 74
0
 42
0.0000001
 43
0.0000001
 44
0.0000000001
 40
0.0
 40
0.0
 40
0.0
 40
0.0
 40
0.2500017264
 40
0.500001809
 40
0.7500016288
 40
1.0
 40
1.0
 40
1.0
 40
1.0
 10
32.9441828316
 20
33.9455223368
 30
0.0
 10
32.9089319767
 20
34.0936651556
 30
0.0
 10
32.8452447821
 20
34.3916360304
 30
0.0
 10
32.773614302
 20
34.8430634316
 30
0.0
 10
32.7290277304
 20
35.297999679
 30
0.0
 10
32.7188957408
 20
35.6026463795
 30
0.0
 10
32.7188957408
 20
35.7549234136
 30
0.0
  0
SPLINE
  5
267
100
AcDbEntity
  8
0
100
AcDbSpline
 62
7
  6
BYLAYER
 70
0
 71
3
 72
11
 73
7
 74
0
 42
0.0000001
 43
0.0000001
 44
0.0000000001
 40
0.0
 40
0.0
 40
0.0
 40
0.0
 40
0.2422509513
 40
0.4881426007
 40
0.7403086806
 40
1.0
 40
1.0
 40
1.0
 40
1.0
 10
36.7188946689
 20
32.2908217375
 30
0.0
 10
36.7188954019
 20
32.2059304608
 30
0.0
 10
36.7061540372
 20
32.0346257707
 30
0.0
 10
36.6504866566
 20
31.7804981883
 30
0.0
 10
36.5621093727
 20
31.5295213115
 30
0.0
 10
36.4857546266
 20
31.3669154557
 30
0.0
 10
36.4438760262
 20
31.28612126
 30
0.0
  0
SPLINE
  5
268
100
AcDbEntity
  8
0
100
AcDbSpline
 62
7
  6
BYLAYER
 70
0
 71
3
 72
11
 73
7
 74
0
 42
0.0000001
 43
0.0000001
 44
0.0000000001
 40
0.0
 40
0.0
 40
0.0
 40
0.0
 40
0.2499983962
 40
0.4999982272
 40
0.7499982939
 40
1.0
 40
1.0
 40
1.0
 40
1.0
 10
32.7188957408
 20
35.7549234136
 30
0.0
 10
32.7188957408
 20
35.9072004629
 30
0.0
 10
32.7290277293
 20
36.2118471854
 30
0.0
 10
32.7736143011
 20
36.6667834457
 30
0.0
 10
32.8452447955
 20
37.1182108292
 30
0.0
 10
32.9089319796
 20
37.4161816836
 30
0.0
 10
32.9441828316
 20
37.5643244903
 30
0.0
  0
SPLINE
  5
269
100
AcDbEntity
  8
0
100
AcDbSpline
 62
7
  6
BYLAYER
 70
0
 71
3
 72
11
 73
7
 74
0
 42
0.0000001
 43
0.0000001
 44
0.0000000001
 40
0.0
 40
0.0
 40
0.0
 40
0.0
 40
0.2596913565
 40
0.5118574591
 40
0.7577490904
 40
1.0
 40
1.0
 40
1.0
 40
1.0
 10
32.9939154553
 20
38.2143244903
 30
0.0
 10
32.952036849
 20
38.2951186974
 30
0.0
 10
32.875682077
 20
38.457724565
 30
0.0
 10
32.7873048247
 20
38.708701469
 30
0.0
 10
32.7316374478
 20
38.9628290368
 30
0.0
 10
32.7188960793
 20
39.1341337057
 30
0.0
 10
32.7188968126
 20
39.2190249678
 30
0.0
  0
SPLINE
  5
26A
100
AcDbEntity
  8
0
100
AcDbSpline
 62
7
  6
BYLAYER
 70
0
 71
3
 72
11
 73
7
 74
0
 42
0.0000001
 43
0.0000001
 44
0.0000000001
 40
0.0
 40
0.0
 40
0.0
 40
0.0
 40
0.2500017264
 40
0.500001809
 40
0.7500016288
 40
1.0
 40
1.0
 40
1.0
 40
1.0
 10
36.4936086499
 20
37.5643244903
 30
0.0
 10
36.5288595048
 20
37.4161816716
 30
0.0
 10
36.5925466994
 20
37.1182107968
 30
0.0
 10
36.6641771796
 20
36.6667833955
 30
0.0
 10
36.7087637511
 20
36.2118471481
 30
0.0
 10
36.7188957408
 20
35.9072004476
 30
0.0
 10
36.7188957408
 20
35.7549234136
 30
0.0
  0
SPLINE
  5
26B
100
AcDbEntity
  8
0
100
AcDbSpline
 62
7
  6
BYLAYER
 70
0
 71
3
 72
11
 73
7
 74
0
 42
0.0000001
 43
0.0000001
 44
0.0000000001
 40
0.0
 40
0.0
 40
0.0
 40
0.0
 40
0.2422509513
 40
0.4881426007
 40
0.7403086806
 40
1.0
 40
1.0
 40
1.0
 40
1.0
 10
36.7188946689
 20
39.2190249678
 30
0.0
 10
36.7188954019
 20
39.134133691
 30
0.0
 10
36.7061540372
 20
38.9628290009
 30
0.0
 10
36.6504866566
 20
38.7087014185
 30
0.0
 10
36.5621093727
 20
38.4577245418
 30
0.0
 10
36.4857546266
 20
38.2951186859
 30
0.0
 10
36.4438760262
 20
38.2143244903
 30
0.0
  0
SPLINE
  5
26C
100
AcDbEntity
  8
0
100
AcDbSpline
 62
7
  6
BYLAYER
 70
0
 71
3
 72
11
 73
7
 74
0
 42
0.0000001
 43
0.0000001
 44
0.0000000001
 40
0.0
 40
0.0
 40
0.0
 40
0.0
 40
0.2596913565
 40
0.5118574591
 40
0.7577490904
 40
1.0
 40
1.0
 40
1.0
 40
1.0
 10
32.9939154553
 20
31.28612126
 30
0.0
 10
32.952036849
 20
31.3669154672
 30
0.0
 10
32.875682077
 20
31.5295213347
 30
0.0
 10
32.7873048247
 20
31.7804982387
 30
0.0
 10
32.7316374478
 20
32.0346258065
 30
0.0
 10
32.7188960793
 20
32.2059304755
 30
0.0
 10
32.7188968126
 20
32.2908217375
 30
0.0
  0
SPLINE
  5
26D
100
AcDbEntity
  8
0
100
AcDbSpline
 62
7
  6
BYLAYER
 70
0
 71
3
 72
11
 73
7
 74
0
 42
0.0000001
 43
0.0000001
 44
0.0000000001
 40
0.0
 40
0.0
 40
0.0
 40
0.0
 40
0.2596913603
 40
0.5118574596
 40
0.7577490886
 40
1.0
 40
1.0
 40
1.0
 40
1.0
 10
36.443876031
 20
33.2955223368
 30
0.0
 10
36.4857546425
 20
33.2147281194
 30
0.0
 10
36.5621094364
 20
33.0521222396
 30
0.0
 10
36.6504866748
 20
32.8011452973
 30
0.0
 10
36.7061540171
 20
32.5470176961
 30
0.0
 10
36.7188954082
 20
32.3757130097
 30
0.0
 10
36.7188946689
 20
32.2908217375
 30
0.0
  0
SPLINE
  5
26E
100
AcDbEntity
  8
0
100
AcDbSpline
 62
7
  6
BYLAYER
 70
0
 71
3
 72
11
 73
7
 74
0
 42
0.0000001
 43
0.0000001
 44
0.0000000001
 40
0.0
 40
0.0
 40
0.0
 40
0.0
 40
0.2499983962
 40
0.4999982272
 40
0.7499982939
 40
1.0
 40
1.0
 40
1.0
 40
1.0
 10
36.7188957408
 20
35.7549234136
 30
0.0
 10
36.7188957408
 20
35.6026463642
 30
0.0
 10
36.7087637523
 20
35.2979996417
 30
0.0
 10
36.6641771804
 20
34.8430633814
 30
0.0
 10
36.592546686
 20
34.3916359979
 30
0.0
 10
36.528859502
 20
34.0936651436
 30
0.0
 10
36.4936086499
 20
33.9455223368
 30
0.0
  0
SPLINE
  5
26F
100
AcDbEntity
  8
0
100
AcDbSpline
 62
7
  6
BYLAYER
 70
0
 71
3
 72
11
 73
7
 74
0
 42
0.0000001
 43
0.0000001
 44
0.0000000001
 40
0.0
 40
0.0
 40
0.0
 40
0.0
 40
0.2422509531
 40
0.4881426002
 40
0.7403086769
 40
1.0
 40
1.0
 40
1.0
 40
1.0
 10
32.7188968126
 20
39.2190249678
 30
0.0
 10
32.7188960737
 20
39.3039162547
 30
0.0
 10
32.7316374611
 20
39.4752209622
 30
0.0
 10
32.7873048071
 20
39.729348578
 30
0.0
 10
32.8756820769
 20
39.9803254931
 30
0.0
 10
32.952036845
 20
40.1429313612
 30
0.0
 10
32.9939154506
 20
40.2237255671
 30
0.0
  0
SPLINE
  5
270
100
AcDbEntity
  8
0
100
AcDbSpline
 62
7
  6
BYLAYER
 70
0
 71
3
 72
11
 73
7
 74
0
 42
0.0000001
 43
0.0000001
 44
0.0000000001
 40
0.0
 40
0.0
 40
0.0
 40
0.0
 40
0.2596913603
 40
0.5118574596
 40
0.7577490886
 40
1.0
 40
1.0
 40
1.0
 40
1.0
 10
36.443876031
 20
40.2237255671
 30
0.0
 10
36.4857546425
 20
40.1429313497
 30
0.0
 10
36.5621094364
 20
39.9803254699
 30
0.0
 10
36.6504866748
 20
39.7293485276
 30
0.0
 10
36.7061540171
 20
39.4752209264
 30
0.0
 10
36.7188954082
 20
39.30391624
 30
0.0
 10
36.7188946689
 20
39.2190249678
 30
0.0
  0
ENDSEC
  0
SECTION
  2
OBJECTS
  0
DICTIONARY
  5
C
100
AcDbDictionary
280
0
281
1
  3
ACAD_GROUP
350
D
  3
ACAD_MLINESTYLE
350
17
  3
ACAD_LAYOUT
350
1A
  3
ACAD_PLOTSETTINGS
350
19
  3
ACAD_PLOTSTYLENAME
350
E
  0
DICTIONARY
  5
D
102
{ACAD_REACTORS
330
C
102
}
100
AcDbDictionary
280
0
281
1
  0
ACDBDICTIONARYWDFLT
  5
E
102
{ACAD_REACTORS
330
C
102
}
100
AcDbDictionary
281
1
  3
Normal
350
F
100
AcDbDictionaryWithDefault
340
F
  0
DICTIONARY
  5
17
102
{ACAD_REACTORS
330
C
102
}
100
AcDbDictionary
280
0
281
1
  3
Standard
350
18
  0
DICTIONARY
  5
19
102
{ACAD_REACTORS
330
C
102
}
100
AcDbDictionary
281
1
  0
DICTIONARY
  5
1A
102
{ACAD_REACTORS
330
C
102
}
100
AcDbDictionary
281
1
  3
Model
350
271
  3
Layout1
350
272
  0
ACDBPLACEHOLDER
  5
F
102
{ACAD_REACTORS
330
E
102
}
  0
MLINESTYLE
  5
18
102
{ACAD_REACTORS
330
17
102
}
100
AcDbMlineStyle
  2
STANDARD
 70
0
  3

 62
256
 51
90.0
 52
90.0
 71
2
 49
0.5
 62
256
  6
BYLAYER
 49
-0.5
 62
256
  6
BYLAYER
  0
LAYOUT
  5
271
102
{ACAD_REACTORS
330
1A
102
}
100
AcDbPlotSettings
  1

  2
none_device
  4

  6

 40
0.0
 41
0.0
 42
0.0
 43
0.0
 44
210.0
 45
297.0
 46
0.0
 47
0.0
 48
0.0
 49
0.0
140
0.0
141
0.0
142
1.0
143
1.0
 70
1024
 72
1
 73
0
 74
0
  7

 75
0
147
1.0
148
0.0
149
0.0
100
AcDbLayout
  1
Model
 70
0
 71
0
 10
0.0
 20
0.0
 11
210.0
 21
297.0
 12
0.0
 22
0.0
 32
0.0
 14
0.0
 24
0.0
 34
0.0
 15
0.0
 25
0.0
 35
0.0
146
0.0
 13
0.0
 23
0.0
 33
0.0
 16
1.0
 26
0.0
 36
0.0
 17
0.0
 27
1.0
 37
0.0
 76
0
330
210
345
0
346
0
  0
LAYOUT
  5
272
102
{ACAD_REACTORS
330
1A
102
}
100
AcDbPlotSettings
  1

  2
none_device
  4

  6

 40
0.0
 41
0.0
 42
0.0
 43
0.0
 44
210.0
 45
297.0
 46
0.0
 47
0.0
 48
0.0
 49
0.0
140
0.0
141
0.0
142
1.0
143
1.0
 70
0
 72
1
 73
0
 74
0
  7

 75
0
147
1.0
148
0.0
149
0.0
100
AcDbLayout
  1
Layout1
 70
0
 71
1
 10
0.0
 20
0.0
 11
210.0
 21
297.0
 12
0.0
 22
0.0
 32
0.0
 14
0.0
 24
0.0
 34
0.0
 15
0.0
 25
0.0
 35
0.0
146
0.0
 13
0.0
 23
0.0
 33
0.0
 16
1.0
 26
0.0
 36
0.0
 17
0.0
 27
1.0
 37
0.0
 76
0
330
211
345
0
346
0
  0
ENDSEC
  0
EOF
