  0
SECTION
  2
HEADER
  9
$ACADVER
  1
AC1014
  9
$ACADMAINTVER
 70
     0
  9
$DWGCODEPAGE
  3
ANSI_1252
  9
$INSBASE
 10
0.0
 20
0.0
 30
0.0
  9
$EXTMIN
 10
81.022766
 20
150.573771
 30
0.0
  9
$EXTMAX
 10
109.537057
 20
179.120194
 30
0.0
  9
$LIMMIN
 10
0.0
 20
0.0
  9
$LIMMAX
 10
210.0
 20
297.0
  9
$ORTHOMODE
 70
     0
  9
$REGENMODE
 70
     1
  9
$FILLMODE
 70
     1
  9
$QTEXTMODE
 70
     0
  9
$MIRRTEXT
 70
     1
  9
$DRAGMODE
 70
     2
  9
$LTSCALE
 40
10.0
  9
$OSMODE
 70
     0
  9
$ATTMODE
 70
     1
  9
$TEXTSIZE
 40
2.9
  9
$TRACEWID
 40
0.05
  9
$TEXTSTYLE
  7
ROMANS
  9
$CLAYER
  8
COTATION1
  9
$CELTYPE
  6
BYLAYER
  9
$CECOLOR
 62
   256
  9
$CELTSCALE
 40
1.0
  9
$DELOBJ
 70
     1
  9
$DISPSILH
 70
     0
  9
$DIMSCALE
 40
1.0
  9
$DIMASZ
 40
3.0
  9
$DIMEXO
 40
0.0625
  9
$DIMDLI
 40
0.38
  9
$DIMRND
 40
0.01
  9
$DIMDLE
 40
0.0
  9
$DIMEXE
 40
0.18
  9
$DIMTP
 40
0.0
  9
$DIMTM
 40
0.0
  9
$DIMTXT
 40
2.5
  9
$DIMCEN
 40
0.09
  9
$DIMTSZ
 40
0.0
  9
$DIMTOL
 70
     0
  9
$DIMLIM
 70
     0
  9
$DIMTIH
 70
     0
  9
$DIMTOH
 70
     0
  9
$DIMSE1
 70
     0
  9
$DIMSE2
 70
     0
  9
$DIMTAD
 70
     1
  9
$DIMZIN
 70
    12
  9
$DIMBLK
  1

  9
$DIMASO
 70
     1
  9
$DIMSHO
 70
     1
  9
$DIMPOST
  1

  9
$DIMAPOST
  1

  9
$DIMALT
 70
     0
  9
$DIMALTD
 70
     2
  9
$DIMALTF
 40
25.4
  9
$DIMLFAC
 40
1.0
  9
$DIMTOFL
 70
     1
  9
$DIMTVP
 40
0.0
  9
$DIMTIX
 70
     0
  9
$DIMSOXD
 70
     0
  9
$DIMSAH
 70
     0
  9
$DIMBLK1
  1

  9
$DIMBLK2
  1

  9
$DIMSTYLE
  2
SC_STAND
  9
$DIMCLRD
 70
     0
  9
$DIMCLRE
 70
     0
  9
$DIMCLRT
 70
     0
  9
$DIMTFAC
 40
1.0
  9
$DIMGAP
 40
1.0
  9
$DIMJUST
 70
     0
  9
$DIMSD1
 70
     0
  9
$DIMSD2
 70
     0
  9
$DIMTOLJ
 70
     1
  9
$DIMTZIN
 70
    12
  9
$DIMALTZ
 70
    12
  9
$DIMALTTZ
 70
    12
  9
$DIMFIT
 70
     5
  9
$DIMUPT
 70
     0
  9
$DIMUNIT
 70
     2
  9
$DIMDEC
 70
     4
  9
$DIMTDEC
 70
     4
  9
$DIMALTU
 70
     2
  9
$DIMALTTD
 70
     2
  9
$DIMTXSTY
  7
ROMANS
  9
$DIMAUNIT
 70
     0
  9
$LUNITS
 70
     2
  9
$LUPREC
 70
     4
  9
$SKETCHINC
 40
0.1
  9
$FILLETRAD
 40
0.0
  9
$AUNITS
 70
     0
  9
$AUPREC
 70
     0
  9
$MENU
  1
.
  9
$ELEVATION
 40
0.0
  9
$PELEVATION
 40
0.0
  9
$THICKNESS
 40
0.0
  9
$LIMCHECK
 70
     0
  9
$BLIPMODE
 70
     1
  9
$CHAMFERA
 40
0.0
  9
$CHAMFERB
 40
0.0
  9
$CHAMFERC
 40
0.0
  9
$CHAMFERD
 40
0.0
  9
$SKPOLY
 70
     0
  9
$TDCREATE
 40
2450988.725338078
  9
$TDUPDATE
 40
2451387.896844861
  9
$TDINDWG
 40
0.0004511574
  9
$TDUSRTIMER
 40
0.0004511574
  9
$USRTIMER
 70
     1
  9
$ANGBASE
 50
0.0
  9
$ANGDIR
 70
     0
  9
$PDMODE
 70
     0
  9
$PDSIZE
 40
0.0
  9
$PLINEWID
 40
0.0
  9
$COORDS
 70
     1
  9
$SPLFRAME
 70
     0
  9
$SPLINETYPE
 70
     6
  9
$SPLINESEGS
 70
     8
  9
$ATTDIA
 70
     1
  9
$ATTREQ
 70
     1
  9
$HANDLING
 70
     1
  9
$HANDSEED
  5
210
  9
$SURFTAB1
 70
     6
  9
$SURFTAB2
 70
     6
  9
$SURFTYPE
 70
     6
  9
$SURFU
 70
     6
  9
$SURFV
 70
     6
  9
$UCSNAME
  2

  9
$UCSORG
 10
0.0
 20
0.0
 30
0.0
  9
$UCSXDIR
 10
1.0
 20
0.0
 30
0.0
  9
$UCSYDIR
 10
0.0
 20
1.0
 30
0.0
  9
$PUCSNAME
  2

  9
$PUCSORG
 10
0.0
 20
0.0
 30
0.0
  9
$PUCSXDIR
 10
1.0
 20
0.0
 30
0.0
  9
$PUCSYDIR
 10
0.0
 20
1.0
 30
0.0
  9
$USERI1
 70
     0
  9
$USERI2
 70
     0
  9
$USERI3
 70
     0
  9
$USERI4
 70
     0
  9
$USERI5
 70
     0
  9
$USERR1
 40
0.0
  9
$USERR2
 40
0.0
  9
$USERR3
 40
0.0
  9
$USERR4
 40
0.0
  9
$USERR5
 40
0.0
  9
$WORLDVIEW
 70
     1
  9
$SHADEDGE
 70
     3
  9
$SHADEDIF
 70
    70
  9
$TILEMODE
 70
     1
  9
$MAXACTVP
 70
    16
  9
$PINSBASE
 10
0.0
 20
0.0
 30
0.0
  9
$PLIMCHECK
 70
     0
  9
$PEXTMIN
 10
0.0
 20
0.0
 30
0.0
  9
$PEXTMAX
 10
420.0
 20
297.0
 30
0.0
  9
$PLIMMIN
 10
0.0
 20
0.0
  9
$PLIMMAX
 10
420.0
 20
297.0
  9
$UNITMODE
 70
     0
  9
$VISRETAIN
 70
     0
  9
$PLINEGEN
 70
     0
  9
$PSLTSCALE
 70
     1
  9
$TREEDEPTH
 70
  3020
  9
$PICKSTYLE
 70
     1
  9
$CMLSTYLE
  2
STANDARD
  9
$CMLJUST
 70
     0
  9
$CMLSCALE
 40
1.0
  9
$PROXYGRAPHICS
 70
     1
  9
$MEASUREMENT
 70
     0
  0
ENDSEC
  0
SECTION
  2
CLASSES
  0
CLASS
  1
DICTIONARYVAR
  2
AcDbDictionaryVar
  3
"AutoCAD"
 90
        0
280
     0
281
     0
  0
ENDSEC
  0
SECTION
  2
TABLES
  0
TABLE
  2
VPORT
  5
1B7
100
AcDbSymbolTable
 70
     1
  0
VPORT
  5
20B
100
AcDbSymbolTableRecord
100
AcDbViewportTableRecord
  2
*ACTIVE
 70
     0
 10
0.0
 20
0.0
 11
1.0
 21
1.0
 12
257.127367
 22
153.871495
 13
0.0
 23
0.0
 14
1.0
 24
1.0
 15
10.0
 25
10.0
 16
0.0
 26
0.0
 36
1.0
 17
0.0
 27
0.0
 37
0.0
 40
307.74299
 41
1.671053
 42
50.0
 43
0.0
 44
0.0
 50
0.0
 51
0.0
 71
     0
 72
   100
 73
     1
 74
     1
 75
     0
 76
     1
 77
     0
 78
     0
  0
ENDTAB
  0
TABLE
  2
LTYPE
  5
1B4
100
AcDbSymbolTable
 70
    23
  0
LTYPE
  5
1C0
100
AcDbSymbolTableRecord
100
AcDbLinetypeTableRecord
  2
BYBLOCK
 70
     0
  3

 72
    65
 73
     0
 40
0.0
  0
LTYPE
  5
1C1
100
AcDbSymbolTableRecord
100
AcDbLinetypeTableRecord
  2
BYLAYER
 70
     0
  3

 72
    65
 73
     0
 40
0.0
  0
LTYPE
  5
1C2
100
AcDbSymbolTableRecord
100
AcDbLinetypeTableRecord
  2
CONTINUOUS
 70
     0
  3
Solid line
 72
    65
 73
     0
 40
0.0
  0
LTYPE
  5
1D1
100
AcDbSymbolTableRecord
100
AcDbLinetypeTableRecord
  2
AXES
 70
     0
  3
____ _ ____ _ ____ _ ____ _ ____ _ ____ _ ____ 
 72
    65
 73
     4
 40
2.0
 49
1.25
 74
     0
 49
-0.25
 74
     0
 49
0.25
 74
     0
 49
-0.25
 74
     0
  0
LTYPE
  5
1D2
100
AcDbSymbolTableRecord
100
AcDbLinetypeTableRecord
  2
AXES2
 70
     0
  3
___ _ ___ _ ___ _ ___ _ ___ _ ___ _ ___ _ ___ _
 72
    65
 73
     4
 40
1.125
 49
0.75
 74
     0
 49
-0.125
 74
     0
 49
0.125
 74
     0
 49
-0.125
 74
     0
  0
LTYPE
  5
1D3
100
AcDbSymbolTableRecord
100
AcDbLinetypeTableRecord
  2
AXESX2
 70
     0
  3
________  __  ________  __  ________  __  _____
 72
    65
 73
     4
 40
4.0
 49
2.5
 74
     0
 49
-0.5
 74
     0
 49
0.5
 74
     0
 49
-0.5
 74
     0
  0
LTYPE
  5
1D4
100
AcDbSymbolTableRecord
100
AcDbLinetypeTableRecord
  2
TIRETPT
 70
     0
  3
__ . __ . __ . __ . __ . __ . __ . __ . __ . __
 72
    65
 73
     4
 40
1.0
 49
0.5
 74
     0
 49
-0.25
 74
     0
 49
0.0
 74
     0
 49
-0.25
 74
     0
  0
LTYPE
  5
1D5
100
AcDbSymbolTableRecord
100
AcDbLinetypeTableRecord
  2
TIRETPT2
 70
     0
  3
_._._._._._._._._._._._._._._._._._._._._._._._
 72
    65
 73
     4
 40
0.5
 49
0.25
 74
     0
 49
-0.125
 74
     0
 49
0.0
 74
     0
 49
-0.125
 74
     0
  0
LTYPE
  5
1D6
100
AcDbSymbolTableRecord
100
AcDbLinetypeTableRecord
  2
TIRETPTX2
 70
     0
  3
____  .  ____  .  ____  .  ____  .  ____  .  __
 72
    65
 73
     4
 40
2.0
 49
1.0
 74
     0
 49
-0.5
 74
     0
 49
0.0
 74
     0
 49
-0.5
 74
     0
  0
LTYPE
  5
1D7
100
AcDbSymbolTableRecord
100
AcDbLinetypeTableRecord
  2
DISCONTINU
 70
     0
  3
__ __ __ __ __ __ __ __ __ __ __ __ __ __ __ __
 72
    65
 73
     2
 40
0.75
 49
0.5
 74
     0
 49
-0.25
 74
     0
  0
LTYPE
  5
1D8
100
AcDbSymbolTableRecord
100
AcDbLinetypeTableRecord
  2
DISCONTINU2
 70
     0
  3
_ _ _ _ _ _ _ _ _ _ _ _ _ _ _ _ _ _ _ _ _ _ _ _
 72
    65
 73
     2
 40
0.375
 49
0.25
 74
     0
 49
-0.125
 74
     0
  0
LTYPE
  5
1D9
100
AcDbSymbolTableRecord
100
AcDbLinetypeTableRecord
  2
DISCONTINUX2
 70
     0
  3
____  ____  ____  ____  ____  ____  ____  ____ 
 72
    65
 73
     2
 40
1.5
 49
1.0
 74
     0
 49
-0.5
 74
     0
  0
LTYPE
  5
1DA
100
AcDbSymbolTableRecord
100
AcDbLinetypeTableRecord
  2
DIVISE
 70
     0
  3
____ . . ____ . . ____ . . ____ . . ____ . . __
 72
    65
 73
     6
 40
1.25
 49
0.5
 74
     0
 49
-0.25
 74
     0
 49
0.0
 74
     0
 49
-0.25
 74
     0
 49
0.0
 74
     0
 49
-0.25
 74
     0
  0
LTYPE
  5
1DB
100
AcDbSymbolTableRecord
100
AcDbLinetypeTableRecord
  2
DIVISE2
 70
     0
  3
__..__..__..__..__..__..__..__..__..__..__..__.
 72
    65
 73
     6
 40
0.625
 49
0.25
 74
     0
 49
-0.125
 74
     0
 49
0.0
 74
     0
 49
-0.125
 74
     0
 49
0.0
 74
     0
 49
-0.125
 74
     0
  0
LTYPE
  5
1DC
100
AcDbSymbolTableRecord
100
AcDbLinetypeTableRecord
  2
DIVISEX2
 70
     0
  3
________  .  .  ________  .  .  ________  .  . 
 72
    65
 73
     6
 40
2.5
 49
1.0
 74
     0
 49
-0.5
 74
     0
 49
0.0
 74
     0
 49
-0.5
 74
     0
 49
0.0
 74
     0
 49
-0.5
 74
     0
  0
LTYPE
  5
1DD
100
AcDbSymbolTableRecord
100
AcDbLinetypeTableRecord
  2
POINTILLE
 70
     0
  3
. . . . . . . . . . . . . . . . . . . . . . . .
 72
    65
 73
     2
 40
0.25
 49
0.0
 74
     0
 49
-0.25
 74
     0
  0
LTYPE
  5
1DE
100
AcDbSymbolTableRecord
100
AcDbLinetypeTableRecord
  2
POINTILLE2
 70
     0
  3
...............................................
 72
    65
 73
     2
 40
0.125
 49
0.0
 74
     0
 49
-0.125
 74
     0
  0
LTYPE
  5
1DF
100
AcDbSymbolTableRecord
100
AcDbLinetypeTableRecord
  2
POINTILLEX2
 70
     0
  3
.  .  .  .  .  .  .  .  .  .  .  .  .  .  .  . 
 72
    65
 73
     2
 40
0.5
 49
0.0
 74
     0
 49
-0.5
 74
     0
  0
LTYPE
  5
1E0
100
AcDbSymbolTableRecord
100
AcDbLinetypeTableRecord
  2
CACHE
 70
     0
  3
__ __ __ __ __ __ __ __ __ __ __ __ __ __ __ __
 72
    65
 73
     2
 40
0.375
 49
0.25
 74
     0
 49
-0.125
 74
     0
  0
LTYPE
  5
1E1
100
AcDbSymbolTableRecord
100
AcDbLinetypeTableRecord
  2
CACHE2
 70
     0
  3
_ _ _ _ _ _ _ _ _ _ _ _ _ _ _ _ _ _ _ _ _ _ _ _
 72
    65
 73
     2
 40
0.1875
 49
0.125
 74
     0
 49
-0.0625
 74
     0
  0
LTYPE
  5
1E2
100
AcDbSymbolTableRecord
100
AcDbLinetypeTableRecord
  2
CACHEX2
 70
     0
  3
____ ____ ____ ____ ____ ____ ____ ____ ____ __
 72
    65
 73
     2
 40
0.75
 49
0.5
 74
     0
 49
-0.25
 74
     0
  0
LTYPE
  5
1E3
100
AcDbSymbolTableRecord
100
AcDbLinetypeTableRecord
  2
FANTOME
 70
     0
  3
______  __  __  ______  __  __  ______  __  __ 
 72
    65
 73
     6
 40
2.5
 49
1.25
 74
     0
 49
-0.25
 74
     0
 49
0.25
 74
     0
 49
-0.25
 74
     0
 49
0.25
 74
     0
 49
-0.25
 74
     0
  0
LTYPE
  5
1E4
100
AcDbSymbolTableRecord
100
AcDbLinetypeTableRecord
  2
FANTOME2
 70
     0
  3
___ _ _ ___ _ _ ___ _ _ ___ _ _ ___ _ _ ___ _ _
 72
    65
 73
     6
 40
1.25
 49
0.625
 74
     0
 49
-0.125
 74
     0
 49
0.125
 74
     0
 49
-0.125
 74
     0
 49
0.125
 74
     0
 49
-0.125
 74
     0
  0
LTYPE
  5
1E5
100
AcDbSymbolTableRecord
100
AcDbLinetypeTableRecord
  2
FANTOMEX2
 70
     0
  3
____________    ____    ____    ____________   
 72
    65
 73
     6
 40
5.0
 49
2.5
 74
     0
 49
-0.5
 74
     0
 49
0.5
 74
     0
 49
-0.5
 74
     0
 49
0.5
 74
     0
 49
-0.5
 74
     0
  0
LTYPE
  5
1E6
100
AcDbSymbolTableRecord
100
AcDbLinetypeTableRecord
  2
0
 70
     0
  3
MEDUSA PEN 0
 72
    65
 73
     0
 40
0.0
  0
ENDTAB
  0
TABLE
  2
LAYER
  5
1B1
100
AcDbSymbolTable
 70
    21
  0
LAYER
  5
1BD
100
AcDbSymbolTableRecord
100
AcDbLayerTableRecord
  2
0
 70
     0
 62
   255
  6
CONTINUOUS
  0
LAYER
  5
1EE
100
AcDbSymbolTableRecord
100
AcDbLayerTableRecord
  2
COTATION1
 70
     0
 62
     2
  6
CONTINUOUS
  0
LAYER
  5
1EF
100
AcDbSymbolTableRecord
100
AcDbLayerTableRecord
  2
ASHADE
 70
     0
 62
     7
  6
CONTINUOUS
  0
LAYER
  5
1F0
100
AcDbSymbolTableRecord
100
AcDbLayerTableRecord
  2
ALPHA
 70
     0
 62
   255
  6
CONTINUOUS
  0
LAYER
  5
1F1
100
AcDbSymbolTableRecord
100
AcDbLayerTableRecord
  2
AXE
 70
     0
 62
    80
  6
AXES2
  0
LAYER
  5
1F2
100
AcDbSymbolTableRecord
100
AcDbLayerTableRecord
  2
CONSTRUCTION
 70
     0
 62
     6
  6
CONTINUOUS
  0
LAYER
  5
1F3
100
AcDbSymbolTableRecord
100
AcDbLayerTableRecord
  2
HACHURES
 70
     0
 62
     9
  6
CONTINUOUS
  0
LAYER
  5
1F4
100
AcDbSymbolTableRecord
100
AcDbLayerTableRecord
  2
FMULT
 70
     0
 62
     6
  6
CONTINUOUS
  0
LAYER
  5
1F5
100
AcDbSymbolTableRecord
100
AcDbLayerTableRecord
  2
TEXTE
 70
     0
 62
   131
  6
CONTINUOUS
  0
LAYER
  5
1F6
100
AcDbSymbolTableRecord
100
AcDbLayerTableRecord
  2
FDP_CARTOUCHE
 70
     0
 62
     4
  6
CONTINUOUS
  0
LAYER
  5
1F7
100
AcDbSymbolTableRecord
100
AcDbLayerTableRecord
  2
FDP_TEXTES
 70
     0
 62
     5
  6
CONTINUOUS
  0
LAYER
  5
1F8
100
AcDbSymbolTableRecord
100
AcDbLayerTableRecord
  2
FDP_LOGO_MG
 70
     0
 62
    30
  6
CONTINUOUS
  0
LAYER
  5
1F9
100
AcDbSymbolTableRecord
100
AcDbLayerTableRecord
  2
FDP_LOGO_SCH
 70
     0
 62
     3
  6
CONTINUOUS
  0
LAYER
  5
1FA
100
AcDbSymbolTableRecord
100
AcDbLayerTableRecord
  2
FDP_FDP
 70
     0
 62
     5
  6
CONTINUOUS
  0
LAYER
  5
1FB
100
AcDbSymbolTableRecord
100
AcDbLayerTableRecord
  2
COTATION2
 70
     0
 62
     2
  6
CONTINUOUS
  0
LAYER
  5
1FC
100
AcDbSymbolTableRecord
100
AcDbLayerTableRecord
  2
COTATION3
 70
     0
 62
     2
  6
CONTINUOUS
  0
LAYER
  5
1FD
100
AcDbSymbolTableRecord
100
AcDbLayerTableRecord
  2
COTATION4
 70
     0
 62
     2
  6
CONTINUOUS
  0
LAYER
  5
1FE
100
AcDbSymbolTableRecord
100
AcDbLayerTableRecord
  2
POINTILLE_COURT
 70
     0
 62
    40
  6
CACHE2
  0
LAYER
  5
1FF
100
AcDbSymbolTableRecord
100
AcDbLayerTableRecord
  2
POINTILLE_MOYEN
 70
     0
 62
   140
  6
CACHE
  0
LAYER
  5
200
100
AcDbSymbolTableRecord
100
AcDbLayerTableRecord
  2
POINTILLE_LONG
 70
     0
 62
   240
  6
CACHEX2
  0
LAYER
  5
201
100
AcDbSymbolTableRecord
100
AcDbLayerTableRecord
  2
DEFPOINTS
 70
     0
 62
     7
  6
CONTINUOUS
  0
ENDTAB
  0
TABLE
  2
STYLE
  5
1B2
100
AcDbSymbolTable
 70
     4
  0
STYLE
  5
1BE
100
AcDbSymbolTableRecord
100
AcDbTextStyleTableRecord
  2
STANDARD
 70
     0
 40
0.0
 41
1.0
 50
0.0
 71
     0
 42
0.2
  3
txt
  4

  0
STYLE
  5
1CE
100
AcDbSymbolTableRecord
100
AcDbTextStyleTableRecord
  2
ROMANS
 70
     0
 40
0.0
 41
1.0
 50
0.0
 71
     0
 42
2.9
  3
romans.shx
  4

  0
STYLE
  5
1CF
100
AcDbSymbolTableRecord
100
AcDbTextStyleTableRecord
  2
INFOCAR
 70
     0
 40
0.0
 41
1.34
 50
0.0
 71
     0
 42
2.0
  3
ROMANS.SHX
  4

  0
STYLE
  5
1D0
100
AcDbSymbolTableRecord
100
AcDbTextStyleTableRecord
  2
CARTOUCHE
 70
     0
 40
0.0
 41
1.0
 50
0.0
 71
     0
 42
0.2
  3
ROMANS.SHX
  4

  0
ENDTAB
  0
TABLE
  2
VIEW
  5
1B5
100
AcDbSymbolTable
 70
     0
  0
ENDTAB
  0
TABLE
  2
UCS
  5
1B6
100
AcDbSymbolTable
 70
     0
  0
ENDTAB
  0
TABLE
  2
APPID
  5
1B8
100
AcDbSymbolTable
 70
     3
  0
APPID
  5
1BF
100
AcDbSymbolTableRecord
100
AcDbRegAppTableRecord
  2
ACAD
 70
     0
  0
APPID
  5
1E8
100
AcDbSymbolTableRecord
100
AcDbRegAppTableRecord
  2
AVE_RENDER
 70
     0
  0
APPID
  5
1E9
100
AcDbSymbolTableRecord
100
AcDbRegAppTableRecord
  2
AVE_MATERIAL
 70
     0
  0
ENDTAB
  0
TABLE
  2
DIMSTYLE
  5
1B9
100
AcDbSymbolTable
 70
     2
  0
DIMSTYLE
105
1EA
100
AcDbSymbolTableRecord
100
AcDbDimStyleTableRecord
  2
SC_STAND
 70
     0
  3

  4

  5

  6

  7

 40
1.0
 41
3.0
 42
0.0625
 43
0.38
 44
0.18
 45
0.01
 46
0.0
 47
0.0
 48
0.0
140
2.5
141
0.09
142
0.0
143
25.4
144
1.0
145
0.0
146
1.0
147
1.0
 71
     0
 72
     0
 73
     0
 74
     0
 75
     0
 76
     0
 77
     1
 78
    12
170
     0
171
     2
172
     1
173
     0
174
     0
175
     0
176
     0
177
     0
178
     0
270
     2
271
     4
272
     4
273
     2
274
     2
340
1CE
275
     0
280
     0
281
     0
282
     0
283
     1
284
    12
285
    12
286
    12
287
     5
288
     0
  0
DIMSTYLE
105
1EB
100
AcDbSymbolTableRecord
100
AcDbDimStyleTableRecord
  2
STANDARD
 70
     0
  3

  4

  5

  6

  7

 40
1.0
 41
0.18
 42
0.0625
 43
0.38
 44
0.18
 45
0.0
 46
0.0
 47
0.0
 48
0.0
140
0.18
141
0.09
142
0.0
143
25.4
144
1.0
145
0.0
146
1.0
147
0.09
 71
     0
 72
     0
 73
     1
 74
     1
 75
     0
 76
     0
 77
     0
 78
     0
170
     0
171
     2
172
     0
173
     0
174
     0
175
     0
176
     0
177
     0
178
     0
270
     2
271
     4
272
     4
273
     2
274
     2
340
1CE
275
     0
280
     0
281
     0
282
     0
283
     1
284
    12
285
    12
286
    12
287
     5
288
     0
  0
ENDTAB
  0
TABLE
  2
BLOCK_RECORD
  5
1B0
100
AcDbSymbolTable
 70
     3
  0
BLOCK_RECORD
  5
1C6
100
AcDbSymbolTableRecord
100
AcDbBlockTableRecord
  2
*MODEL_SPACE
  0
BLOCK_RECORD
  5
1C3
100
AcDbSymbolTableRecord
100
AcDbBlockTableRecord
  2
*PAPER_SPACE
  0
BLOCK_RECORD
  5
1CB
100
AcDbSymbolTableRecord
100
AcDbBlockTableRecord
  2
AVE_RENDER
  0
BLOCK_RECORD
  5
1CC
100
AcDbSymbolTableRecord
100
AcDbBlockTableRecord
  2
AVE_GLOBAL
  0
BLOCK_RECORD
  5
1CD
100
AcDbSymbolTableRecord
100
AcDbBlockTableRecord
  2
SCH_ISO
  0
ENDTAB
  0
ENDSEC
  0
SECTION
  2
BLOCKS
  0
BLOCK
  5
204
100
AcDbEntity
  8
0
100
AcDbBlockBegin
  2
*MODEL_SPACE
 70
     0
 10
0.0
 20
0.0
 30
0.0
  3
*MODEL_SPACE
  1

  0
ENDBLK
  5
205
100
AcDbEntity
  8
0
100
AcDbBlockEnd
  0
BLOCK
  5
202
100
AcDbEntity
 67
     1
  8
0
100
AcDbBlockBegin
  2
*PAPER_SPACE
 70
     0
 10
0.0
 20
0.0
 30
0.0
  3
*PAPER_SPACE
  1

  0
ENDBLK
  5
203
100
AcDbEntity
 67
     1
  8
0
100
AcDbBlockEnd
  0
BLOCK
  5
8
100
AcDbEntity
  8
0
100
AcDbBlockBegin
  2
AVE_RENDER
 70
     0
 10
0.0
 20
0.0
 30
0.0
  3
AVE_RENDER
  1
AVE_RENDER
  0
ENDBLK
  5
A
100
AcDbEntity
  8
0
100
AcDbBlockEnd
  0
BLOCK
  5
16
100
AcDbEntity
  8
0
100
AcDbBlockBegin
  2
AVE_GLOBAL
 70
     0
 10
0.0
 20
0.0
 30
0.0
  3
AVE_GLOBAL
  1
AVE_GLOBAL
  0
ENDBLK
  5
17
100
AcDbEntity
  8
0
100
AcDbBlockEnd
  0
BLOCK
  5
1A8
100
AcDbEntity
  8
0
100
AcDbBlockBegin
  2
SCH_ISO
 70
     0
 10
0.0
 20
0.0
 30
0.0
  3
SCH_ISO
  1

  0
INSERT
  5
19F
100
AcDbEntity
  8
ASHADE
 62
     1
100
AcDbBlockReference
  2
AVE_RENDER
 10
0.0
 20
0.0
 30
0.0
1001
AVE_RENDER
1002
{
1070
     6
1000
Pref
1070
    50
1070
    20
1070
     1
1070
     0
1000

1070
    10
1070
     1
1070
    30
1040
25.4
1070
     1
1040
0.3
1040
0.7
1040
0.0
1040
10.0
1010
-1.0
1020
-1.0
1030
-1.0
1040
0.3
1070
    49
1070
     0
1070
     0
1010
1.0
1020
1.0
1030
1.0
1040
45.0
1070
     1
1070
     0
1000
WCS
1040
0.0
1002
}
  0
INSERT
  5
1A0
100
AcDbEntity
  8
ASHADE
 62
     3
100
AcDbBlockReference
  2
AVE_RENDER
 10
0.0
 20
0.0
 30
0.0
1001
AVE_RENDER
1002
{
1070
     0
1000
Full Opt
1070
     0
1070
     1
1070
     1
1070
     1
1070
     0
1070
     0
1070
     0
1070
     1
1070
     1
1040
0.0001
1040
0.0001
1002
}
  0
INSERT
  5
1A1
100
AcDbEntity
  8
ASHADE
 62
     4
100
AcDbBlockReference
  2
AVE_RENDER
 10
0.0
 20
0.0
 30
0.0
1001
AVE_RENDER
1002
{
1070
     0
1000
Quick Opt
1070
     0
1070
     1
1070
     1
1070
     1
1070
     0
1070
     0
1070
     1
1002
}
  0
INSERT
  5
1A2
100
AcDbEntity
  8
ASHADE
 62
     5
100
AcDbBlockReference
  2
AVE_RENDER
 10
0.0
 20
0.0
 30
0.0
1001
AVE_RENDER
1002
{
1070
     1
1000
Scanl Opt
1070
     2
1070
     0
1070
     2
1040
2.0
1040
4.0
1070
     0
1070
     1
1070
     0
1040
0.03
1002
}
  0
INSERT
  5
1A3
100
AcDbEntity
  8
ASHADE
 62
     6
100
AcDbBlockReference
  2
AVE_RENDER
 10
0.0
 20
0.0
 30
0.0
1001
AVE_RENDER
1002
{
1070
     2
1000
Raytr Opt
1070
     2
1070
     0
1070
     2
1040
2.0
1040
4.0
1070
     0
1070
     1
1070
     1
1040
0.03
1070
     3
1040
0.03
1002
}
  0
INSERT
  5
1A4
100
AcDbEntity
  8
ASHADE
 62
     7
100
AcDbBlockReference
  2
AVE_RENDER
 10
0.0
 20
0.0
 30
0.0
1001
AVE_RENDER
1002
{
1070
     0
1000
RFile Opt
1070
     5
1070
   640
1070
   480
1070
 10000
1070
     3
1070
    32
1070
    24
1070
     0
1070
     0
1070
     0
1070
     1
1070
     0
1070
     0
1070
     0
1002
}
  0
INSERT
  5
1A5
100
AcDbEntity
  8
ASHADE
 62
     8
100
AcDbBlockReference
  2
AVE_RENDER
 10
0.0
 20
0.0
 30
0.0
1001
AVE_RENDER
1002
{
1070
     0
1000
Fog Opt
1070
     0
1070
     0
1040
0.0
1040
1.0
1040
0.0
1040
1.0
1010
0.5
1020
0.5
1030
0.5
1002
}
  0
INSERT
  5
1A6
100
AcDbEntity
  8
ASHADE
 62
     9
100
AcDbBlockReference
  2
AVE_RENDER
 10
0.0
 20
0.0
 30
0.0
1001
AVE_RENDER
1002
{
1070
     0
1000
BG Opt
1070
     0
1070
     1
1010
0.0
1020
0.0
1030
0.0
1010
1.0
1020
0.0
1030
0.0
1010
0.0
1020
1.0
1030
0.0
1010
0.0
1020
0.0
1030
1.0
1040
0.5
1040
0.33
1040
0.0
1000

1070
     1
1000

1070
     1
1070
     1
1040
1.0
1040
1.0
1040
0.0
1040
0.0
1070
     0
1002
}
  0
INSERT
  5
1A7
100
AcDbEntity
  8
ASHADE
 62
     1
100
AcDbBlockReference
  2
AVE_GLOBAL
 10
0.0
 20
0.0
 30
0.0
1001
AVE_MATERIAL
1002
{
1000
*GLOBAL*
1000
1
1000
Finition globale.
1002
{
1002
}
1002
{
1070
    63
1002
{
1002
{
1010
-1.0
1020
-1.0
1030
-1.0
1002
}
1040
0.1
1000

1040
0.0
1002
{
1002
}
1040
0.0
1002
{
1002
}
1040
0.0
1002
}
1002
{
1002
{
1010
-1.0
1020
-1.0
1030
-1.0
1002
}
1040
0.7
1000

1040
0.0
1002
{
1002
}
1040
0.0
1002
{
1002
}
1040
0.0
1002
}
1002
{
1002
{
1010
-1.0
1020
-1.0
1030
-1.0
1002
}
1040
0.2
1000

1040
0.0
1002
{
1002
}
1040
0.0
1002
{
1002
}
1040
0.0
1002
}
1002
{
1070
     0
1002
{
1070
     1
1002
{
1040
1.0
1040
1.0
1000

1040
0.0
1002
{
1002
}
1040
0.0
1002
{
1002
}
1040
0.0
1002
}
1002
}
1040
1.0
1040
0.0
1040
0.0
1002
}
1002
{
1040
1.0
1040
1.0
1000

1040
0.0
1002
{
1002
}
1040
0.0
1002
{
1002
}
1040
0.0
1002
}
1002
{
1040
0.5
1040
1.0
1000

1040
0.0
1002
{
1002
}
1040
0.0
1002
{
1002
}
1040
0.0
1002
}
1002
{
1070
     0
1040
0.0
1002
{
1002
}
1040
1.0
1002
{
1002
}
1040
0.0
1002
}
1002
{
1040
0.0
1002
{
1002
{
1010
0.0
1020
0.0
1030
0.0
1002
}
1040
1.0
1000

1040
0.0
1002
{
1002
}
1040
0.0
1002
{
1002
}
1040
0.0
1002
}
1002
}
1002
{
1002
{
1070
     1
1002
{
1040
0.0
1040
1.0
1000

1040
0.0
1002
{
1002
}
1040
0.0
1002
{
1002
}
1040
0.0
1002
}
1002
}
1040
0.0
1002
{
1002
}
1010
1.0
1020
0.0
1030
0.0
1010
0.0
1020
1.0
1030
0.0
1010
0.0
1020
0.0
1030
1.0
1070
     0
1002
}
1002
{
1002
{
1040
1.0
1040
1.0
1002
{
1070
     1
1002
{
1040
1.0
1040
1.0
1000

1040
0.0
1002
{
1002
}
1040
0.0
1002
{
1002
}
1040
0.0
1002
}
1002
}
1002
}
1070
     0
1040
0.0
1002
{
1002
}
1002
}
1002
{
1002
}
1002
}
1002
{
1071
        3
1070
     3
1070
     0
1002
{
1070
     2
1070
     0
1070
     0
1040
0.0
1002
}
1070
     0
1070
     2
1002
{
1002
}
1002
}
1002
{
1040
8030.0
1040
190.300003
1040
0.305
1040
228.0
1040
545.0
1040
14.0
1040
17.4
1040
0.456
1002
}
1002
}
  0
ENDBLK
  5
1A9
100
AcDbEntity
  8
0
100
AcDbBlockEnd
  0
ENDSEC
  0
SECTION
  2
ENTITIES
  0
INSERT
  5
3
100
AcDbEntity
  8
ALPHA
100
AcDbBlockReference
  2
AVE_RENDER
 10
0.0
 20
0.0
 30
0.0
1001
AVE_RENDER
1002
{
1070
     6
1000
Pref
1070
    50
1070
    20
1070
     1
1070
     0
1000

1070
    10
1070
     1
1070
    30
1040
25.4
1070
     1
1040
0.3
1040
0.7
1040
0.0
1040
10.0
1010
-1.0
1020
-1.0
1030
-1.0
1040
0.3
1070
    49
1070
     0
1070
     0
1010
1.0
1020
1.0
1030
1.0
1040
45.0
1070
     1
1070
     0
1000
WCS
1040
0.0
1002
}
  0
INSERT
  5
D
100
AcDbEntity
  8
ALPHA
100
AcDbBlockReference
  2
AVE_RENDER
 10
0.0
 20
0.0
 30
0.0
1001
AVE_RENDER
1002
{
1070
     0
1000
Full Opt
1070
     0
1070
     1
1070
     1
1070
     1
1070
     0
1070
     0
1070
     0
1070
     1
1070
     1
1040
0.0001
1040
0.0001
1002
}
  0
INSERT
  5
E
100
AcDbEntity
  8
ALPHA
100
AcDbBlockReference
  2
AVE_RENDER
 10
0.0
 20
0.0
 30
0.0
1001
AVE_RENDER
1002
{
1070
     0
1000
Quick Opt
1070
     0
1070
     1
1070
     1
1070
     1
1070
     0
1070
     0
1070
     1
1002
}
  0
INSERT
  5
F
100
AcDbEntity
  8
ALPHA
100
AcDbBlockReference
  2
AVE_RENDER
 10
0.0
 20
0.0
 30
0.0
1001
AVE_RENDER
1002
{
1070
     1
1000
Scanl Opt
1070
     2
1070
     0
1070
     2
1040
2.0
1040
4.0
1070
     0
1070
     1
1070
     0
1040
0.03
1002
}
  0
INSERT
  5
10
100
AcDbEntity
  8
ALPHA
100
AcDbBlockReference
  2
AVE_RENDER
 10
0.0
 20
0.0
 30
0.0
1001
AVE_RENDER
1002
{
1070
     2
1000
Raytr Opt
1070
     2
1070
     0
1070
     2
1040
2.0
1040
4.0
1070
     0
1070
     1
1070
     1
1040
0.03
1070
     3
1040
0.03
1002
}
  0
INSERT
  5
11
100
AcDbEntity
  8
ALPHA
100
AcDbBlockReference
  2
AVE_RENDER
 10
0.0
 20
0.0
 30
0.0
1001
AVE_RENDER
1002
{
1070
     0
1000
RFile Opt
1070
     5
1070
   640
1070
   480
1070
 10000
1070
     3
1070
    32
1070
    24
1070
     0
1070
     0
1070
     0
1070
     1
1070
     0
1070
     0
1070
     0
1002
}
  0
INSERT
  5
12
100
AcDbEntity
  8
ALPHA
100
AcDbBlockReference
  2
AVE_RENDER
 10
0.0
 20
0.0
 30
0.0
1001
AVE_RENDER
1002
{
1070
     0
1000
Fog Opt
1070
     0
1070
     0
1040
0.0
1040
1.0
1040
0.0
1040
1.0
1010
0.5
1020
0.5
1030
0.5
1002
}
  0
INSERT
  5
13
100
AcDbEntity
  8
ALPHA
100
AcDbBlockReference
  2
AVE_RENDER
 10
0.0
 20
0.0
 30
0.0
1001
AVE_RENDER
1002
{
1070
     0
1000
BG Opt
1070
     0
1070
     1
1010
0.0
1020
0.0
1030
0.0
1010
1.0
1020
0.0
1030
0.0
1010
0.0
1020
1.0
1030
0.0
1010
0.0
1020
0.0
1030
1.0
1040
0.5
1040
0.33
1040
0.0
1000

1070
     1
1000

1070
     1
1070
     1
1040
1.0
1040
1.0
1040
0.0
1040
0.0
1070
     0
1002
}
  0
INSERT
  5
14
100
AcDbEntity
  8
ALPHA
100
AcDbBlockReference
  2
AVE_GLOBAL
 10
0.0
 20
0.0
 30
0.0
1001
AVE_MATERIAL
1002
{
1000
*GLOBAL*
1000
1
1000
Finition globale.
1002
{
1002
}
1002
{
1070
    63
1002
{
1002
{
1010
-1.0
1020
-1.0
1030
-1.0
1002
}
1040
0.1
1000

1040
0.0
1002
{
1002
}
1040
0.0
1002
{
1002
}
1040
0.0
1002
}
1002
{
1002
{
1010
-1.0
1020
-1.0
1030
-1.0
1002
}
1040
0.7
1000

1040
0.0
1002
{
1002
}
1040
0.0
1002
{
1002
}
1040
0.0
1002
}
1002
{
1002
{
1010
-1.0
1020
-1.0
1030
-1.0
1002
}
1040
0.2
1000

1040
0.0
1002
{
1002
}
1040
0.0
1002
{
1002
}
1040
0.0
1002
}
1002
{
1070
     0
1002
{
1070
     1
1002
{
1040
1.0
1040
1.0
1000

1040
0.0
1002
{
1002
}
1040
0.0
1002
{
1002
}
1040
0.0
1002
}
1002
}
1040
1.0
1040
0.0
1040
0.0
1002
}
1002
{
1040
1.0
1040
1.0
1000

1040
0.0
1002
{
1002
}
1040
0.0
1002
{
1002
}
1040
0.0
1002
}
1002
{
1040
0.5
1040
1.0
1000

1040
0.0
1002
{
1002
}
1040
0.0
1002
{
1002
}
1040
0.0
1002
}
1002
{
1070
     0
1040
0.0
1002
{
1002
}
1040
1.0
1002
{
1002
}
1040
0.0
1002
}
1002
{
1040
0.0
1002
{
1002
{
1010
0.0
1020
0.0
1030
0.0
1002
}
1040
1.0
1000

1040
0.0
1002
{
1002
}
1040
0.0
1002
{
1002
}
1040
0.0
1002
}
1002
}
1002
{
1002
{
1070
     1
1002
{
1040
0.0
1040
1.0
1000

1040
0.0
1002
{
1002
}
1040
0.0
1002
{
1002
}
1040
0.0
1002
}
1002
}
1040
0.0
1002
{
1002
}
1010
1.0
1020
0.0
1030
0.0
1010
0.0
1020
1.0
1030
0.0
1010
0.0
1020
0.0
1030
1.0
1070
     0
1002
}
1002
{
1002
{
1040
1.0
1040
1.0
1002
{
1070
     1
1002
{
1040
1.0
1040
1.0
1000

1040
0.0
1002
{
1002
}
1040
0.0
1002
{
1002
}
1040
0.0
1002
}
1002
}
1002
}
1070
     0
1040
0.0
1002
{
1002
}
1002
}
1002
{
1002
}
1002
}
1002
{
1071
        3
1070
     3
1070
     0
1002
{
1070
     2
1070
     0
1070
     0
1040
0.0
1002
}
1070
     0
1070
     2
1002
{
1002
}
1002
}
1002
{
1040
8030.0
1040
190.300003
1040
0.305
1040
228.0
1040
545.0
1040
14.0
1040
17.4
1040
0.456
1002
}
1002
}
  0
ARC
  5
19
100
AcDbEntity
  8
ALPHA
100
AcDbCircle
 10
95.279912
 20
164.830915
 30
0.0
 40
13.520408
100
AcDbArc
 50
278.318779
 51
84.695268
  0
ARC
  5
1A
100
AcDbEntity
  8
ALPHA
100
AcDbCircle
 10
95.279912
 20
164.830915
 30
0.0
 40
13.520408
100
AcDbArc
 50
95.304732
 51
278.318779
  0
LINE
  5
1B
100
AcDbEntity
  8
ALPHA
100
AcDbLine
 10
94.072178
 20
164.940164
 30
0.0
 11
94.079912
 21
164.92149
 31
0.0
  0
LINE
  5
1C
100
AcDbEntity
  8
ALPHA
100
AcDbLine
 10
94.029912
 20
165.261264
 30
0.0
 11
94.072178
 21
164.940164
 31
0.0
  0
LINE
  5
1D
100
AcDbEntity
  8
ALPHA
100
AcDbLine
 10
94.079912
 20
169.49287
 30
0.0
 11
94.029912
 21
169.49287
 31
0.0
  0
LINE
  5
1E
100
AcDbEntity
  8
ALPHA
100
AcDbLine
 10
96.529912
 20
169.49287
 30
0.0
 11
96.479912
 21
169.49287
 31
0.0
  0
LINE
  5
1F
100
AcDbEntity
  8
ALPHA
100
AcDbLine
 10
96.479912
 20
170.080915
 30
0.0
 11
96.529912
 21
170.080915
 31
0.0
  0
LINE
  5
20
100
AcDbEntity
  8
ALPHA
100
AcDbLine
 10
94.029912
 20
170.080915
 30
0.0
 11
94.079912
 21
170.080915
 31
0.0
  0
LINE
  5
21
100
AcDbEntity
  8
ALPHA
100
AcDbLine
 10
96.487645
 20
164.940164
 30
0.0
 11
96.529912
 21
165.261264
 31
0.0
  0
LINE
  5
22
100
AcDbEntity
  8
ALPHA
100
AcDbLine
 10
96.479912
 20
164.92149
 30
0.0
 11
96.487645
 21
164.940164
 31
0.0
  0
LINE
  5
23
100
AcDbEntity
  8
ALPHA
100
AcDbLine
 10
96.479912
 20
174.330915
 30
0.0
 11
96.529912
 21
174.330915
 31
0.0
  0
LINE
  5
24
100
AcDbEntity
  8
ALPHA
100
AcDbLine
 10
94.029912
 20
174.330915
 30
0.0
 11
94.079912
 21
174.330915
 31
0.0
  0
LINE
  5
25
100
AcDbEntity
  8
ALPHA
100
AcDbLine
 10
96.479912
 20
174.651864
 30
0.0
 11
96.529912
 21
174.651864
 31
0.0
  0
LINE
  5
26
100
AcDbEntity
  8
ALPHA
100
AcDbLine
 10
94.029912
 20
174.651864
 30
0.0
 11
94.079912
 21
174.651864
 31
0.0
  0
LINE
  5
27
100
AcDbEntity
  8
ALPHA
100
AcDbLine
 10
94.029912
 20
174.837784
 30
0.0
 11
94.079912
 21
174.84564
 31
0.0
  0
LINE
  5
28
100
AcDbEntity
  8
ALPHA
100
AcDbLine
 10
96.479912
 20
174.84564
 30
0.0
 11
96.529912
 21
174.837784
 31
0.0
  0
LINE
  5
29
100
AcDbEntity
  8
ALPHA
100
AcDbLine
 10
96.479912
 20
169.780915
 30
0.0
 11
96.529912
 21
169.780915
 31
0.0
  0
LINE
  5
2A
100
AcDbEntity
  8
ALPHA
100
AcDbLine
 10
94.029912
 20
169.780915
 30
0.0
 11
94.079912
 21
169.780915
 31
0.0
  0
LINE
  5
2B
100
AcDbEntity
  8
ALPHA
100
AcDbLine
 10
94.029912
 20
170.739009
 30
0.0
 11
94.079912
 21
170.695288
 31
0.0
  0
LINE
  5
2C
100
AcDbEntity
  8
ALPHA
100
AcDbLine
 10
96.529912
 20
170.739009
 30
0.0
 11
96.479912
 21
170.695288
 31
0.0
  0
LINE
  5
2D
100
AcDbEntity
  8
ALPHA
100
AcDbLine
 10
96.479912
 20
174.230915
 30
0.0
 11
96.529912
 21
174.230915
 31
0.0
  0
LINE
  5
2E
100
AcDbEntity
  8
ALPHA
100
AcDbLine
 10
94.029912
 20
174.230915
 30
0.0
 11
94.079912
 21
174.230915
 31
0.0
  0
ARC
  5
2F
100
AcDbEntity
  8
ALPHA
100
AcDbCircle
 10
95.269912
 20
164.820915
 30
0.0
 40
1.24
100
AcDbArc
 50
180.0
 51
270.0
  0
ARC
  5
30
100
AcDbEntity
  8
ALPHA
100
AcDbCircle
 10
95.289912
 20
164.820915
 30
0.0
 40
1.24
100
AcDbArc
 50
270.0
 51
0.0
  0
ARC
  5
31
100
AcDbEntity
  8
ALPHA
100
AcDbCircle
 10
95.279912
 20
164.830915
 30
0.0
 40
14.25
100
AcDbArc
 50
120.133501
 51
126.545039
  0
ARC
  5
32
100
AcDbEntity
  8
ALPHA
100
AcDbCircle
 10
95.279912
 20
164.830915
 30
0.0
 40
14.25
100
AcDbArc
 50
119.495851
 51
120.133501
  0
ARC
  5
33
100
AcDbEntity
  8
ALPHA
100
AcDbCircle
 10
95.279912
 20
164.830915
 30
0.0
 40
14.25
100
AcDbArc
 50
112.595312
 51
119.495851
  0
ARC
  5
34
100
AcDbEntity
  8
ALPHA
100
AcDbCircle
 10
95.279912
 20
164.830915
 30
0.0
 40
14.25
100
AcDbArc
 50
110.296972
 51
112.595312
  0
ARC
  5
35
100
AcDbEntity
  8
ALPHA
100
AcDbCircle
 10
95.279912
 20
164.830915
 30
0.0
 40
14.25
100
AcDbArc
 50
104.790145
 51
110.296972
  0
ARC
  5
36
100
AcDbEntity
  8
ALPHA
100
AcDbCircle
 10
95.279912
 20
164.830915
 30
0.0
 40
14.25
100
AcDbArc
 50
102.542601
 51
104.790145
  0
ARC
  5
37
100
AcDbEntity
  8
ALPHA
100
AcDbCircle
 10
95.279912
 20
164.830915
 30
0.0
 40
14.25
100
AcDbArc
 50
95.032413
 51
102.542601
  0
ARC
  5
38
100
AcDbEntity
  8
ALPHA
100
AcDbCircle
 10
86.32028
 20
175.911868
 30
0.0
 40
0.6
100
AcDbArc
 50
220.163988
 51
37.751356
  0
ARC
  5
39
100
AcDbEntity
  8
ALPHA
100
AcDbCircle
 10
95.279912
 20
164.830915
 30
0.0
 40
14.25
100
AcDbArc
 50
136.102174
 51
138.629696
  0
ARC
  5
3A
100
AcDbEntity
  8
ALPHA
100
AcDbCircle
 10
95.279912
 20
164.830915
 30
0.0
 40
14.25
100
AcDbArc
 50
131.370304
 51
136.102174
  0
ARC
  5
3B
100
AcDbEntity
  8
ALPHA
100
AcDbCircle
 10
84.19896
 20
173.790547
 30
0.0
 40
0.6
100
AcDbArc
 50
232.248644
 51
49.836012
  0
ARC
  5
3C
100
AcDbEntity
  8
ALPHA
100
AcDbCircle
 10
95.279912
 20
164.830915
 30
0.0
 40
14.25
100
AcDbArc
 50
168.09392
 51
171.545039
  0
ARC
  5
3D
100
AcDbEntity
  8
ALPHA
100
AcDbCircle
 10
95.279912
 20
164.830915
 30
0.0
 40
14.25
100
AcDbArc
 50
162.915047
 51
168.09392
  0
ARC
  5
3E
100
AcDbEntity
  8
ALPHA
100
AcDbCircle
 10
95.279912
 20
164.830915
 30
0.0
 40
14.25
100
AcDbArc
 50
159.983981
 51
162.915047
  0
ARC
  5
3F
100
AcDbEntity
  8
ALPHA
100
AcDbCircle
 10
95.279912
 20
164.830915
 30
0.0
 40
14.25
100
AcDbArc
 50
155.045364
 51
159.983981
  0
ARC
  5
40
100
AcDbEntity
  8
ALPHA
100
AcDbCircle
 10
95.279912
 20
164.830915
 30
0.0
 40
14.25
100
AcDbArc
 50
152.110293
 51
155.045364
  0
ARC
  5
41
100
AcDbEntity
  8
ALPHA
100
AcDbCircle
 10
95.279912
 20
164.830915
 30
0.0
 40
14.25
100
AcDbArc
 50
146.948543
 51
152.110293
  0
ARC
  5
42
100
AcDbEntity
  8
ALPHA
100
AcDbCircle
 10
95.279912
 20
164.830915
 30
0.0
 40
14.25
100
AcDbArc
 50
143.454961
 51
146.948543
  0
ARC
  5
43
100
AcDbEntity
  8
ALPHA
100
AcDbCircle
 10
81.109079
 20
166.330915
 30
0.0
 40
0.6
100
AcDbArc
 50
265.163988
 51
82.751356
  0
ARC
  5
44
100
AcDbEntity
  8
ALPHA
100
AcDbCircle
 10
95.279912
 20
164.830915
 30
0.0
 40
14.25
100
AcDbArc
 50
179.999699
 51
183.629696
  0
ARC
  5
45
100
AcDbEntity
  8
ALPHA
100
AcDbCircle
 10
95.279912
 20
164.830915
 30
0.0
 40
14.25
100
AcDbArc
 50
178.422146
 51
179.999699
  0
ARC
  5
46
100
AcDbEntity
  8
ALPHA
100
AcDbCircle
 10
95.279912
 20
164.830915
 30
0.0
 40
14.25
100
AcDbArc
 50
178.271655
 51
178.422146
  0
ARC
  5
47
100
AcDbEntity
  8
ALPHA
100
AcDbCircle
 10
95.279912
 20
164.830915
 30
0.0
 40
14.25
100
AcDbArc
 50
176.370304
 51
178.271655
  0
ARC
  5
48
100
AcDbEntity
  8
ALPHA
100
AcDbCircle
 10
81.109079
 20
163.330915
 30
0.0
 40
0.6
100
AcDbArc
 50
277.248644
 51
94.836012
  0
ARC
  5
49
100
AcDbEntity
  8
ALPHA
100
AcDbCircle
 10
95.279912
 20
164.830915
 30
0.0
 40
14.25
100
AcDbArc
 50
210.725758
 51
216.545039
  0
ARC
  5
4A
100
AcDbEntity
  8
ALPHA
100
AcDbCircle
 10
95.279912
 20
164.830915
 30
0.0
 40
14.25
100
AcDbArc
 50
205.087401
 51
210.725758
  0
ARC
  5
4B
100
AcDbEntity
  8
ALPHA
100
AcDbCircle
 10
95.279912
 20
164.830915
 30
0.0
 40
14.25
100
AcDbArc
 50
202.962304
 51
205.087401
  0
ARC
  5
4C
100
AcDbEntity
  8
ALPHA
100
AcDbCircle
 10
95.279912
 20
164.830915
 30
0.0
 40
14.25
100
AcDbArc
 50
195.225278
 51
202.962304
  0
ARC
  5
4D
100
AcDbEntity
  8
ALPHA
100
AcDbCircle
 10
95.279912
 20
164.830915
 30
0.0
 40
14.25
100
AcDbArc
 50
188.454961
 51
195.225278
  0
ARC
  5
4E
100
AcDbEntity
  8
ALPHA
100
AcDbCircle
 10
84.19896
 20
155.871284
 30
0.0
 40
0.6
100
AcDbArc
 50
310.163988
 51
127.751356
  0
LINE
  5
4F
100
AcDbEntity
  8
ALPHA
100
AcDbLine
 10
84.585946
 20
155.412763
 30
0.0
 11
85.861759
 21
154.13695
 31
0.0
  0
ARC
  5
50
100
AcDbEntity
  8
ALPHA
100
AcDbCircle
 10
86.32028
 20
153.749963
 30
0.0
 40
0.6
100
AcDbArc
 50
322.248644
 51
139.836012
  0
ARC
  5
51
100
AcDbEntity
  8
ALPHA
100
AcDbCircle
 10
95.279912
 20
164.830915
 30
0.0
 40
14.25
100
AcDbArc
 50
253.876118
 51
261.545039
  0
ARC
  5
52
100
AcDbEntity
  8
ALPHA
100
AcDbCircle
 10
95.279912
 20
164.830915
 30
0.0
 40
14.25
100
AcDbArc
 50
251.454902
 51
253.876118
  0
ARC
  5
53
100
AcDbEntity
  8
ALPHA
100
AcDbCircle
 10
95.279912
 20
164.830915
 30
0.0
 40
14.25
100
AcDbArc
 50
246.09677
 51
251.454902
  0
ARC
  5
54
100
AcDbEntity
  8
ALPHA
100
AcDbCircle
 10
95.279912
 20
164.830915
 30
0.0
 40
14.25
100
AcDbArc
 50
243.209596
 51
246.09677
  0
ARC
  5
55
100
AcDbEntity
  8
ALPHA
100
AcDbCircle
 10
95.279912
 20
164.830915
 30
0.0
 40
14.25
100
AcDbArc
 50
238.25568
 51
243.209596
  0
ARC
  5
56
100
AcDbEntity
  8
ALPHA
100
AcDbCircle
 10
95.279912
 20
164.830915
 30
0.0
 40
14.25
100
AcDbArc
 50
233.454961
 51
238.25568
  0
ARC
  5
57
100
AcDbEntity
  8
ALPHA
100
AcDbCircle
 10
95.279912
 20
164.830915
 30
0.0
 40
14.25
100
AcDbArc
 50
77.454088
 51
84.967587
  0
ARC
  5
58
100
AcDbEntity
  8
ALPHA
100
AcDbCircle
 10
95.279912
 20
164.830915
 30
0.0
 40
14.25
100
AcDbArc
 50
75.212898
 51
77.454088
  0
ARC
  5
59
100
AcDbEntity
  8
ALPHA
100
AcDbCircle
 10
95.279912
 20
164.830915
 30
0.0
 40
14.25
100
AcDbArc
 50
69.69982
 51
75.212898
  0
ARC
  5
5A
100
AcDbEntity
  8
ALPHA
100
AcDbCircle
 10
95.279912
 20
164.830915
 30
0.0
 40
14.25
100
AcDbArc
 50
67.408129
 51
69.69982
  0
ARC
  5
5B
100
AcDbEntity
  8
ALPHA
100
AcDbCircle
 10
95.279912
 20
164.830915
 30
0.0
 40
14.25
100
AcDbArc
 50
60.503631
 51
67.408129
  0
ARC
  5
5C
100
AcDbEntity
  8
ALPHA
100
AcDbCircle
 10
95.279912
 20
164.830915
 30
0.0
 40
14.25
100
AcDbArc
 50
59.866925
 51
60.503631
  0
ARC
  5
5D
100
AcDbEntity
  8
ALPHA
100
AcDbCircle
 10
95.279912
 20
164.830915
 30
0.0
 40
14.25
100
AcDbArc
 50
53.454961
 51
59.866925
  0
ARC
  5
5E
100
AcDbEntity
  8
ALPHA
100
AcDbCircle
 10
93.779912
 20
150.660083
 30
0.0
 40
0.6
100
AcDbArc
 50
355.163988
 51
172.751356
  0
LINE
  5
5F
100
AcDbEntity
  8
ALPHA
100
AcDbLine
 10
94.029912
 20
178.293417
 30
0.0
 11
94.029912
 21
179.025985
 31
0.0
  0
ARC
  5
60
100
AcDbEntity
  8
ALPHA
100
AcDbCircle
 10
95.279912
 20
164.830915
 30
0.0
 40
14.25
100
AcDbArc
 50
120.133075
 51
126.545039
  0
ARC
  5
61
100
AcDbEntity
  8
ALPHA
100
AcDbCircle
 10
95.279912
 20
164.830915
 30
0.0
 40
14.25
100
AcDbArc
 50
119.496369
 51
120.133075
  0
ARC
  5
62
100
AcDbEntity
  8
ALPHA
100
AcDbCircle
 10
95.279912
 20
164.830915
 30
0.0
 40
14.25
100
AcDbArc
 50
112.591871
 51
119.496369
  0
ARC
  5
63
100
AcDbEntity
  8
ALPHA
100
AcDbCircle
 10
95.279912
 20
164.830915
 30
0.0
 40
14.25
100
AcDbArc
 50
110.30018
 51
112.591871
  0
ARC
  5
64
100
AcDbEntity
  8
ALPHA
100
AcDbCircle
 10
95.279912
 20
164.830915
 30
0.0
 40
14.25
100
AcDbArc
 50
104.787102
 51
110.30018
  0
ARC
  5
65
100
AcDbEntity
  8
ALPHA
100
AcDbCircle
 10
95.279912
 20
164.830915
 30
0.0
 40
14.25
100
AcDbArc
 50
102.545912
 51
104.787102
  0
ARC
  5
66
100
AcDbEntity
  8
ALPHA
100
AcDbCircle
 10
95.279912
 20
164.830915
 30
0.0
 40
14.25
100
AcDbArc
 50
95.032413
 51
102.545912
  0
ARC
  5
67
100
AcDbEntity
  8
ALPHA
100
AcDbCircle
 10
95.279912
 20
164.830915
 30
0.0
 40
14.25
100
AcDbArc
 50
136.102962
 51
138.629696
  0
ARC
  5
68
100
AcDbEntity
  8
ALPHA
100
AcDbCircle
 10
95.279912
 20
164.830915
 30
0.0
 40
14.25
100
AcDbArc
 50
131.370304
 51
136.102962
  0
ARC
  5
69
100
AcDbEntity
  8
ALPHA
100
AcDbCircle
 10
95.279912
 20
164.830915
 30
0.0
 40
14.25
100
AcDbArc
 50
168.096651
 51
171.545039
  0
ARC
  5
6A
100
AcDbEntity
  8
ALPHA
100
AcDbCircle
 10
95.279912
 20
164.830915
 30
0.0
 40
14.25
100
AcDbArc
 50
162.910759
 51
168.096651
  0
ARC
  5
6B
100
AcDbEntity
  8
ALPHA
100
AcDbCircle
 10
95.279912
 20
164.830915
 30
0.0
 40
14.25
100
AcDbArc
 50
159.98798
 51
162.910759
  0
ARC
  5
6C
100
AcDbEntity
  8
ALPHA
100
AcDbCircle
 10
95.279912
 20
164.830915
 30
0.0
 40
14.25
100
AcDbArc
 50
155.041338
 51
159.98798
  0
ARC
  5
6D
100
AcDbEntity
  8
ALPHA
100
AcDbCircle
 10
95.279912
 20
164.830915
 30
0.0
 40
14.25
100
AcDbArc
 50
152.11459
 51
155.041338
  0
ARC
  5
6E
100
AcDbEntity
  8
ALPHA
100
AcDbCircle
 10
95.279912
 20
164.830915
 30
0.0
 40
14.25
100
AcDbArc
 50
146.945759
 51
152.11459
  0
ARC
  5
6F
100
AcDbEntity
  8
ALPHA
100
AcDbCircle
 10
95.279912
 20
164.830915
 30
0.0
 40
14.25
100
AcDbArc
 50
143.454961
 51
146.945759
  0
ARC
  5
70
100
AcDbEntity
  8
ALPHA
100
AcDbCircle
 10
95.279912
 20
164.830915
 30
0.0
 40
14.25
100
AcDbArc
 50
178.422074
 51
180.0
  0
ARC
  5
71
100
AcDbEntity
  8
ALPHA
100
AcDbCircle
 10
95.279912
 20
164.830915
 30
0.0
 40
14.25
100
AcDbArc
 50
178.271682
 51
178.422074
  0
ARC
  5
72
100
AcDbEntity
  8
ALPHA
100
AcDbCircle
 10
95.279912
 20
164.830915
 30
0.0
 40
14.25
100
AcDbArc
 50
176.370304
 51
178.271682
  0
ARC
  5
73
100
AcDbEntity
  8
ALPHA
100
AcDbCircle
 10
95.279912
 20
164.830915
 30
0.0
 40
14.25
100
AcDbArc
 50
180.0
 51
183.629696
  0
ARC
  5
74
100
AcDbEntity
  8
ALPHA
100
AcDbCircle
 10
95.279912
 20
164.830915
 30
0.0
 40
14.25
100
AcDbArc
 50
188.454961
 51
195.224022
  0
ARC
  5
75
100
AcDbEntity
  8
ALPHA
100
AcDbCircle
 10
95.279912
 20
164.830915
 30
0.0
 40
14.25
100
AcDbArc
 50
195.224022
 51
202.964416
  0
ARC
  5
76
100
AcDbEntity
  8
ALPHA
100
AcDbCircle
 10
95.279912
 20
164.830915
 30
0.0
 40
14.25
100
AcDbArc
 50
202.964416
 51
205.085652
  0
ARC
  5
77
100
AcDbEntity
  8
ALPHA
100
AcDbCircle
 10
95.279912
 20
164.830915
 30
0.0
 40
14.25
100
AcDbArc
 50
205.085652
 51
210.729694
  0
ARC
  5
78
100
AcDbEntity
  8
ALPHA
100
AcDbCircle
 10
95.279912
 20
164.830915
 30
0.0
 40
14.25
100
AcDbArc
 50
210.729694
 51
216.545039
  0
ARC
  5
79
100
AcDbEntity
  8
ALPHA
100
AcDbCircle
 10
95.279912
 20
164.830915
 30
0.0
 40
14.25
100
AcDbArc
 50
221.370304
 51
228.629696
  0
ARC
  5
7A
100
AcDbEntity
  8
ALPHA
100
AcDbCircle
 10
95.279912
 20
164.830915
 30
0.0
 40
14.25
100
AcDbArc
 50
233.454961
 51
238.251481
  0
ARC
  5
7B
100
AcDbEntity
  8
ALPHA
100
AcDbCircle
 10
95.279912
 20
164.830915
 30
0.0
 40
14.25
100
AcDbArc
 50
238.251481
 51
243.213348
  0
ARC
  5
7C
100
AcDbEntity
  8
ALPHA
100
AcDbCircle
 10
95.279912
 20
164.830915
 30
0.0
 40
14.25
100
AcDbArc
 50
243.213348
 51
246.092612
  0
ARC
  5
7D
100
AcDbEntity
  8
ALPHA
100
AcDbCircle
 10
95.279912
 20
164.830915
 30
0.0
 40
14.25
100
AcDbArc
 50
246.092612
 51
251.457171
  0
ARC
  5
7E
100
AcDbEntity
  8
ALPHA
100
AcDbCircle
 10
95.279912
 20
164.830915
 30
0.0
 40
14.25
100
AcDbArc
 50
251.457171
 51
253.873418
  0
ARC
  5
7F
100
AcDbEntity
  8
ALPHA
100
AcDbCircle
 10
95.279912
 20
164.830915
 30
0.0
 40
14.25
100
AcDbArc
 50
253.873418
 51
261.545039
  0
ARC
  5
80
100
AcDbEntity
  8
ALPHA
100
AcDbCircle
 10
95.279912
 20
164.830915
 30
0.0
 40
14.25
100
AcDbArc
 50
266.370304
 51
270.0
  0
ARC
  5
81
100
AcDbEntity
  8
ALPHA
100
AcDbCircle
 10
95.279912
 20
164.830915
 30
0.0
 40
14.25
100
AcDbArc
 50
270.0
 51
273.629696
  0
ARC
  5
82
100
AcDbEntity
  8
ALPHA
100
AcDbCircle
 10
95.279912
 20
164.830915
 30
0.0
 40
14.25
100
AcDbArc
 50
278.454961
 51
286.126582
  0
ARC
  5
83
100
AcDbEntity
  8
ALPHA
100
AcDbCircle
 10
95.279912
 20
164.830915
 30
0.0
 40
14.25
100
AcDbArc
 50
286.126582
 51
288.542829
  0
ARC
  5
84
100
AcDbEntity
  8
ALPHA
100
AcDbCircle
 10
95.279912
 20
164.830915
 30
0.0
 40
14.25
100
AcDbArc
 50
288.542829
 51
293.907388
  0
ARC
  5
85
100
AcDbEntity
  8
ALPHA
100
AcDbCircle
 10
95.279912
 20
164.830915
 30
0.0
 40
14.25
100
AcDbArc
 50
293.907388
 51
296.786652
  0
ARC
  5
86
100
AcDbEntity
  8
ALPHA
100
AcDbCircle
 10
95.279912
 20
164.830915
 30
0.0
 40
14.25
100
AcDbArc
 50
296.786652
 51
301.748519
  0
ARC
  5
87
100
AcDbEntity
  8
ALPHA
100
AcDbCircle
 10
95.279912
 20
164.830915
 30
0.0
 40
14.25
100
AcDbArc
 50
301.748519
 51
306.545039
  0
ARC
  5
88
100
AcDbEntity
  8
ALPHA
100
AcDbCircle
 10
95.279912
 20
164.830915
 30
0.0
 40
14.25
100
AcDbArc
 50
311.370304
 51
318.629696
  0
ARC
  5
89
100
AcDbEntity
  8
ALPHA
100
AcDbCircle
 10
95.279912
 20
164.830915
 30
0.0
 40
14.25
100
AcDbArc
 50
323.454961
 51
329.270306
  0
ARC
  5
8A
100
AcDbEntity
  8
ALPHA
100
AcDbCircle
 10
95.279912
 20
164.830915
 30
0.0
 40
14.25
100
AcDbArc
 50
329.270306
 51
334.914348
  0
ARC
  5
8B
100
AcDbEntity
  8
ALPHA
100
AcDbCircle
 10
95.279912
 20
164.830915
 30
0.0
 40
14.25
100
AcDbArc
 50
334.914348
 51
337.035584
  0
ARC
  5
8C
100
AcDbEntity
  8
ALPHA
100
AcDbCircle
 10
95.279912
 20
164.830915
 30
0.0
 40
14.25
100
AcDbArc
 50
337.035584
 51
344.775978
  0
ARC
  5
8D
100
AcDbEntity
  8
ALPHA
100
AcDbCircle
 10
95.279912
 20
164.830915
 30
0.0
 40
14.25
100
AcDbArc
 50
344.775978
 51
351.545039
  0
ARC
  5
8E
100
AcDbEntity
  8
ALPHA
100
AcDbCircle
 10
95.279912
 20
164.830915
 30
0.0
 40
14.25
100
AcDbArc
 50
356.370304
 51
0.0
  0
ARC
  5
8F
100
AcDbEntity
  8
ALPHA
100
AcDbCircle
 10
95.279912
 20
164.830915
 30
0.0
 40
14.25
100
AcDbArc
 50
1.728318
 51
3.629696
  0
ARC
  5
90
100
AcDbEntity
  8
ALPHA
100
AcDbCircle
 10
95.279912
 20
164.830915
 30
0.0
 40
14.25
100
AcDbArc
 50
1.577926
 51
1.728318
  0
ARC
  5
91
100
AcDbEntity
  8
ALPHA
100
AcDbCircle
 10
95.279912
 20
164.830915
 30
0.0
 40
14.25
100
AcDbArc
 50
0.0
 51
1.577926
  0
ARC
  5
92
100
AcDbEntity
  8
ALPHA
100
AcDbCircle
 10
95.279912
 20
164.830915
 30
0.0
 40
14.25
100
AcDbArc
 50
33.054241
 51
36.545039
  0
ARC
  5
93
100
AcDbEntity
  8
ALPHA
100
AcDbCircle
 10
95.279912
 20
164.830915
 30
0.0
 40
14.25
100
AcDbArc
 50
27.88541
 51
33.054241
  0
ARC
  5
94
100
AcDbEntity
  8
ALPHA
100
AcDbCircle
 10
95.279912
 20
164.830915
 30
0.0
 40
14.25
100
AcDbArc
 50
24.958662
 51
27.88541
  0
ARC
  5
95
100
AcDbEntity
  8
ALPHA
100
AcDbCircle
 10
95.279912
 20
164.830915
 30
0.0
 40
14.25
100
AcDbArc
 50
20.01202
 51
24.958662
  0
ARC
  5
96
100
AcDbEntity
  8
ALPHA
100
AcDbCircle
 10
95.279912
 20
164.830915
 30
0.0
 40
14.25
100
AcDbArc
 50
17.089241
 51
20.01202
  0
ARC
  5
97
100
AcDbEntity
  8
ALPHA
100
AcDbCircle
 10
95.279912
 20
164.830915
 30
0.0
 40
14.25
100
AcDbArc
 50
11.903349
 51
17.089241
  0
ARC
  5
98
100
AcDbEntity
  8
ALPHA
100
AcDbCircle
 10
95.279912
 20
164.830915
 30
0.0
 40
14.25
100
AcDbArc
 50
8.454961
 51
11.903349
  0
ARC
  5
99
100
AcDbEntity
  8
ALPHA
100
AcDbCircle
 10
95.279912
 20
164.830915
 30
0.0
 40
14.25
100
AcDbArc
 50
43.897038
 51
48.629696
  0
ARC
  5
9A
100
AcDbEntity
  8
ALPHA
100
AcDbCircle
 10
95.279912
 20
164.830915
 30
0.0
 40
14.25
100
AcDbArc
 50
41.370304
 51
43.897038
  0
ARC
  5
9B
100
AcDbEntity
  8
ALPHA
100
AcDbCircle
 10
95.279912
 20
164.830915
 30
0.0
 40
14.25
100
AcDbArc
 50
270.0
 51
273.629696
  0
ARC
  5
9C
100
AcDbEntity
  8
ALPHA
100
AcDbCircle
 10
95.279912
 20
164.830915
 30
0.0
 40
14.25
100
AcDbArc
 50
266.370304
 51
270.0
  0
ARC
  5
9D
100
AcDbEntity
  8
ALPHA
100
AcDbCircle
 10
96.779912
 20
150.660083
 30
0.0
 40
0.6
100
AcDbArc
 50
7.248644
 51
184.836012
  0
ARC
  5
9E
100
AcDbEntity
  8
ALPHA
100
AcDbCircle
 10
95.279912
 20
164.830915
 30
0.0
 40
14.25
100
AcDbArc
 50
301.74432
 51
306.545039
  0
ARC
  5
9F
100
AcDbEntity
  8
ALPHA
100
AcDbCircle
 10
95.279912
 20
164.830915
 30
0.0
 40
14.25
100
AcDbArc
 50
296.790404
 51
301.74432
  0
ARC
  5
A0
100
AcDbEntity
  8
ALPHA
100
AcDbCircle
 10
95.279912
 20
164.830915
 30
0.0
 40
14.25
100
AcDbArc
 50
293.90323
 51
296.790404
  0
ARC
  5
A1
100
AcDbEntity
  8
ALPHA
100
AcDbCircle
 10
95.279912
 20
164.830915
 30
0.0
 40
14.25
100
AcDbArc
 50
288.545098
 51
293.90323
  0
ARC
  5
A2
100
AcDbEntity
  8
ALPHA
100
AcDbCircle
 10
95.279912
 20
164.830915
 30
0.0
 40
14.25
100
AcDbArc
 50
286.123882
 51
288.545098
  0
ARC
  5
A3
100
AcDbEntity
  8
ALPHA
100
AcDbCircle
 10
95.279912
 20
164.830915
 30
0.0
 40
14.25
100
AcDbArc
 50
278.454961
 51
286.123882
  0
ARC
  5
A4
100
AcDbEntity
  8
ALPHA
100
AcDbCircle
 10
104.239543
 20
153.749963
 30
0.0
 40
0.6
100
AcDbArc
 50
40.163988
 51
217.751356
  0
LINE
  5
A5
100
AcDbEntity
  8
ALPHA
100
AcDbLine
 10
104.698064
 20
154.13695
 30
0.0
 11
105.973877
 21
155.412763
 31
0.0
  0
ARC
  5
A6
100
AcDbEntity
  8
ALPHA
100
AcDbCircle
 10
106.360864
 20
155.871284
 30
0.0
 40
0.6
100
AcDbArc
 50
52.248644
 51
229.836012
  0
ARC
  5
A7
100
AcDbEntity
  8
ALPHA
100
AcDbCircle
 10
95.279912
 20
164.830915
 30
0.0
 40
14.25
100
AcDbArc
 50
344.774722
 51
351.545039
  0
ARC
  5
A8
100
AcDbEntity
  8
ALPHA
100
AcDbCircle
 10
95.279912
 20
164.830915
 30
0.0
 40
14.25
100
AcDbArc
 50
337.037696
 51
344.774722
  0
ARC
  5
A9
100
AcDbEntity
  8
ALPHA
100
AcDbCircle
 10
95.279912
 20
164.830915
 30
0.0
 40
14.25
100
AcDbArc
 50
334.912599
 51
337.037696
  0
ARC
  5
AA
100
AcDbEntity
  8
ALPHA
100
AcDbCircle
 10
95.279912
 20
164.830915
 30
0.0
 40
14.25
100
AcDbArc
 50
329.274242
 51
334.912599
  0
ARC
  5
AB
100
AcDbEntity
  8
ALPHA
100
AcDbCircle
 10
95.279912
 20
164.830915
 30
0.0
 40
14.25
100
AcDbArc
 50
323.454961
 51
329.274242
  0
ARC
  5
AC
100
AcDbEntity
  8
ALPHA
100
AcDbCircle
 10
109.450744
 20
163.330915
 30
0.0
 40
0.6
100
AcDbArc
 50
85.163988
 51
262.751356
  0
ARC
  5
AD
100
AcDbEntity
  8
ALPHA
100
AcDbCircle
 10
95.279912
 20
164.830915
 30
0.0
 40
14.25
100
AcDbArc
 50
1.728345
 51
3.629696
  0
ARC
  5
AE
100
AcDbEntity
  8
ALPHA
100
AcDbCircle
 10
95.279912
 20
164.830915
 30
0.0
 40
14.25
100
AcDbArc
 50
1.577854
 51
1.728345
  0
ARC
  5
AF
100
AcDbEntity
  8
ALPHA
100
AcDbCircle
 10
95.279912
 20
164.830915
 30
0.0
 40
14.25
100
AcDbArc
 50
0.000301
 51
1.577854
  0
ARC
  5
B0
100
AcDbEntity
  8
ALPHA
100
AcDbCircle
 10
95.279912
 20
164.830915
 30
0.0
 40
14.25
100
AcDbArc
 50
356.370304
 51
0.000301
  0
ARC
  5
B1
100
AcDbEntity
  8
ALPHA
100
AcDbCircle
 10
109.450744
 20
166.330915
 30
0.0
 40
0.6
100
AcDbArc
 50
97.248644
 51
274.836012
  0
ARC
  5
B2
100
AcDbEntity
  8
ALPHA
100
AcDbCircle
 10
95.279912
 20
164.830915
 30
0.0
 40
14.25
100
AcDbArc
 50
33.051457
 51
36.545039
  0
ARC
  5
B3
100
AcDbEntity
  8
ALPHA
100
AcDbCircle
 10
95.279912
 20
164.830915
 30
0.0
 40
14.25
100
AcDbArc
 50
27.889707
 51
33.051457
  0
ARC
  5
B4
100
AcDbEntity
  8
ALPHA
100
AcDbCircle
 10
95.279912
 20
164.830915
 30
0.0
 40
14.25
100
AcDbArc
 50
24.954636
 51
27.889707
  0
ARC
  5
B5
100
AcDbEntity
  8
ALPHA
100
AcDbCircle
 10
95.279912
 20
164.830915
 30
0.0
 40
14.25
100
AcDbArc
 50
20.016019
 51
24.954636
  0
ARC
  5
B6
100
AcDbEntity
  8
ALPHA
100
AcDbCircle
 10
95.279912
 20
164.830915
 30
0.0
 40
14.25
100
AcDbArc
 50
17.084953
 51
20.016019
  0
ARC
  5
B7
100
AcDbEntity
  8
ALPHA
100
AcDbCircle
 10
95.279912
 20
164.830915
 30
0.0
 40
14.25
100
AcDbArc
 50
11.90608
 51
17.084953
  0
ARC
  5
B8
100
AcDbEntity
  8
ALPHA
100
AcDbCircle
 10
95.279912
 20
164.830915
 30
0.0
 40
14.25
100
AcDbArc
 50
8.454961
 51
11.90608
  0
ARC
  5
B9
100
AcDbEntity
  8
ALPHA
100
AcDbCircle
 10
106.360864
 20
173.790547
 30
0.0
 40
0.6
100
AcDbArc
 50
130.163988
 51
307.751356
  0
ARC
  5
BA
100
AcDbEntity
  8
ALPHA
100
AcDbCircle
 10
95.279912
 20
164.830915
 30
0.0
 40
14.25
100
AcDbArc
 50
43.897826
 51
48.629696
  0
ARC
  5
BB
100
AcDbEntity
  8
ALPHA
100
AcDbCircle
 10
95.279912
 20
164.830915
 30
0.0
 40
14.25
100
AcDbArc
 50
41.370304
 51
43.897826
  0
ARC
  5
BC
100
AcDbEntity
  8
ALPHA
100
AcDbCircle
 10
104.239543
 20
175.911868
 30
0.0
 40
0.6
100
AcDbArc
 50
142.248644
 51
319.836012
  0
ARC
  5
BD
100
AcDbEntity
  8
ALPHA
100
AcDbCircle
 10
95.279912
 20
164.830915
 30
0.0
 40
14.25
100
AcDbArc
 50
77.457399
 51
84.967587
  0
ARC
  5
BE
100
AcDbEntity
  8
ALPHA
100
AcDbCircle
 10
95.279912
 20
164.830915
 30
0.0
 40
14.25
100
AcDbArc
 50
75.209855
 51
77.457399
  0
ARC
  5
BF
100
AcDbEntity
  8
ALPHA
100
AcDbCircle
 10
95.279912
 20
164.830915
 30
0.0
 40
14.25
100
AcDbArc
 50
69.703028
 51
75.209855
  0
ARC
  5
C0
100
AcDbEntity
  8
ALPHA
100
AcDbCircle
 10
95.279912
 20
164.830915
 30
0.0
 40
14.25
100
AcDbArc
 50
67.404688
 51
69.703028
  0
ARC
  5
C1
100
AcDbEntity
  8
ALPHA
100
AcDbCircle
 10
95.279912
 20
164.830915
 30
0.0
 40
14.25
100
AcDbArc
 50
60.504149
 51
67.404688
  0
ARC
  5
C2
100
AcDbEntity
  8
ALPHA
100
AcDbCircle
 10
95.279912
 20
164.830915
 30
0.0
 40
14.25
100
AcDbArc
 50
59.866499
 51
60.504149
  0
ARC
  5
C3
100
AcDbEntity
  8
ALPHA
100
AcDbCircle
 10
95.279912
 20
164.830915
 30
0.0
 40
14.25
100
AcDbArc
 50
53.454961
 51
59.866499
  0
LINE
  5
C4
100
AcDbEntity
  8
ALPHA
100
AcDbLine
 10
96.529912
 20
179.025985
 30
0.0
 11
96.529912
 21
178.293417
 31
0.0
  0
ARC
  5
C5
100
AcDbEntity
  8
ALPHA
100
AcDbCircle
 10
95.279912
 20
164.830915
 30
0.0
 40
14.25
100
AcDbArc
 50
48.629696
 51
51.042328
  0
ARC
  5
C6
100
AcDbEntity
  8
ALPHA
100
AcDbCircle
 10
95.279912
 20
164.830915
 30
0.0
 40
14.25
100
AcDbArc
 50
51.042328
 51
53.454961
  0
LINE
  5
C7
100
AcDbEntity
  8
ALPHA
100
AcDbLine
 10
94.029912
 20
178.293417
 30
0.0
 11
94.029912
 21
164.820915
 31
0.0
  0
LINE
  5
C8
100
AcDbEntity
  8
ALPHA
100
AcDbLine
 10
96.529912
 20
164.820915
 30
0.0
 11
96.529912
 21
178.293417
 31
0.0
  0
LINE
  5
C9
100
AcDbEntity
  8
ALPHA
100
AcDbLine
 10
95.269912
 20
163.580915
 30
0.0
 11
95.289912
 21
163.580915
 31
0.0
  0
ARC
  5
CA
100
AcDbEntity
  8
ALPHA
100
AcDbCircle
 10
95.279912
 20
164.830915
 30
0.0
 40
14.25
100
AcDbArc
 50
36.545039
 51
38.957672
  0
ARC
  5
CB
100
AcDbEntity
  8
ALPHA
100
AcDbCircle
 10
95.279912
 20
164.830915
 30
0.0
 40
14.25
100
AcDbArc
 50
38.957672
 51
41.370304
  0
ARC
  5
CC
100
AcDbEntity
  8
ALPHA
100
AcDbCircle
 10
95.279912
 20
164.830915
 30
0.0
 40
14.25
100
AcDbArc
 50
3.629696
 51
6.042328
  0
ARC
  5
CD
100
AcDbEntity
  8
ALPHA
100
AcDbCircle
 10
95.279912
 20
164.830915
 30
0.0
 40
14.25
100
AcDbArc
 50
6.042328
 51
8.454961
  0
ARC
  5
CE
100
AcDbEntity
  8
ALPHA
100
AcDbCircle
 10
95.279912
 20
164.830915
 30
0.0
 40
14.25
100
AcDbArc
 50
351.545039
 51
353.957672
  0
ARC
  5
CF
100
AcDbEntity
  8
ALPHA
100
AcDbCircle
 10
95.279912
 20
164.830915
 30
0.0
 40
14.25
100
AcDbArc
 50
353.957672
 51
356.370304
  0
ARC
  5
D0
100
AcDbEntity
  8
ALPHA
100
AcDbCircle
 10
95.279912
 20
164.830915
 30
0.0
 40
14.25
100
AcDbArc
 50
318.629696
 51
321.042328
  0
ARC
  5
D1
100
AcDbEntity
  8
ALPHA
100
AcDbCircle
 10
95.279912
 20
164.830915
 30
0.0
 40
14.25
100
AcDbArc
 50
321.042328
 51
323.454961
  0
ARC
  5
D2
100
AcDbEntity
  8
ALPHA
100
AcDbCircle
 10
95.279912
 20
164.830915
 30
0.0
 40
14.25
100
AcDbArc
 50
306.545039
 51
308.957672
  0
ARC
  5
D3
100
AcDbEntity
  8
ALPHA
100
AcDbCircle
 10
95.279912
 20
164.830915
 30
0.0
 40
14.25
100
AcDbArc
 50
308.957672
 51
311.370304
  0
ARC
  5
D4
100
AcDbEntity
  8
ALPHA
100
AcDbCircle
 10
95.279912
 20
164.830915
 30
0.0
 40
14.25
100
AcDbArc
 50
273.629696
 51
276.042328
  0
ARC
  5
D5
100
AcDbEntity
  8
ALPHA
100
AcDbCircle
 10
95.279912
 20
164.830915
 30
0.0
 40
14.25
100
AcDbArc
 50
276.042328
 51
278.454961
  0
ARC
  5
D6
100
AcDbEntity
  8
ALPHA
100
AcDbCircle
 10
95.279912
 20
164.830915
 30
0.0
 40
14.25
100
AcDbArc
 50
261.545039
 51
263.957672
  0
ARC
  5
D7
100
AcDbEntity
  8
ALPHA
100
AcDbCircle
 10
95.279912
 20
164.830915
 30
0.0
 40
14.25
100
AcDbArc
 50
263.957672
 51
266.370304
  0
ARC
  5
D8
100
AcDbEntity
  8
ALPHA
100
AcDbCircle
 10
95.279912
 20
164.830915
 30
0.0
 40
14.25
100
AcDbArc
 50
228.629696
 51
231.042328
  0
ARC
  5
D9
100
AcDbEntity
  8
ALPHA
100
AcDbCircle
 10
95.279912
 20
164.830915
 30
0.0
 40
14.25
100
AcDbArc
 50
231.042328
 51
233.454961
  0
ARC
  5
DA
100
AcDbEntity
  8
ALPHA
100
AcDbCircle
 10
95.279912
 20
164.830915
 30
0.0
 40
14.25
100
AcDbArc
 50
216.545039
 51
218.957672
  0
ARC
  5
DB
100
AcDbEntity
  8
ALPHA
100
AcDbCircle
 10
95.279912
 20
164.830915
 30
0.0
 40
14.25
100
AcDbArc
 50
218.957672
 51
221.370304
  0
ARC
  5
DC
100
AcDbEntity
  8
ALPHA
100
AcDbCircle
 10
95.279912
 20
164.830915
 30
0.0
 40
14.25
100
AcDbArc
 50
183.629696
 51
186.042328
  0
ARC
  5
DD
100
AcDbEntity
  8
ALPHA
100
AcDbCircle
 10
95.279912
 20
164.830915
 30
0.0
 40
14.25
100
AcDbArc
 50
186.042328
 51
188.454961
  0
ARC
  5
DE
100
AcDbEntity
  8
ALPHA
100
AcDbCircle
 10
95.279912
 20
164.830915
 30
0.0
 40
14.25
100
AcDbArc
 50
171.545039
 51
173.957672
  0
ARC
  5
DF
100
AcDbEntity
  8
ALPHA
100
AcDbCircle
 10
95.279912
 20
164.830915
 30
0.0
 40
14.25
100
AcDbArc
 50
94.830657
 51
95.032413
  0
ARC
  5
E0
100
AcDbEntity
  8
ALPHA
100
AcDbCircle
 10
95.279912
 20
164.830915
 30
0.0
 40
14.25
100
AcDbArc
 50
84.967587
 51
85.169343
  0
ARC
  5
E1
100
AcDbEntity
  8
ALPHA
100
AcDbCircle
 10
95.279912
 20
164.830915
 30
0.0
 40
14.25
100
AcDbArc
 50
173.957672
 51
176.370304
  0
ARC
  5
E2
100
AcDbEntity
  8
ALPHA
100
AcDbCircle
 10
95.279912
 20
164.830915
 30
0.0
 40
14.25
100
AcDbArc
 50
138.629696
 51
141.042328
  0
ARC
  5
E3
100
AcDbEntity
  8
ALPHA
100
AcDbCircle
 10
95.279912
 20
164.830915
 30
0.0
 40
14.25
100
AcDbArc
 50
141.042328
 51
143.454961
  0
ARC
  5
E4
100
AcDbEntity
  8
ALPHA
100
AcDbCircle
 10
95.279912
 20
164.830915
 30
0.0
 40
14.25
100
AcDbArc
 50
126.545039
 51
128.957672
  0
ARC
  5
E5
100
AcDbEntity
  8
ALPHA
100
AcDbCircle
 10
95.279912
 20
164.830915
 30
0.0
 40
14.25
100
AcDbArc
 50
128.957672
 51
131.370304
  0
ARC
  5
E6
100
AcDbEntity
  8
ALPHA
100
AcDbCircle
 10
95.279912
 20
164.830915
 30
0.0
 40
14.25
100
AcDbArc
 50
178.99823
 51
180.0
  0
ARC
  5
E7
100
AcDbEntity
  8
ALPHA
100
AcDbCircle
 10
95.279912
 20
164.830915
 30
0.0
 40
14.25
100
AcDbArc
 50
176.370192
 51
178.99823
  0
ARC
  5
E8
100
AcDbEntity
  8
ALPHA
100
AcDbCircle
 10
95.279912
 20
164.830915
 30
0.0
 40
14.25
100
AcDbArc
 50
171.13517
 51
171.545166
  0
ARC
  5
E9
100
AcDbEntity
  8
ALPHA
100
AcDbCircle
 10
95.279912
 20
164.830915
 30
0.0
 40
14.25
100
AcDbArc
 50
169.537128
 51
171.13517
  0
ARC
  5
EA
100
AcDbEntity
  8
ALPHA
100
AcDbCircle
 10
95.279912
 20
164.830915
 30
0.0
 40
14.25
100
AcDbArc
 50
164.968934
 51
169.537128
  0
ARC
  5
EB
100
AcDbEntity
  8
ALPHA
100
AcDbCircle
 10
95.279912
 20
164.830915
 30
0.0
 40
14.25
100
AcDbArc
 50
164.34072
 51
164.968934
  0
ARC
  5
EC
100
AcDbEntity
  8
ALPHA
100
AcDbCircle
 10
95.279912
 20
164.830915
 30
0.0
 40
14.25
100
AcDbArc
 50
162.192347
 51
164.34072
  0
ARC
  5
ED
100
AcDbEntity
  8
ALPHA
100
AcDbCircle
 10
95.279912
 20
164.830915
 30
0.0
 40
14.25
100
AcDbArc
 50
161.251957
 51
162.192347
  0
ARC
  5
EE
100
AcDbEntity
  8
ALPHA
100
AcDbCircle
 10
95.279912
 20
164.830915
 30
0.0
 40
14.25
100
AcDbArc
 50
158.122054
 51
161.251957
  0
ARC
  5
EF
100
AcDbEntity
  8
ALPHA
100
AcDbCircle
 10
95.279912
 20
164.830915
 30
0.0
 40
14.25
100
AcDbArc
 50
157.03319
 51
158.122054
  0
ARC
  5
F0
100
AcDbEntity
  8
ALPHA
100
AcDbCircle
 10
95.279912
 20
164.830915
 30
0.0
 40
14.25
100
AcDbArc
 50
153.863186
 51
157.03319
  0
ARC
  5
F1
100
AcDbEntity
  8
ALPHA
100
AcDbCircle
 10
95.279912
 20
164.830915
 30
0.0
 40
14.25
100
AcDbArc
 50
152.983194
 51
153.863186
  0
ARC
  5
F2
100
AcDbEntity
  8
ALPHA
100
AcDbCircle
 10
95.279912
 20
164.830915
 30
0.0
 40
14.25
100
AcDbArc
 50
150.949685
 51
152.983194
  0
ARC
  5
F3
100
AcDbEntity
  8
ALPHA
100
AcDbCircle
 10
95.279912
 20
164.830915
 30
0.0
 40
14.25
100
AcDbArc
 50
149.856424
 51
150.949685
  0
ARC
  5
F4
100
AcDbEntity
  8
ALPHA
100
AcDbCircle
 10
95.279912
 20
164.830915
 30
0.0
 40
14.25
100
AcDbArc
 50
145.500081
 51
149.856424
  0
ARC
  5
F5
100
AcDbEntity
  8
ALPHA
100
AcDbCircle
 10
95.279912
 20
164.830915
 30
0.0
 40
14.25
100
AcDbArc
 50
144.158395
 51
145.500081
  0
ARC
  5
F6
100
AcDbEntity
  8
ALPHA
100
AcDbCircle
 10
95.279912
 20
164.830915
 30
0.0
 40
14.25
100
AcDbArc
 50
143.875415
 51
144.158395
  0
ARC
  5
F7
100
AcDbEntity
  8
ALPHA
100
AcDbCircle
 10
95.279912
 20
164.830915
 30
0.0
 40
14.25
100
AcDbArc
 50
143.644224
 51
143.875415
  0
ARC
  5
F8
100
AcDbEntity
  8
ALPHA
100
AcDbCircle
 10
95.279912
 20
164.830915
 30
0.0
 40
14.25
100
AcDbArc
 50
143.4551
 51
143.644224
  0
ARC
  5
F9
100
AcDbEntity
  8
ALPHA
100
AcDbCircle
 10
95.279912
 20
164.830915
 30
0.0
 40
14.25
100
AcDbArc
 50
137.109627
 51
138.629812
  0
ARC
  5
FA
100
AcDbEntity
  8
ALPHA
100
AcDbCircle
 10
95.279912
 20
164.830915
 30
0.0
 40
14.25
100
AcDbArc
 50
136.4035
 51
137.109627
  0
ARC
  5
FB
100
AcDbEntity
  8
ALPHA
100
AcDbCircle
 10
95.279912
 20
164.830915
 30
0.0
 40
14.25
100
AcDbArc
 50
133.159302
 51
135.532653
  0
ARC
  5
FC
100
AcDbEntity
  8
ALPHA
100
AcDbCircle
 10
95.279912
 20
164.830915
 30
0.0
 40
14.25
100
AcDbArc
 50
131.703276
 51
133.159302
  0
ARC
  5
FD
100
AcDbEntity
  8
ALPHA
100
AcDbCircle
 10
95.279912
 20
164.830915
 30
0.0
 40
14.25
100
AcDbArc
 50
131.633285
 51
131.703276
  0
ARC
  5
FE
100
AcDbEntity
  8
ALPHA
100
AcDbCircle
 10
95.279912
 20
164.830915
 30
0.0
 40
14.25
100
AcDbArc
 50
131.370451
 51
131.633285
  0
ARC
  5
FF
100
AcDbEntity
  8
ALPHA
100
AcDbCircle
 10
95.279912
 20
164.830915
 30
0.0
 40
14.25
100
AcDbArc
 50
125.863294
 51
126.545142
  0
ARC
  5
100
100
AcDbEntity
  8
ALPHA
100
AcDbCircle
 10
95.279912
 20
164.830915
 30
0.0
 40
14.25
100
AcDbArc
 50
125.835163
 51
125.863294
  0
ARC
  5
101
100
AcDbEntity
  8
ALPHA
100
AcDbCircle
 10
95.279912
 20
164.830915
 30
0.0
 40
14.25
100
AcDbArc
 50
120.14984
 51
120.569273
  0
ARC
  5
102
100
AcDbEntity
  8
ALPHA
100
AcDbCircle
 10
95.279912
 20
164.830915
 30
0.0
 40
14.25
100
AcDbArc
 50
120.070659
 51
120.14984
  0
ARC
  5
103
100
AcDbEntity
  8
ALPHA
100
AcDbCircle
 10
95.279912
 20
164.830915
 30
0.0
 40
14.25
100
AcDbArc
 50
114.58582
 51
120.018817
  0
ARC
  5
104
100
AcDbEntity
  8
ALPHA
100
AcDbCircle
 10
95.279912
 20
164.830915
 30
0.0
 40
14.25
100
AcDbArc
 50
111.791598
 51
113.31832
  0
ARC
  5
105
100
AcDbEntity
  8
ALPHA
100
AcDbCircle
 10
95.279912
 20
164.830915
 30
0.0
 40
14.25
100
AcDbArc
 50
107.774947
 51
111.468764
  0
ARC
  5
106
100
AcDbEntity
  8
ALPHA
100
AcDbCircle
 10
95.279912
 20
164.830915
 30
0.0
 40
14.25
100
AcDbArc
 50
107.202096
 51
107.774947
  0
ARC
  5
107
100
AcDbEntity
  8
ALPHA
100
AcDbCircle
 10
95.279912
 20
164.830915
 30
0.0
 40
14.25
100
AcDbArc
 50
103.557153
 51
107.202096
  0
ARC
  5
108
100
AcDbEntity
  8
ALPHA
100
AcDbCircle
 10
95.279912
 20
164.830915
 30
0.0
 40
14.25
100
AcDbArc
 50
102.049922
 51
102.98291
  0
ARC
  5
109
100
AcDbEntity
  8
ALPHA
100
AcDbCircle
 10
95.279912
 20
164.830915
 30
0.0
 40
14.25
100
AcDbArc
 50
100.869351
 51
102.049922
  0
ARC
  5
10A
100
AcDbEntity
  8
ALPHA
100
AcDbCircle
 10
95.279912
 20
164.830915
 30
0.0
 40
14.25
100
AcDbArc
 50
95.314032
 51
95.382633
  0
ARC
  5
10B
100
AcDbEntity
  8
ALPHA
100
AcDbCircle
 10
95.279912
 20
164.830915
 30
0.0
 40
14.25
100
AcDbArc
 50
77.950078
 51
79.130649
  0
ARC
  5
10C
100
AcDbEntity
  8
ALPHA
100
AcDbCircle
 10
95.279912
 20
164.830915
 30
0.0
 40
14.25
100
AcDbArc
 50
286.146992
 51
287.031395
  0
ARC
  5
10D
100
AcDbEntity
  8
ALPHA
100
AcDbCircle
 10
95.279912
 20
164.830915
 30
0.0
 40
14.25
100
AcDbArc
 50
285.016131
 51
286.100377
  0
ARC
  5
10E
100
AcDbEntity
  8
ALPHA
100
AcDbCircle
 10
95.279912
 20
164.830915
 30
0.0
 40
14.25
100
AcDbArc
 50
278.932495
 51
285.016131
  0
ARC
  5
10F
100
AcDbEntity
  8
ALPHA
100
AcDbCircle
 10
95.279912
 20
164.830915
 30
0.0
 40
14.25
100
AcDbArc
 50
272.746074
 51
273.629624
  0
ARC
  5
110
100
AcDbEntity
  8
ALPHA
100
AcDbCircle
 10
95.279912
 20
164.830915
 30
0.0
 40
14.25
100
AcDbArc
 50
267.253926
 51
268.898236
  0
ARC
  5
111
100
AcDbEntity
  8
ALPHA
100
AcDbCircle
 10
95.279912
 20
164.830915
 30
0.0
 40
14.25
100
AcDbArc
 50
266.370376
 51
267.253926
  0
ARC
  5
112
100
AcDbEntity
  8
ALPHA
100
AcDbCircle
 10
95.279912
 20
164.830915
 30
0.0
 40
14.25
100
AcDbArc
 50
261.129823
 51
261.544952
  0
ARC
  5
113
100
AcDbEntity
  8
ALPHA
100
AcDbCircle
 10
95.279912
 20
164.830915
 30
0.0
 40
14.25
100
AcDbArc
 50
261.067505
 51
261.129823
  0
ARC
  5
114
100
AcDbEntity
  8
ALPHA
100
AcDbCircle
 10
95.279912
 20
164.830915
 30
0.0
 40
14.25
100
AcDbArc
 50
254.983869
 51
261.067505
  0
ARC
  5
115
100
AcDbEntity
  8
ALPHA
100
AcDbCircle
 10
95.279912
 20
164.830915
 30
0.0
 40
14.25
100
AcDbArc
 50
253.899623
 51
254.983869
  0
ARC
  5
116
100
AcDbEntity
  8
ALPHA
100
AcDbCircle
 10
95.279912
 20
164.830915
 30
0.0
 40
14.25
100
AcDbArc
 50
253.853008
 51
253.899623
  0
ARC
  5
117
100
AcDbEntity
  8
ALPHA
100
AcDbCircle
 10
95.279912
 20
164.830915
 30
0.0
 40
14.25
100
AcDbArc
 50
247.674302
 51
252.968605
  0
ARC
  5
118
100
AcDbEntity
  8
ALPHA
100
AcDbCircle
 10
95.279912
 20
164.830915
 30
0.0
 40
14.25
100
AcDbArc
 50
247.065242
 51
247.674302
  0
ARC
  5
119
100
AcDbEntity
  8
ALPHA
100
AcDbCircle
 10
95.279912
 20
164.830915
 30
0.0
 40
14.25
100
AcDbArc
 50
245.478595
 51
247.065242
  0
ARC
  5
11A
100
AcDbEntity
  8
ALPHA
100
AcDbCircle
 10
95.279912
 20
164.830915
 30
0.0
 40
14.25
100
AcDbArc
 50
244.713724
 51
245.478595
  0
ARC
  5
11B
100
AcDbEntity
  8
ALPHA
100
AcDbCircle
 10
95.279912
 20
164.830915
 30
0.0
 40
14.25
100
AcDbArc
 50
240.900063
 51
244.713724
  0
ARC
  5
11C
100
AcDbEntity
  8
ALPHA
100
AcDbCircle
 10
95.279912
 20
164.830915
 30
0.0
 40
14.25
100
AcDbArc
 50
240.310708
 51
240.900063
  0
ARC
  5
11D
100
AcDbEntity
  8
ALPHA
100
AcDbCircle
 10
95.279912
 20
164.830915
 30
0.0
 40
14.25
100
AcDbArc
 50
237.066693
 51
240.310708
  0
ARC
  5
11E
100
AcDbEntity
  8
ALPHA
100
AcDbCircle
 10
95.279912
 20
164.830915
 30
0.0
 40
14.25
100
AcDbArc
 50
236.291774
 51
237.066693
  0
ARC
  5
11F
100
AcDbEntity
  8
ALPHA
100
AcDbCircle
 10
95.279912
 20
164.830915
 30
0.0
 40
14.25
100
AcDbArc
 50
235.195084
 51
236.291774
  0
ARC
  5
120
100
AcDbEntity
  8
ALPHA
100
AcDbCircle
 10
95.279912
 20
164.830915
 30
0.0
 40
14.25
100
AcDbArc
 50
234.078542
 51
235.195084
  0
ARC
  5
121
100
AcDbEntity
  8
ALPHA
100
AcDbCircle
 10
95.279912
 20
164.830915
 30
0.0
 40
14.25
100
AcDbArc
 50
233.454858
 51
234.078542
  0
ARC
  5
122
100
AcDbEntity
  8
ALPHA
100
AcDbCircle
 10
95.279912
 20
164.830915
 30
0.0
 40
14.25
100
AcDbArc
 50
228.417849
 51
228.629549
  0
ARC
  5
123
100
AcDbEntity
  8
ALPHA
100
AcDbCircle
 10
95.279912
 20
164.830915
 30
0.0
 40
14.25
100
AcDbArc
 50
228.296724
 51
228.417849
  0
ARC
  5
124
100
AcDbEntity
  8
ALPHA
100
AcDbCircle
 10
95.279912
 20
164.830915
 30
0.0
 40
14.25
100
AcDbArc
 50
226.840698
 51
228.296724
  0
ARC
  5
125
100
AcDbEntity
  8
ALPHA
100
AcDbCircle
 10
95.279912
 20
164.830915
 30
0.0
 40
14.25
100
AcDbArc
 50
224.467347
 51
226.840698
  0
ARC
  5
126
100
AcDbEntity
  8
ALPHA
100
AcDbCircle
 10
95.279912
 20
164.830915
 30
0.0
 40
14.25
100
AcDbArc
 50
222.890373
 51
224.467347
  0
ARC
  5
127
100
AcDbEntity
  8
ALPHA
100
AcDbCircle
 10
95.279912
 20
164.830915
 30
0.0
 40
14.25
100
AcDbArc
 50
221.970275
 51
222.890373
  0
ARC
  5
128
100
AcDbEntity
  8
ALPHA
100
AcDbCircle
 10
95.279912
 20
164.830915
 30
0.0
 40
14.25
100
AcDbArc
 50
221.370188
 51
221.970275
  0
ARC
  5
129
100
AcDbEntity
  8
ALPHA
100
AcDbCircle
 10
95.279912
 20
164.830915
 30
0.0
 40
14.25
100
AcDbArc
 50
216.355776
 51
216.5449
  0
ARC
  5
12A
100
AcDbEntity
  8
ALPHA
100
AcDbCircle
 10
95.279912
 20
164.830915
 30
0.0
 40
14.25
100
AcDbArc
 50
216.30314
 51
216.355776
  0
ARC
  5
12B
100
AcDbEntity
  8
ALPHA
100
AcDbCircle
 10
95.279912
 20
164.830915
 30
0.0
 40
14.25
100
AcDbArc
 50
211.821578
 51
216.30314
  0
ARC
  5
12C
100
AcDbEntity
  8
ALPHA
100
AcDbCircle
 10
95.279912
 20
164.830915
 30
0.0
 40
14.25
100
AcDbArc
 50
211.439393
 51
211.821578
  0
ARC
  5
12D
100
AcDbEntity
  8
ALPHA
100
AcDbCircle
 10
95.279912
 20
164.830915
 30
0.0
 40
14.25
100
AcDbArc
 50
210.143576
 51
211.439393
  0
ARC
  5
12E
100
AcDbEntity
  8
ALPHA
100
AcDbCircle
 10
95.279912
 20
164.830915
 30
0.0
 40
14.25
100
AcDbArc
 50
209.050315
 51
210.143576
  0
ARC
  5
12F
100
AcDbEntity
  8
ALPHA
100
AcDbCircle
 10
95.279912
 20
164.830915
 30
0.0
 40
14.25
100
AcDbArc
 50
203.543824
 51
209.050315
  0
ARC
  5
130
100
AcDbEntity
  8
ALPHA
100
AcDbCircle
 10
95.279912
 20
164.830915
 30
0.0
 40
14.25
100
AcDbArc
 50
202.96681
 51
203.543824
  0
ARC
  5
131
100
AcDbEntity
  8
ALPHA
100
AcDbCircle
 10
95.279912
 20
164.830915
 30
0.0
 40
14.25
100
AcDbArc
 50
202.958007
 51
202.96681
  0
ARC
  5
132
100
AcDbEntity
  8
ALPHA
100
AcDbCircle
 10
95.279912
 20
164.830915
 30
0.0
 40
14.25
100
AcDbArc
 50
201.877946
 51
202.958007
  0
ARC
  5
133
100
AcDbEntity
  8
ALPHA
100
AcDbCircle
 10
95.279912
 20
164.830915
 30
0.0
 40
14.25
100
AcDbArc
 50
195.65928
 51
201.877946
  0
ARC
  5
134
100
AcDbEntity
  8
ALPHA
100
AcDbCircle
 10
95.279912
 20
164.830915
 30
0.0
 40
14.25
100
AcDbArc
 50
195.300171
 51
195.65928
  0
ARC
  5
135
100
AcDbEntity
  8
ALPHA
100
AcDbCircle
 10
95.279912
 20
164.830915
 30
0.0
 40
14.25
100
AcDbArc
 50
195.031066
 51
195.300171
  0
ARC
  5
136
100
AcDbEntity
  8
ALPHA
100
AcDbCircle
 10
95.279912
 20
164.830915
 30
0.0
 40
14.25
100
AcDbArc
 50
194.358427
 51
195.031066
  0
ARC
  5
137
100
AcDbEntity
  8
ALPHA
100
AcDbCircle
 10
95.279912
 20
164.830915
 30
0.0
 40
14.25
100
AcDbArc
 50
188.919664
 51
194.358427
  0
ARC
  5
138
100
AcDbEntity
  8
ALPHA
100
AcDbCircle
 10
95.279912
 20
164.830915
 30
0.0
 40
14.25
100
AcDbArc
 50
188.86483
 51
188.919664
  0
ARC
  5
139
100
AcDbEntity
  8
ALPHA
100
AcDbCircle
 10
95.279912
 20
164.830915
 30
0.0
 40
14.25
100
AcDbArc
 50
188.454834
 51
188.86483
  0
ARC
  5
13A
100
AcDbEntity
  8
ALPHA
100
AcDbCircle
 10
95.279912
 20
164.830915
 30
0.0
 40
14.25
100
AcDbArc
 50
182.96446
 51
183.629808
  0
ARC
  5
13B
100
AcDbEntity
  8
ALPHA
100
AcDbCircle
 10
95.279912
 20
164.830915
 30
0.0
 40
14.25
100
AcDbArc
 50
180.0
 51
182.96446
  0
ARC
  5
13C
100
AcDbEntity
  8
ALPHA
100
AcDbCircle
 10
95.279912
 20
164.830915
 30
0.0
 40
9.3
100
AcDbArc
 50
82.270783
 51
82.582554
  0
ARC
  5
13D
100
AcDbEntity
  8
ALPHA
100
AcDbCircle
 10
95.279912
 20
164.830915
 30
0.0
 40
9.3
100
AcDbArc
 50
97.417446
 51
97.729217
  0
LINE
  5
13E
100
AcDbEntity
  8
ALPHA
100
AcDbLine
 10
94.079912
 20
178.79602
 30
0.0
 11
96.479912
 21
178.79602
 31
0.0
  0
LINE
  5
13F
100
AcDbEntity
  8
ALPHA
100
AcDbLine
 10
94.079912
 20
166.080915
 30
0.0
 11
96.479912
 21
166.080915
 31
0.0
  0
LINE
  5
140
100
AcDbEntity
  8
ALPHA
100
AcDbLine
 10
94.079912
 20
178.060964
 30
0.0
 11
96.479912
 21
178.060964
 31
0.0
  0
LINE
  5
141
100
AcDbEntity
  8
ALPHA
100
AcDbLine
 10
94.079912
 20
179.080915
 30
0.0
 11
94.079912
 21
178.79602
 31
0.0
  0
LINE
  5
142
100
AcDbEntity
  8
ALPHA
100
AcDbLine
 10
94.079912
 20
178.060964
 30
0.0
 11
94.079912
 21
166.080915
 31
0.0
  0
ARC
  5
143
100
AcDbEntity
  8
ALPHA
100
AcDbCircle
 10
95.279912
 20
164.780915
 30
0.0
 40
1.2
100
AcDbArc
 50
296.238475
 51
0.0
  0
ARC
  5
144
100
AcDbEntity
  8
ALPHA
100
AcDbCircle
 10
95.279912
 20
164.780915
 30
0.0
 40
1.2
100
AcDbArc
 50
294.145076
 51
296.238475
  0
ARC
  5
145
100
AcDbEntity
  8
ALPHA
100
AcDbCircle
 10
95.279912
 20
164.780915
 30
0.0
 40
1.2
100
AcDbArc
 50
283.722509
 51
294.145076
  0
ARC
  5
146
100
AcDbEntity
  8
ALPHA
100
AcDbCircle
 10
95.279912
 20
164.780915
 30
0.0
 40
1.2
100
AcDbArc
 50
243.761525
 51
245.854924
  0
ARC
  5
147
100
AcDbEntity
  8
ALPHA
100
AcDbCircle
 10
95.279912
 20
164.780915
 30
0.0
 40
1.2
100
AcDbArc
 50
180.0
 51
243.761525
  0
LINE
  5
148
100
AcDbEntity
  8
ALPHA
100
AcDbLine
 10
96.479912
 20
170.930915
 30
0.0
 11
96.529912
 21
170.930915
 31
0.0
  0
LINE
  5
149
100
AcDbEntity
  8
ALPHA
100
AcDbLine
 10
94.029912
 20
170.930915
 30
0.0
 11
94.079912
 21
170.930915
 31
0.0
  0
LINE
  5
14A
100
AcDbEntity
  8
ALPHA
100
AcDbLine
 10
96.479912
 20
173.930915
 30
0.0
 11
96.529912
 21
173.930915
 31
0.0
  0
LINE
  5
14B
100
AcDbEntity
  8
ALPHA
100
AcDbLine
 10
94.029912
 20
173.930915
 30
0.0
 11
94.079912
 21
173.930915
 31
0.0
  0
LINE
  5
14C
100
AcDbEntity
  8
ALPHA
100
AcDbLine
 10
96.479912
 20
179.080915
 30
0.0
 11
96.479912
 21
178.79602
 31
0.0
  0
LINE
  5
14D
100
AcDbEntity
  8
ALPHA
100
AcDbLine
 10
96.229912
 20
179.120194
 30
0.0
 11
94.329912
 21
179.120194
 31
0.0
  0
LINE
  5
14E
100
AcDbEntity
  8
ALPHA
100
AcDbLine
 10
96.479912
 20
179.080915
 30
0.0
 11
96.229912
 21
179.120194
 31
0.0
  0
LINE
  5
14F
100
AcDbEntity
  8
ALPHA
100
AcDbLine
 10
94.079912
 20
179.080915
 30
0.0
 11
94.329912
 21
179.120194
 31
0.0
  0
LINE
  5
150
100
AcDbEntity
  8
ALPHA
100
AcDbLine
 10
96.479912
 20
178.79602
 30
0.0
 11
96.479912
 21
178.060964
 31
0.0
  0
LINE
  5
151
100
AcDbEntity
  8
ALPHA
100
AcDbLine
 10
94.079912
 20
178.79602
 30
0.0
 11
94.079912
 21
178.060964
 31
0.0
  0
LINE
  5
152
100
AcDbEntity
  8
ALPHA
100
AcDbLine
 10
96.479912
 20
166.080915
 30
0.0
 11
96.479912
 21
178.060964
 31
0.0
  0
LINE
  5
153
100
AcDbEntity
  8
ALPHA
100
AcDbLine
 10
94.079912
 20
166.080915
 30
0.0
 11
94.079912
 21
164.780915
 31
0.0
  0
LINE
  5
154
100
AcDbEntity
  8
ALPHA
100
AcDbLine
 10
96.479912
 20
164.780915
 30
0.0
 11
96.479912
 21
166.080915
 31
0.0
  0
INSERT
  5
1AA
100
AcDbEntity
  8
COTATION1
100
AcDbBlockReference
  2
SCH_ISO
 10
0.0
 20
0.0
 30
0.0
  0
VIEWPORT
  5
158
100
AcDbEntity
 67
     1
  8
0
100
AcDbViewport
 10
251.108558
 20
148.5
 30
0.0
 40
8035.473851
 41
4752.0
 68
    -1
 69
     1
1001
ACAD
1000
MVIEW
1002
{
1070
    16
1010
0.0
1020
0.0
1030
0.0
1010
0.0
1020
0.0
1030
1.0
1040
0.0
1040
4752.0
1040
251.108558
1040
148.5
1040
50.0
1040
0.0
1040
0.0
1070
     0
1070
   100
1070
     1
1070
     1
1070
     0
1070
     0
1070
     0
1070
     0
1040
0.0
1040
0.0
1040
0.0
1040
1.0
1040
1.0
1040
0.0
1040
0.0
1070
     0
1002
{
1002
}
1002
}
  0
ENDSEC
  0
SECTION
  2
OBJECTS
  0
DICTIONARY
  5
1BB
100
AcDbDictionary
  3
ACAD_GROUP
350
1BC
  3
ACAD_MLINESTYLE
350
1C9
  3
ACDBVARIABLEDICTIONARY
350
206
  0
DICTIONARY
  5
1BC
102
{ACAD_REACTORS
330
1BB
102
}
100
AcDbDictionary
  0
DICTIONARY
  5
1C9
102
{ACAD_REACTORS
330
1BB
102
}
100
AcDbDictionary
  3
STANDARD
350
1CA
  0
DICTIONARY
  5
206
102
{ACAD_REACTORS
330
1BB
102
}
100
AcDbDictionary
  3
DIMADEC
350
207
  0
MLINESTYLE
  5
1CA
102
{ACAD_REACTORS
330
1C9
102
}
100
AcDbMlineStyle
  2
STANDARD
 70
     0
  3

 62
   256
 51
90.0
 52
90.0
 71
     2
 49
0.5
 62
   256
  6
BYLAYER
 49
-0.5
 62
   256
  6
BYLAYER
  0
DICTIONARYVAR
  5
207
102
{ACAD_REACTORS
330
206
102
}
100
DictionaryVariables
280
     0
  1
0
  0
ENDSEC
  0
EOF
