999
DXF file: C:\Users\sesa63760\OneDrive - Schneider Electric\Documents\7-Dev\_Creo\CAD\MCADPP0000311_3D-CAD\drw0001_5.dxf
999
Pro/ENGINEER 2019471 by Parametric Technology Corporation
  0
SECTION
  2
HEADER
  9
$ACADVER
  1
AC1024
  9
$DWGCODEPAGE
  3
ANSI_1252
  9
$EXTMAX
 10
724.1444028735
 20
1024.147084064
 30
0.0
  9
$EXTMIN
 10
0.0
 20
0.0
 30
0.0
  9
$LIMMIN
 10
0.0
 20
0.0
  9
$LIMMAX
 10
724.1444028735
 20
1024.147084064
  9
$VIEWCTR
 10
362.0722014368
 20
512.073542032
  9
$VIEWSIZE
 40
1024.147084064
  9
$CLAYER
  8
0
  9
$LTSCALE
 40
66.7592173316
  9
$CELTYPE
  6
BYLAYER
  9
$DIMSCALE
 40
1.0
  9
$DIMASZ
 40
8.6207667009
  9
$DIMEXO
 40
1.0
  9
$DIMDLI
 40
46.1245501564
  9
$DIMEXE
 40
1.0
  9
$DIMCEN
 40
10.9242355633
  9
$DIMLFAC
 40
1.0
  9
$DIMBLK
  1
_FILLED
  9
$DIMALT
 70
0
  9
$DIMALTF
 40
0.0393700787
  9
$DIMTXT
 40
12.0690733812
  9
$DIMTOL
 70
1
  9
$DIMLIM
 70
0
  9
$DIMTFAC
 40
1.0
  9
$DIMTP
 40
0.01
  9
$DIMTM
 40
0.01
  9
$DIMGAP
 40
0.625
  9
$DIMDSEP
 70
46
  9
$AUNITS
 70
0
  9
$PDMODE
 70
3
  9
$PDSIZE
 40
0.3125
  9
$HANDSEED
  5
286
  9
$TILEMODE
 70
1
  9
$MEASUREMENT
 70
1
  9
$INSUNITS
 70
4
  0
ENDSEC
  0
SECTION
  2
CLASSES
  0
CLASS
  1
ACDBDICTIONARYWDFLT
  2
AcDbDictionaryWithDefault
  3
AutoCAD 2000
 90
0
 91
1
280
0
281
0
  0
CLASS
  1
ACDBPLACEHOLDER
  2
AcDbPlaceHolder
  3
AutoCAD 2000
 90
0
 91
1
280
0
281
0
  0
CLASS
  1
LAYOUT
  2
AcDbLayout
  3
AutoCAD 2000
 90
0
 91
0
280
0
281
0
  0
ENDSEC
  0
SECTION
  2
TABLES
  0
TABLE
  2
VPORT
  5
8
100
AcDbSymbolTable
 70
2
  0
VPORT
  5
1F4
100
AcDbSymbolTableRecord
100
AcDbViewportTableRecord
  2
*ACTIVE
 70
0
 10
0.0
 20
0.0
 11
1.0
 21
1.0
 12
362.0722014368
 22
512.073542032
 13
0.0
 23
0.0
 14
1.0
 24
1.0
 15
0.0
 25
0.0
 16
0.0
 26
0.0
 36
1.0
 17
0.0
 27
0.0
 37
0.0
 40
1024.147084064
 41
0.7070707071
 42
50.0
 43
0.0
 44
0.0
 50
0.0
 51
0.0
 71
0
 72
100
 73
1
 74
1
 75
0
 76
0
 77
0
 78
0
  0
ENDTAB
  0
TABLE
  2
LTYPE
  5
5
100
AcDbSymbolTable
 70
6
  0
LTYPE
  5
14
100
AcDbSymbolTableRecord
100
AcDbLinetypeTableRecord
  2
BYBLOCK
 70
0
  3

 72
65
 73
0
 40
0.0
  0
LTYPE
  5
15
100
AcDbSymbolTableRecord
100
AcDbLinetypeTableRecord
  2
BYLAYER
 70
0
  3

 72
65
 73
0
 40
0.0
  0
LTYPE
  5
16
100
AcDbSymbolTableRecord
100
AcDbLinetypeTableRecord
  2
CONTINUOUS
 70
64
  3
Solid line
 72
65
 73
0
 40
0.0
  0
LTYPE
  5
1F5
100
AcDbSymbolTableRecord
100
AcDbLinetypeTableRecord
  2
CENTER
 70
64
  3
____ _ ____ _ ____ _ ____ _ ____ _ ____ _ ____
 72
65
 73
4
 40
0.6
 49
0.375
 74
0
 49
-0.075
 74
0
 49
0.075
 74
0
 49
-0.075
 74
0
  0
LTYPE
  5
1F6
100
AcDbSymbolTableRecord
100
AcDbLinetypeTableRecord
  2
HIDDEN
 70
64
  3
- - - - - - - - - - - - - - - - - - - -
 72
65
 73
2
 40
0.2
 49
0.1
 74
0
 49
-0.1
 74
0
  0
LTYPE
  5
1F7
100
AcDbSymbolTableRecord
100
AcDbLinetypeTableRecord
  2
PHANTOM
 70
64
  3
_____ _ _ _____ _ _ _____ _ _ _____
 72
65
 73
6
 40
0.8
 49
0.45
 74
0
 49
-0.05
 74
0
 49
0.1
 74
0
 49
-0.05
 74
0
 49
0.1
 74
0
 49
-0.05
 74
0
  0
LTYPE
  5
1F8
100
AcDbSymbolTableRecord
100
AcDbLinetypeTableRecord
  2
DOT
 70
64
  3
. . . . . . . . . . . . . . . . . . . .
 72
65
 73
2
 40
0.2
 49
0.1
 74
0
 49
-0.1
 74
0
  0
LTYPE
  5
1F9
100
AcDbSymbolTableRecord
100
AcDbLinetypeTableRecord
  2
DASHED
 70
64
  3
- - - - - - - - - - - - - - - - - - - -
 72
65
 73
2
 40
0.2
 49
0.1
 74
0
 49
-0.1
 74
0
  0
ENDTAB
  0
TABLE
  2
LAYER
  5
2
100
AcDbSymbolTable
 70
36
  0
LAYER
  5
10
100
AcDbSymbolTableRecord
100
AcDbLayerTableRecord
  2
0
 70
0
 62
7
  6
CONTINUOUS
370
-3
390
F
  0
LAYER
  5
1FA
100
AcDbSymbolTableRecord
100
AcDbLayerTableRecord
  2
DEFAULT_1
 70
0
 62
7
  6
CENTER
370
-3
390
F
  0
LAYER
  5
1FB
100
AcDbSymbolTableRecord
100
AcDbLayerTableRecord
  2
DEFAULT_2
 70
0
 62
8
  6
HIDDEN
370
-3
390
F
  0
LAYER
  5
1FC
100
AcDbSymbolTableRecord
100
AcDbLayerTableRecord
  2
DEFAULT_3
 70
0
 62
7
  6
PHANTOM
370
-3
390
F
  0
LAYER
  5
1FD
100
AcDbSymbolTableRecord
100
AcDbLayerTableRecord
  2
00_COMPONENTS
 70
0
 62
7
  6
CONTINUOUS
370
-3
390
F
  0
LAYER
  5
1FE
100
AcDbSymbolTableRecord
100
AcDbLayerTableRecord
  2
01_1_DEFAULT_DATUMS
 70
0
 62
7
  6
CONTINUOUS
370
-3
390
F
  0
LAYER
  5
1FF
100
AcDbSymbolTableRecord
100
AcDbLayerTableRecord
  2
01_PLANES
 70
0
 62
7
  6
CONTINUOUS
370
-3
390
F
  0
LAYER
  5
200
100
AcDbSymbolTableRecord
100
AcDbLayerTableRecord
  2
02_COORD_SYS
 70
0
 62
7
  6
CONTINUOUS
370
-3
390
F
  0
LAYER
  5
201
100
AcDbSymbolTableRecord
100
AcDbLayerTableRecord
  2
03_AXES
 70
0
 62
7
  6
CONTINUOUS
370
-3
390
F
  0
LAYER
  5
202
100
AcDbSymbolTableRecord
100
AcDbLayerTableRecord
  2
04_POINTS
 70
0
 62
7
  6
CONTINUOUS
370
-3
390
F
  0
LAYER
  5
203
100
AcDbSymbolTableRecord
100
AcDbLayerTableRecord
  2
05_CURVES
 70
0
 62
7
  6
CONTINUOUS
370
-3
390
F
  0
LAYER
  5
204
100
AcDbSymbolTableRecord
100
AcDbLayerTableRecord
  2
06_SURFS
 70
0
 62
7
  6
CONTINUOUS
370
-3
390
F
  0
LAYER
  5
205
100
AcDbSymbolTableRecord
100
AcDbLayerTableRecord
  2
07_COSMETICS
 70
0
 62
7
  6
CONTINUOUS
370
-3
390
F
  0
LAYER
  5
206
100
AcDbSymbolTableRecord
100
AcDbLayerTableRecord
  2
10_NOTES
 70
0
 62
7
  6
CONTINUOUS
370
-3
390
F
  0
LAYER
  5
207
100
AcDbSymbolTableRecord
100
AcDbLayerTableRecord
  2
11_NOTES_PUB
 70
0
 62
7
  6
CONTINUOUS
370
-3
390
F
  0
LAYER
  5
208
100
AcDbSymbolTableRecord
100
AcDbLayerTableRecord
  2
13_REF_GTOL
 70
0
 62
7
  6
CONTINUOUS
370
-3
390
F
  0
LAYER
  5
209
100
AcDbSymbolTableRecord
100
AcDbLayerTableRecord
  2
16_MISC
 70
0
 62
7
  6
CONTINUOUS
370
-3
390
F
  0
LAYER
  5
20A
100
AcDbSymbolTableRecord
100
AcDbLayerTableRecord
  2
17_NO_PRINT
 70
0
 62
7
  6
CONTINUOUS
370
-3
390
F
  0
LAYER
  5
20B
100
AcDbSymbolTableRecord
100
AcDbLayerTableRecord
  2
18_DATUM_CAMS_JOINTS
 70
0
 62
7
  6
CONTINUOUS
370
-3
390
F
  0
LAYER
  5
20C
100
AcDbSymbolTableRecord
100
AcDbLayerTableRecord
  2
19_DATUM_FUNCTIONAL
 70
0
 62
7
  6
CONTINUOUS
370
-3
390
F
  0
LAYER
  5
20D
100
AcDbSymbolTableRecord
100
AcDbLayerTableRecord
  2
20_DATUM_KINEMATIC_SCHEME
 70
0
 62
7
  6
CONTINUOUS
370
-3
390
F
  0
ENDTAB
  0
TABLE
  2
STYLE
  5
3
100
AcDbSymbolTable
 70
1
  0
STYLE
  5
11
100
AcDbSymbolTableRecord
100
AcDbTextStyleTableRecord
  2
STANDARD
 70
0
 40
0.0
 41
0.8
 50
0.0
 71
0
 42
0.2
  3
txt
  4

  0
STYLE
  5
20E
100
AcDbSymbolTableRecord
100
AcDbTextStyleTableRecord
  2
TEXTSTYLE_1
 70
0
 40
0.0
 41
0.8
 50
0.0
 71
0
 42
0.2
  3
gdt
  4

  0
ENDTAB
  0
TABLE
  2
VIEW
  5
6
100
AcDbSymbolTable
 70
0
  0
ENDTAB
  0
TABLE
  2
UCS
  5
7
100
AcDbSymbolTable
 70
0
  0
ENDTAB
  0
TABLE
  2
APPID
  5
9
100
AcDbSymbolTable
 70
1
  0
APPID
  5
20F
100
AcDbSymbolTableRecord
100
AcDbRegAppTableRecord
  2
ACAD
 70
0
  0
ENDTAB
  0
TABLE
  2
BLOCK_RECORD
  5
1
100
AcDbSymbolTable
 70
0
  0
BLOCK_RECORD
  5
210
100
AcDbSymbolTableRecord
100
AcDbBlockTableRecord
  2
*Model_Space
  0
BLOCK_RECORD
  5
211
100
AcDbSymbolTableRecord
100
AcDbBlockTableRecord
  2
*Paper_Space
  0
BLOCK_RECORD
  5
212
100
AcDbSymbolTableRecord
100
AcDbBlockTableRecord
  2
_FILLED
  0
ENDTAB
  0
TABLE
  2
DIMSTYLE
  5
A
100
AcDbSymbolTable
 70
1
100
AcDbDimStyleTable
 71
0
  0
DIMSTYLE
105
213
100
AcDbSymbolTableRecord
100
AcDbDimStyleTableRecord
  2
STANDARD
 70
0
  3

  4

 40
1.0
 41
8.6207667009
 42
1.0
 43
0.38
 44
1.0
 45
0.0
 46
0.0
 47
0.01
 48
0.01
140
12.0690733812
141
0.09
142
0.0
143
25.4
144
1.0
145
0.0
146
1.0
147
0.625
 71
1
 72
0
 73
0
 74
0
 75
0
 76
0
 77
1
 78
8
 79
2
170
0
171
1
172
0
173
0
174
0
175
0
176
0
177
0
178
0
270
2
179
2
271
2
272
2
273
2
274
2
275
0
280
0
281
0
282
0
283
1
284
8
285
0
286
0
287
3
288
0
340
11
278
46
341
212
342
212
343
212
344
212
  0
ENDTAB
  0
ENDSEC
  0
SECTION
  2
BLOCKS
  0
BLOCK
  5
20
100
AcDbEntity
  8
0
100
AcDbBlockBegin
  2
*Model_Space
 70
0
 10
0.0
 20
0.0
 30
0.0
  3
*Model_Space
  1

  0
ENDBLK
  5
21
100
AcDbEntity
  8
0
100
AcDbBlockEnd
  0
BLOCK
  5
1C
100
AcDbEntity
  8
0
100
AcDbBlockBegin
  2
*Paper_Space
 70
0
 10
0.0
 20
0.0
 30
0.0
  3
*Paper_Space
  1

  0
ENDBLK
  5
1D
100
AcDbEntity
  8
0
100
AcDbBlockEnd
  0
BLOCK
  5
214
100
AcDbEntity
  8
0
100
AcDbBlockBegin
  2
_FILLED
 70
64
 10
0.0
 20
0.0
  3
_FILLED
  1

  0
SOLID
  5
215
100
AcDbEntity
  8
0
  6
BYBLOCK
 62
0
100
AcDbTrace
 10
0.0
 20
0.0
 11
-1.0
 21
0.25
 12
-1.0
 22
-0.25
 13
-1.0
 23
-0.25
  0
ENDBLK
  5
216
100
AcDbEntity
  8
0
  6
BYBLOCK
 62
0
100
AcDbBlockEnd
  0
ENDSEC
  0
SECTION
  2
ENTITIES
  0
LINE
  5
217
100
AcDbEntity
  8
0
100
AcDbLine
 62
7
  6
CONTINUOUS
 10
84.4117618772
 20
439.2166402492
 11
85.7052660367
 21
587.4375358198
  0
LINE
  5
218
100
AcDbEntity
  8
0
100
AcDbLine
 62
7
  6
CONTINUOUS
 10
95.1167662972
 20
577.2550183096
 11
95.2049043058
 21
587.3546337325
  0
LINE
  5
219
100
AcDbEntity
  8
0
100
AcDbLine
 62
7
  6
CONTINUOUS
 10
100.1161951359
 20
577.1677529546
 11
98.9123140138
 21
439.2166402492
  0
LINE
  5
21A
100
AcDbEntity
  8
0
100
AcDbLine
 62
7
  6
CONTINUOUS
 10
133.9834590413
 20
447.2163356338
 11
135.0514920351
 21
569.6007946858
  0
LINE
  5
21B
100
AcDbEntity
  8
0
100
AcDbLine
 62
7
  6
CONTINUOUS
 10
138.1023486291
 20
529.578087708
 11
137.7881933512
 21
493.5794584777
  0
LINE
  5
21C
100
AcDbEntity
  8
0
100
AcDbLine
 62
7
  6
CONTINUOUS
 10
139.3081354743
 20
493.5661941437
 11
139.6222907522
 21
529.5648233741
  0
LINE
  5
21D
100
AcDbEntity
  8
0
100
AcDbLine
 62
7
  6
CONTINUOUS
 10
145.8171925098
 20
497.1442930552
 11
145.8477386424
 21
500.6445331472
  0
LINE
  5
21E
100
AcDbEntity
  8
0
100
AcDbLine
 62
7
  6
CONTINUOUS
 10
145.8600798272
 20
502.0586928607
 11
145.9338247146
 21
510.5090199623
  0
LINE
  5
21F
100
AcDbEntity
  8
0
100
AcDbLine
 62
7
  6
CONTINUOUS
 10
145.9512777856
 20
512.5089438084
 11
146.025022673
 21
520.95927091
  0
LINE
  5
220
100
AcDbEntity
  8
0
100
AcDbLine
 62
7
  6
CONTINUOUS
 10
146.0373638579
 20
522.3734306235
 11
146.0679099904
 21
525.8736707155
  0
LINE
  5
221
100
AcDbEntity
  8
0
100
AcDbLine
 62
7
  6
CONTINUOUS
 10
148.8167749081
 20
497.0833505867
 11
149.0680991305
 21
525.882253971
  0
LINE
  5
222
100
AcDbEntity
  8
0
100
AcDbLine
 62
7
  6
CONTINUOUS
 10
152.020861608
 20
520.4562799799
 11
151.865869307
 21
502.6959214227
  0
LINE
  5
223
100
AcDbEntity
  8
0
100
AcDbLine
 62
7
  6
CONTINUOUS
 10
156.094884852
 20
528.921050184
 11
155.7915414475
 21
494.1613389347
  0
LINE
  5
224
100
AcDbEntity
  8
0
100
AcDbLine
 62
7
  6
CONTINUOUS
 10
157.7914652936
 20
494.1438858637
 11
158.0948086981
 21
528.903597113
  0
LINE
  5
225
100
AcDbEntity
  8
0
100
AcDbLine
 62
7
  6
CONTINUOUS
 10
169.8390043156
 20
499.5389580145
 11
170.0463558296
 21
523.2990881102
  0
LINE
  5
226
100
AcDbEntity
  8
0
100
AcDbLine
 62
7
  6
CONTINUOUS
 10
98.9123140138
 20
439.2166402492
 11
84.4117618772
 21
439.2166402492
  0
LINE
  5
227
100
AcDbEntity
  8
0
100
AcDbLine
 62
7
  6
CONTINUOUS
 10
133.9834590413
 20
447.2163356338
 11
98.9821262978
 21
447.2163356338
  0
LINE
  5
228
100
AcDbEntity
  8
0
100
AcDbLine
 62
7
  6
CONTINUOUS
 10
612.6078181605
 20
469.9687540193
 11
629.0624915931
 21
469.8251562597
  0
LINE
  5
229
100
AcDbEntity
  8
0
100
AcDbLine
 62
7
  6
CONTINUOUS
 10
610.6946515494
 20
477.635741271
 11
612.6745761571
 21
477.6184627307
  0
LINE
  5
22A
100
AcDbEntity
  8
0
100
AcDbLine
 62
7
  6
CONTINUOUS
 10
629.1497569481
 20
479.8247754903
 11
631.8956121711
 21
479.8008127748
  0
LINE
  5
22B
100
AcDbEntity
  8
0
100
AcDbLine
 62
7
  6
CONTINUOUS
 10
629.1531553318
 20
480.2141916896
 11
626.0932718472
 21
480.2408948882
  0
LINE
  5
22C
100
AcDbEntity
  8
0
100
AcDbLine
 62
7
  6
CONTINUOUS
 10
605.1215525067
 20
483.0345806889
 11
610.7413385143
 21
482.9855375594
  0
LINE
  5
22D
100
AcDbEntity
  8
0
100
AcDbLine
 62
7
  6
CONTINUOUS
 10
139.3081354743
 20
493.5661941437
 11
137.7881933512
 21
493.5794584777
  0
LINE
  5
22E
100
AcDbEntity
  8
0
100
AcDbLine
 62
7
  6
CONTINUOUS
 10
157.7914652936
 20
494.1438858637
 11
155.7915414475
 21
494.1613389347
  0
LINE
  5
22F
100
AcDbEntity
  8
0
100
AcDbLine
 62
7
  6
CONTINUOUS
 10
148.8167749081
 20
497.0833505867
 11
139.3395510021
 21
497.1660570668
  0
LINE
  5
230
100
AcDbEntity
  8
0
100
AcDbLine
 62
7
  6
CONTINUOUS
 10
145.8171925098
 20
497.1442930552
 11
148.817078279
 21
497.1181134487
  0
LINE
  5
231
100
AcDbEntity
  8
0
100
AcDbLine
 62
7
  6
CONTINUOUS
 10
151.8884371257
 20
505.281937304
 11
148.8894655685
 21
505.41287523
  0
LINE
  5
232
100
AcDbEntity
  8
0
100
AcDbLine
 62
7
  6
CONTINUOUS
 10
134.436318758
 20
499.1089192753
 11
137.8361892964
 21
499.0792490546
  0
LINE
  5
233
100
AcDbEntity
  8
0
100
AcDbLine
 62
7
  6
CONTINUOUS
 10
148.8380828324
 20
499.5249968697
 11
145.8381970632
 21
499.5511764762
  0
LINE
  5
234
100
AcDbEntity
  8
0
100
AcDbLine
 62
7
  6
CONTINUOUS
 10
169.8390043156
 20
499.5389580145
 11
157.8394612388
 21
499.6436764405
  0
LINE
  5
235
100
AcDbEntity
  8
0
100
AcDbLine
 62
7
  6
CONTINUOUS
 10
148.8476244116
 20
500.6183535407
 11
145.8477386424
 21
500.6445331472
  0
LINE
  5
236
100
AcDbEntity
  8
0
100
AcDbLine
 62
7
  6
CONTINUOUS
 10
145.8600798272
 20
502.0586928607
 11
148.8599655964
 21
502.0325132542
  0
LINE
  5
237
100
AcDbEntity
  8
0
100
AcDbLine
 62
7
  6
CONTINUOUS
 10
155.8657169992
 20
502.6610152807
 11
151.865869307
 21
502.6959214227
  0
LINE
  5
238
100
AcDbEntity
  8
0
100
AcDbLine
 62
7
  6
CONTINUOUS
 10
148.8748180586
 20
503.7344368426
 11
145.8749322894
 21
503.7606164491
  0
LINE
  5
239
100
AcDbEntity
  8
0
100
AcDbLine
 62
7
  6
CONTINUOUS
 10
605.2914256476
 20
502.5001145966
 11
169.8980047262
 21
506.2997354179
  0
LINE
  5
23A
100
AcDbEntity
  8
0
100
AcDbLine
 62
7
  6
CONTINUOUS
 10
148.9337104838
 20
510.4828403558
 11
145.9338247146
 21
510.5090199623
  0
LINE
  5
23B
100
AcDbEntity
  8
0
100
AcDbLine
 62
7
  6
CONTINUOUS
 10
145.9512777856
 20
512.5089438084
 11
148.9511635548
 21
512.4827642019
  0
LINE
  5
23C
100
AcDbEntity
  8
0
100
AcDbLine
 62
7
  6
CONTINUOUS
 10
605.3786910026
 20
512.4997338272
 11
169.9852700811
 21
516.2993546486
  0
LINE
  5
23D
100
AcDbEntity
  8
0
100
AcDbLine
 62
7
  6
CONTINUOUS
 10
151.9982937893
 20
517.8702640986
 11
148.9974938081
 21
517.7916853856
  0
LINE
  5
23E
100
AcDbEntity
  8
0
100
AcDbLine
 62
7
  6
CONTINUOUS
 10
146.0101702109
 20
519.2573473216
 11
149.0100559801
 21
519.2311677151
  0
LINE
  5
23F
100
AcDbEntity
  8
0
100
AcDbLine
 62
7
  6
CONTINUOUS
 10
156.0207093002
 20
520.4213738379
 11
152.020861608
 21
520.4562799799
  0
LINE
  5
240
100
AcDbEntity
  8
0
100
AcDbLine
 62
7
  6
CONTINUOUS
 10
149.0249084422
 20
520.9330913035
 11
146.025022673
 21
520.95927091
  0
LINE
  5
241
100
AcDbEntity
  8
0
100
AcDbLine
 62
7
  6
CONTINUOUS
 10
146.0373638579
 20
522.3734306235
 11
149.0372496271
 21
522.347251017
  0
LINE
  5
242
100
AcDbEntity
  8
0
100
AcDbLine
 62
7
  6
CONTINUOUS
 10
146.046905437
 20
523.4667872945
 11
149.0467912062
 21
523.440607688
  0
LINE
  5
243
100
AcDbEntity
  8
0
100
AcDbLine
 62
7
  6
CONTINUOUS
 10
170.0463558296
 20
523.2990881102
 11
158.0468127529
 21
523.4038065361
  0
LINE
  5
244
100
AcDbEntity
  8
0
100
AcDbLine
 62
7
  6
CONTINUOUS
 10
134.6544821455
 20
524.1079673519
 11
138.0543526839
 21
524.0782971312
  0
LINE
  5
245
100
AcDbEntity
  8
0
100
AcDbLine
 62
7
  6
CONTINUOUS
 10
149.0677957596
 20
525.847491109
 11
146.0679099904
 21
525.8736707155
  0
LINE
  5
246
100
AcDbEntity
  8
0
100
AcDbLine
 62
7
  6
CONTINUOUS
 10
149.0680991305
 20
525.882253971
 11
139.5908752244
 21
525.964960451
  0
LINE
  5
247
100
AcDbEntity
  8
0
100
AcDbLine
 62
7
  6
CONTINUOUS
 10
158.0948086981
 20
528.903597113
 11
156.094884852
 21
528.921050184
  0
LINE
  5
248
100
AcDbEntity
  8
0
100
AcDbLine
 62
7
  6
CONTINUOUS
 10
139.6222907522
 20
529.5648233741
 11
138.1023486291
 21
529.578087708
  0
LINE
  5
249
100
AcDbEntity
  8
0
100
AcDbLine
 62
7
  6
CONTINUOUS
 10
605.5491527461
 20
532.0327149191
 11
611.1689387538
 21
531.9836717896
  0
LINE
  5
24A
100
AcDbEntity
  8
0
100
AcDbLine
 62
7
  6
CONTINUOUS
 10
629.6263180168
 20
534.4332650596
 11
626.5664345323
 21
534.4599682582
  0
LINE
  5
24B
100
AcDbEntity
  8
0
100
AcDbLine
 62
7
  6
CONTINUOUS
 10
629.6297164005
 20
534.8226812589
 11
632.8518556313
 21
534.7945620758
  0
LINE
  5
24C
100
AcDbEntity
  8
0
100
AcDbLine
 62
7
  6
CONTINUOUS
 10
611.2156257187
 20
537.3334680779
 11
613.1955503263
 21
537.3161895377
  0
LINE
  5
24D
100
AcDbEntity
  8
0
100
AcDbLine
 62
7
  6
CONTINUOUS
 10
613.2623083229
 20
544.9658982491
 11
629.7169817555
 21
544.8223004895
  0
LINE
  5
24E
100
AcDbEntity
  8
0
100
AcDbLine
 62
7
  6
CONTINUOUS
 10
100.0554901641
 20
570.2116521706
 11
135.0514920351
 21
569.6007946858
  0
LINE
  5
24F
100
AcDbEntity
  8
0
100
AcDbLine
 62
7
  6
CONTINUOUS
 10
95.1167662972
 20
577.2550183096
 11
100.1161951359
 21
577.1677529546
  0
LINE
  5
250
100
AcDbEntity
  8
0
100
AcDbLine
 62
7
  6
CONTINUOUS
 10
85.663814993
 20
582.6877166852
 11
95.1634532621
 21
582.604814598
  0
LINE
  5
251
100
AcDbEntity
  8
0
100
AcDbLine
 62
7
  6
CONTINUOUS
 10
95.2049043058
 20
587.3546337325
 11
85.7052660367
 21
587.4375358198
  0
LINE
  5
252
100
AcDbEntity
  8
0
100
AcDbLine
 62
7
  6
CONTINUOUS
 10
649.1745550568
 20
537.2413080253
 11
645.685928565
 21
539.1704826998
  0
LINE
  5
253
100
AcDbEntity
  8
0
100
AcDbLine
 62
7
  6
CONTINUOUS
 10
645.685928565
 20
539.1704826998
 11
644.4075346889
 21
537.9956198631
  0
LINE
  5
254
100
AcDbEntity
  8
0
100
AcDbLine
 62
7
  6
CONTINUOUS
 10
605.5491527461
 20
532.0327149191
 11
605.1215525067
 21
483.0345806889
  0
LINE
  5
255
100
AcDbEntity
  8
0
100
AcDbLine
 62
7
  6
CONTINUOUS
 10
611.2156257187
 20
537.3334680779
 11
610.6946515494
 21
477.635741271
  0
LINE
  5
256
100
AcDbEntity
  8
0
100
AcDbLine
 62
7
  6
CONTINUOUS
 10
631.94399067
 20
532.5157569169
 11
631.9370481847
 21
531.3334384948
  0
LINE
  5
257
100
AcDbEntity
  8
0
100
AcDbLine
 62
7
  6
CONTINUOUS
 10
613.2623083229
 20
544.9658982491
 11
612.6078181605
 21
469.9687540193
  0
LINE
  5
258
100
AcDbEntity
  8
0
100
AcDbLine
 62
7
  6
CONTINUOUS
 10
626.6570982709
 20
544.8490036881
 11
626.0026081085
 21
469.8518594583
  0
LINE
  5
259
100
AcDbEntity
  8
0
100
AcDbLine
 62
7
  6
CONTINUOUS
 10
629.0624915931
 20
469.8251562597
 11
629.1531553318
 21
480.2141916896
  0
LINE
  5
25A
100
AcDbEntity
  8
0
100
AcDbLine
 62
7
  6
CONTINUOUS
 10
629.6263180168
 20
534.4332650596
 11
629.7169817555
 21
544.8223004895
  0
LINE
  5
25B
100
AcDbEntity
  8
0
100
AcDbLine
 62
7
  6
CONTINUOUS
 10
631.8226565544
 20
518.6122569066
 11
631.8467627542
 21
520.9875887066
  0
LINE
  5
25C
100
AcDbEntity
  8
0
100
AcDbLine
 62
7
  6
CONTINUOUS
 10
639.9439025114
 20
475.6690088998
 11
640.1404874191
 21
498.1954081067
  0
LINE
  5
25D
100
AcDbEntity
  8
0
100
AcDbLine
 62
7
  6
CONTINUOUS
 10
640.4449291882
 20
533.0809794752
 11
640.4946609027
 21
538.779669501
  0
LINE
  5
25E
100
AcDbEntity
  8
0
100
AcDbLine
 62
7
  6
CONTINUOUS
 10
645.685928565
 20
539.1704826998
 11
645.6734620121
 21
537.7419572321
  0
LINE
  5
25F
100
AcDbEntity
  8
0
100
AcDbLine
 62
7
  6
CONTINUOUS
 10
656.6617080973
 20
536.8937966837
 11
656.5287577163
 21
521.6591919856
  0
LINE
  5
260
100
AcDbEntity
  8
0
100
AcDbLine
 62
7
  6
CONTINUOUS
 10
656.518877339
 20
520.5270128944
 11
656.4582637515
 21
513.5813837202
  0
LINE
  5
261
100
AcDbEntity
  8
0
100
AcDbLine
 62
7
  6
CONTINUOUS
 10
656.4483833743
 20
512.449204629
 11
656.3877697867
 21
505.5035754547
  0
LINE
  5
262
100
AcDbEntity
  8
0
100
AcDbLine
 62
7
  6
CONTINUOUS
 10
656.3778894095
 20
504.3713963635
 11
656.2449390284
 21
489.1367916654
  0
LINE
  5
263
100
AcDbEntity
  8
0
100
AcDbLine
 62
7
  6
CONTINUOUS
 10
659.2675279539
 20
477.1460736602
 11
659.7893770367
 21
536.9440556294
  0
SPLINE
  5
264
100
AcDbEntity
  8
0
100
AcDbSpline
 62
7
  6
CONTINUOUS
 70
0
 71
3
 72
13
 73
9
 74
0
 42
0.0000001
 43
0.0000001
 44
0.0000000001
 40
0.0
 40
0.0
 40
0.0
 40
0.0
 40
0.3356978666
 40
0.6265682064
 40
0.7487691848
 40
0.8523429792
 40
0.9360009846
 40
1.0
 40
1.0
 40
1.0
 40
1.0
 10
640.4449291882
 20
533.0809794752
 30
0.0
 10
639.5925049928
 20
533.2631552072
 30
0.0
 10
638.006526174
 20
533.6271897361
 30
0.0
 10
636.1223725717
 20
534.1071424739
 30
0.0
 10
634.8222718654
 20
534.4376870083
 30
0.0
 10
634.0405001239
 20
534.6240354704
 30
0.0
 10
633.4005370235
 20
534.7503117303
 30
0.0
 10
633.0180322619
 20
534.7931036377
 30
0.0
 10
632.851858683
 20
534.7945596889
 30
0.0
  0
SPLINE
  5
265
100
AcDbEntity
  8
0
100
AcDbSpline
 62
7
  6
CONTINUOUS
 70
0
 71
3
 72
16
 73
12
 74
0
 42
0.0000001
 43
0.0000001
 44
0.0000000001
 40
0.0
 40
0.0
 40
0.0
 40
0.0
 40
0.1045933981
 40
0.1627389573
 40
0.2247001281
 40
0.3576268931
 40
0.4979327495
 40
0.6383911569
 40
0.7719041326
 40
0.8928979104
 40
1.0
 40
1.0
 40
1.0
 40
1.0
 10
648.1055078273
 20
521.6545603261
 30
0.0
 10
648.1021422406
 20
521.2689022864
 30
0.0
 10
648.2695360174
 20
520.6627272483
 30
0.0
 10
648.7190424725
 20
519.9644966208
 30
0.0
 10
649.3581247414
 20
519.2779471472
 30
0.0
 10
650.4145982821
 20
518.5967811037
 30
0.0
 10
651.8972967379
 20
518.1617069199
 30
0.0
 10
653.4470038788
 20
518.1601023254
 30
0.0
 10
654.8614054473
 20
518.5970655269
 30
0.0
 10
655.9634149594
 20
519.3946057607
 30
0.0
 10
656.4117313397
 20
520.1469023411
 30
0.0
 10
656.518877339
 20
520.5270128944
 30
0.0
  0
SPLINE
  5
266
100
AcDbEntity
  8
0
100
AcDbSpline
 62
7
  6
CONTINUOUS
 70
0
 71
3
 72
16
 73
12
 74
0
 42
0.0000001
 43
0.0000001
 44
0.0000000001
 40
0.0
 40
0.0
 40
0.0
 40
0.0
 40
0.1045933981
 40
0.1627389573
 40
0.2247001281
 40
0.3576268931
 40
0.4979327495
 40
0.6383911569
 40
0.7719041326
 40
0.8928979104
 40
1.0
 40
1.0
 40
1.0
 40
1.0
 10
648.0350138625
 20
513.5767520606
 30
0.0
 10
648.0316482758
 20
513.1910940209
 30
0.0
 10
648.1990420526
 20
512.5849189828
 30
0.0
 10
648.6485485077
 20
511.8866883554
 30
0.0
 10
649.2876307767
 20
511.2001388818
 30
0.0
 10
650.3441043173
 20
510.5189728382
 30
0.0
 10
651.8268027731
 20
510.0838986545
 30
0.0
 10
653.376509914
 20
510.0822940599
 30
0.0
 10
654.7909114825
 20
510.5192572615
 30
0.0
 10
655.8929209946
 20
511.3167974953
 30
0.0
 10
656.3412373749
 20
512.0690940756
 30
0.0
 10
656.4483833743
 20
512.449204629
 30
0.0
  0
SPLINE
  5
267
100
AcDbEntity
  8
0
100
AcDbSpline
 62
7
  6
CONTINUOUS
 70
0
 71
3
 72
16
 73
12
 74
0
 42
0.0000001
 43
0.0000001
 44
0.0000000001
 40
0.0
 40
0.0
 40
0.0
 40
0.0
 40
0.1045933981
 40
0.1627389573
 40
0.2247001281
 40
0.3576268931
 40
0.4979327495
 40
0.6383911569
 40
0.7719041326
 40
0.8928979104
 40
1.0
 40
1.0
 40
1.0
 40
1.0
 10
647.9645198977
 20
505.4989437952
 30
0.0
 10
647.961154311
 20
505.1132857555
 30
0.0
 10
648.1285480879
 20
504.5071107174
 30
0.0
 10
648.5780545429
 20
503.8088800899
 30
0.0
 10
649.2171368119
 20
503.1223306163
 30
0.0
 10
650.2736103526
 20
502.4411645728
 30
0.0
 10
651.7563088084
 20
502.006090389
 30
0.0
 10
653.3060159493
 20
502.0044857945
 30
0.0
 10
654.7204175177
 20
502.441448996
 30
0.0
 10
655.8224270299
 20
503.2389892298
 30
0.0
 10
656.2707434102
 20
503.9912858102
 30
0.0
 10
656.3778894095
 20
504.3713963635
 30
0.0
  0
SPLINE
  5
268
100
AcDbEntity
  8
0
100
AcDbSpline
 62
7
  6
CONTINUOUS
 70
0
 71
3
 72
11
 73
7
 74
0
 42
0.0000001
 43
0.0000001
 44
0.0000000001
 40
0.0
 40
0.0
 40
0.0
 40
0.0
 40
0.2382423937
 40
0.4876801234
 40
0.7428042278
 40
1.0
 40
1.0
 40
1.0
 40
1.0
 10
640.4946609027
 20
538.779669501
 30
0.0
 10
641.7495916703
 20
538.4552677245
 30
0.0
 10
644.3430283146
 20
537.8835344261
 30
0.0
 10
648.3410388183
 20
537.2755271356
 30
0.0
 10
652.4730853319
 20
536.9184159136
 30
0.0
 10
655.2625905925
 20
536.8712122139
 30
0.0
 10
656.6617080973
 20
536.8937966837
 30
0.0
  0
SPLINE
  5
269
100
AcDbEntity
  8
0
100
AcDbSpline
 62
7
  6
CONTINUOUS
 70
0
 71
3
 72
9
 73
5
 74
0
 42
0.0000001
 43
0.0000001
 44
0.0000000001
 40
0.0
 40
0.0
 40
0.0
 40
0.0
 40
0.2994274498
 40
1.0
 40
1.0
 40
1.0
 40
1.0
 10
631.8460709415
 20
520.9875979208
 30
0.0
 10
631.8565762531
 20
522.0201946253
 30
0.0
 10
631.8904981049
 20
525.4687754545
 30
0.0
 10
631.9215093834
 20
528.9173950347
 30
0.0
 10
631.9363578104
 20
531.333448346
 30
0.0
  0
SPLINE
  5
26A
100
AcDbEntity
  8
0
100
AcDbSpline
 62
7
  6
CONTINUOUS
 70
0
 71
3
 72
12
 73
8
 74
0
 42
0.0000001
 43
0.0000001
 44
0.0000000001
 40
0.0
 40
0.0
 40
0.0
 40
0.0
 40
0.25203839
 40
0.3827356644
 40
0.5136558234
 40
0.7674007022
 40
1.0
 40
1.0
 40
1.0
 40
1.0
 10
649.4906569402
 20
511.1383013892
 30
0.0
 10
649.9294763716
 20
511.4497828226
 30
0.0
 10
650.6816006466
 20
511.8119484187
 30
0.0
 10
651.7531486938
 20
512.0577005839
 30
0.0
 10
652.8543651349
 20
512.1398637142
 30
0.0
 10
654.1787104851
 20
511.9361204439
 30
0.0
 10
655.1206628386
 20
511.4369856108
 30
0.0
 10
655.5014927542
 20
511.1182306485
 30
0.0
  0
SPLINE
  5
26B
100
AcDbEntity
  8
0
100
AcDbSpline
 62
7
  6
CONTINUOUS
 70
0
 71
3
 72
12
 73
8
 74
0
 42
0.0000001
 43
0.0000001
 44
0.0000000001
 40
0.0
 40
0.0
 40
0.0
 40
0.0
 40
0.25203839
 40
0.3827356644
 40
0.5136558234
 40
0.7674007022
 40
1.0
 40
1.0
 40
1.0
 40
1.0
 10
649.4201629754
 20
503.0604931237
 30
0.0
 10
649.8589824068
 20
503.3719745571
 30
0.0
 10
650.6111066819
 20
503.7341401532
 30
0.0
 10
651.682654729
 20
503.9798923185
 30
0.0
 10
652.7838711701
 20
504.0620554488
 30
0.0
 10
654.1082165203
 20
503.8583121784
 30
0.0
 10
655.0501688739
 20
503.3591773454
 30
0.0
 10
655.4309987894
 20
503.0404223831
 30
0.0
  0
SPLINE
  5
26C
100
AcDbEntity
  8
0
100
AcDbSpline
 62
7
  6
CONTINUOUS
 70
0
 71
3
 72
13
 73
9
 74
0
 42
0.0000001
 43
0.0000001
 44
0.0000000001
 40
0.0
 40
0.0
 40
0.0
 40
0.0
 40
0.3317307761
 40
0.6224636898
 40
0.7456930438
 40
0.8505609596
 40
0.9353541628
 40
1.0
 40
1.0
 40
1.0
 40
1.0
 10
639.993649503
 20
481.3694495114
 30
0.0
 10
639.0953703922
 20
481.2079880216
 30
0.0
 10
637.4141079645
 20
480.880670037
 30
0.0
 10
635.4102392091
 20
480.4403470823
 30
0.0
 10
634.0167169694
 20
480.1313667086
 30
0.0
 10
633.1738476911
 20
479.9554389025
 30
0.0
 10
632.4843736103
 20
479.8370029714
 30
0.0
 10
632.0734678448
 20
479.7992688875
 30
0.0
 10
631.8956176149
 20
479.8008144002
 30
0.0
  0
SPLINE
  5
26D
100
AcDbEntity
  8
0
100
AcDbSpline
 62
7
  6
CONTINUOUS
 70
0
 71
3
 72
11
 73
7
 74
0
 42
0.0000001
 43
0.0000001
 44
0.0000000001
 40
0.0
 40
0.0
 40
0.0
 40
0.0
 40
0.2562686836
 40
0.5107279167
 40
0.7602857846
 40
1.0
 40
1.0
 40
1.0
 40
1.0
 10
656.8068035742
 20
477.215769987
 30
0.0
 10
655.3575292788
 20
477.256870847
 30
0.0
 10
652.465919394
 20
477.2529870106
 30
0.0
 10
648.1706308418
 20
476.9804157525
 30
0.0
 10
643.9920591387
 20
476.466666108
 30
0.0
 10
641.2681636277
 20
475.9615976612
 30
0.0
 10
639.9439025114
 20
475.6690088998
 30
0.0
  0
SPLINE
  5
26E
100
AcDbEntity
  8
0
100
AcDbSpline
 62
7
  6
CONTINUOUS
 70
0
 71
3
 72
11
 73
7
 74
0
 42
0.0000001
 43
0.0000001
 44
0.0000000001
 40
0.0
 40
0.0
 40
0.0
 40
0.0
 40
0.2419206388
 40
0.4920090788
 40
0.7454108971
 40
1.0
 40
1.0
 40
1.0
 40
1.0
 10
648.5270362173
 20
520.2713814905
 30
0.0
 10
648.7069590797
 20
520.6153098304
 30
0.0
 10
649.1552412645
 20
521.2744140862
 30
0.0
 10
650.0417725357
 20
522.0940504723
 30
0.0
 10
651.1350219198
 20
522.6642263468
 30
0.0
 10
651.9571671484
 20
522.798953883
 30
0.0
 10
652.3656255242
 20
522.7953893208
 30
0.0
  0
SPLINE
  5
26F
100
AcDbEntity
  8
0
100
AcDbSpline
 62
7
  6
CONTINUOUS
 70
0
 71
3
 72
11
 73
7
 74
0
 42
0.0000001
 43
0.0000001
 44
0.0000000001
 40
0.0
 40
0.0
 40
0.0
 40
0.0
 40
0.2551978823
 40
0.5091178543
 40
0.7592569137
 40
1.0
 40
1.0
 40
1.0
 40
1.0
 10
652.3656255242
 20
522.7953893208
 30
0.0
 10
652.789373082
 20
522.7916913319
 30
0.0
 10
653.6398876499
 20
522.6311574625
 30
0.0
 10
654.7529357844
 20
522.0009743629
 30
0.0
 10
655.6349198719
 20
521.1166535204
 30
0.0
 10
656.0665976506
 20
520.4150937109
 30
0.0
 10
656.2330099216
 20
520.0516162399
 30
0.0
  0
SPLINE
  5
270
100
AcDbEntity
  8
0
100
AcDbSpline
 62
7
  6
CONTINUOUS
 70
0
 71
3
 72
11
 73
7
 74
0
 42
0.0000001
 43
0.0000001
 44
0.0000000001
 40
0.0
 40
0.0
 40
0.0
 40
0.0
 40
0.2551978823
 40
0.5091178543
 40
0.7592569137
 40
1.0
 40
1.0
 40
1.0
 40
1.0
 10
652.2951315595
 20
514.7175810553
 30
0.0
 10
652.7188791172
 20
514.7138830664
 30
0.0
 10
653.5693936851
 20
514.5533491971
 30
0.0
 10
654.6824418196
 20
513.9231660975
 30
0.0
 10
655.5644259071
 20
513.038845255
 30
0.0
 10
655.9961036858
 20
512.3372854454
 30
0.0
 10
656.1625159568
 20
511.9738079744
 30
0.0
  0
SPLINE
  5
271
100
AcDbEntity
  8
0
100
AcDbSpline
 62
7
  6
CONTINUOUS
 70
0
 71
3
 72
11
 73
7
 74
0
 42
0.0000001
 43
0.0000001
 44
0.0000000001
 40
0.0
 40
0.0
 40
0.0
 40
0.0
 40
0.2419206388
 40
0.4920090788
 40
0.7454108971
 40
1.0
 40
1.0
 40
1.0
 40
1.0
 10
648.4565422525
 20
512.1935732251
 30
0.0
 10
648.6364651149
 20
512.537501565
 30
0.0
 10
649.0847472997
 20
513.1966058207
 30
0.0
 10
649.9712785709
 20
514.0162422068
 30
0.0
 10
651.064527955
 20
514.5864180813
 30
0.0
 10
651.8866731836
 20
514.7211456176
 30
0.0
 10
652.2951315595
 20
514.7175810553
 30
0.0
  0
SPLINE
  5
272
100
AcDbEntity
  8
0
100
AcDbSpline
 62
7
  6
CONTINUOUS
 70
0
 71
3
 72
11
 73
7
 74
0
 42
0.0000001
 43
0.0000001
 44
0.0000000001
 40
0.0
 40
0.0
 40
0.0
 40
0.0
 40
0.2551978823
 40
0.5091178543
 40
0.7592569137
 40
1.0
 40
1.0
 40
1.0
 40
1.0
 10
652.2246375947
 20
506.6397727899
 30
0.0
 10
652.6483851524
 20
506.636074801
 30
0.0
 10
653.4988997204
 20
506.4755409316
 30
0.0
 10
654.6119478548
 20
505.845357832
 30
0.0
 10
655.4939319424
 20
504.9610369895
 30
0.0
 10
655.925609721
 20
504.25947718
 30
0.0
 10
656.092021992
 20
503.895999709
 30
0.0
  0
SPLINE
  5
273
100
AcDbEntity
  8
0
100
AcDbSpline
 62
7
  6
CONTINUOUS
 70
0
 71
3
 72
11
 73
7
 74
0
 42
0.0000001
 43
0.0000001
 44
0.0000000001
 40
0.0
 40
0.0
 40
0.0
 40
0.0
 40
0.2419206388
 40
0.4920090788
 40
0.7454108971
 40
1.0
 40
1.0
 40
1.0
 40
1.0
 10
648.3860482877
 20
504.1157649596
 30
0.0
 10
648.5659711501
 20
504.4596932995
 30
0.0
 10
649.0142533349
 20
505.1187975553
 30
0.0
 10
649.9007846061
 20
505.9384339414
 30
0.0
 10
650.9940339902
 20
506.5086098159
 30
0.0
 10
651.8161792189
 20
506.6433373521
 30
0.0
 10
652.2246375947
 20
506.6397727899
 30
0.0
  0
SPLINE
  5
274
100
AcDbEntity
  8
0
100
AcDbSpline
 62
7
  6
CONTINUOUS
 70
0
 71
3
 72
11
 73
7
 74
0
 42
0.0000001
 43
0.0000001
 44
0.0000000001
 40
0.0
 40
0.0
 40
0.0
 40
0.0
 40
0.2518871786
 40
0.5030635467
 40
0.7526357869
 40
1.0
 40
1.0
 40
1.0
 40
1.0
 10
656.2449390284
 20
489.1367916654
 30
0.0
 10
654.8462607983
 20
489.0920379033
 30
0.0
 10
652.0452851068
 20
489.1535536146
 30
0.0
 10
647.8938284222
 20
489.7242289261
 30
0.0
 10
643.8620359465
 20
490.7743095828
 30
0.0
 10
641.3032916322
 20
491.849907526
 30
0.0
 10
640.0907557047
 20
492.4967180808
 30
0.0
  0
SPLINE
  5
275
100
AcDbEntity
  8
0
100
AcDbSpline
 62
7
  6
CONTINUOUS
 70
0
 71
3
 72
15
 73
11
 74
0
 42
0.0000001
 43
0.0000001
 44
0.0000000001
 40
0.0
 40
0.0
 40
0.0
 40
0.0
 40
0.1255389615
 40
0.2512217377
 40
0.3775611906
 40
0.5047097696
 40
0.6319602456
 40
0.7579376245
 40
0.8811128634
 40
1.0
 40
1.0
 40
1.0
 40
1.0
 10
640.1404874191
 20
498.1954081067
 30
0.0
 10
639.2920861629
 20
498.6861852494
 30
0.0
 10
637.659411576
 20
499.7893485064
 30
0.0
 10
635.5236974065
 20
501.8458507828
 30
0.0
 10
633.8358989729
 20
504.305065048
 30
0.0
 10
632.6931171623
 20
507.0704091394
 30
0.0
 10
632.0652513469
 20
509.9859799049
 30
0.0
 10
631.8395581815
 20
512.9207487058
 30
0.0
 10
631.802198639
 20
515.7942339025
 30
0.0
 10
631.814511476
 20
517.6840998623
 30
0.0
 10
631.8226371793
 20
518.6122571623
 30
0.0
  0
SPLINE
  5
276
100
AcDbEntity
  8
0
100
AcDbSpline
 62
7
  6
CONTINUOUS
 70
0
 71
3
 72
19
 73
15
 74
0
 42
0.0000001
 43
0.0000001
 44
0.0000000001
 40
0.0
 40
0.0
 40
0.0
 40
0.0
 40
0.0532565499
 40
0.1095764665
 40
0.1699417763
 40
0.2346677133
 40
0.3748378631
 40
0.5217035064
 40
0.662957948
 40
0.7283812463
 40
0.7893149684
 40
0.8980485547
 40
0.9489998018
 40
1.0
 40
1.0
 40
1.0
 40
1.0
 10
656.4582637515
 20
513.5813837202
 30
0.0
 10
656.4093506346
 20
513.7638490884
 30
0.0
 10
656.2581960622
 20
514.1271477932
 30
0.0
 10
655.8995590562
 20
514.6173623263
 30
0.0
 10
655.4195223972
 20
515.0517053112
 30
0.0
 10
654.6206538998
 20
515.5557516815
 30
0.0
 10
653.4296098553
 20
515.9773896935
 30
0.0
 10
651.9107294692
 20
516.1547598501
 30
0.0
 10
650.6494466479
 20
516.0272380175
 30
0.0
 10
649.7408357111
 20
515.7393233382
 30
0.0
 10
648.9939505972
 20
515.3655094302
 30
0.0
 10
648.3946997227
 20
514.81209479
 30
0.0
 10
648.0877766222
 20
514.1210279465
 30
0.0
 10
648.0365925285
 20
513.757649269
 30
0.0
 10
648.0350138625
 20
513.5767520606
 30
0.0
  0
SPLINE
  5
277
100
AcDbEntity
  8
0
100
AcDbSpline
 62
7
  6
CONTINUOUS
 70
0
 71
3
 72
19
 73
15
 74
0
 42
0.0000001
 43
0.0000001
 44
0.0000000001
 40
0.0
 40
0.0
 40
0.0
 40
0.0
 40
0.0532565499
 40
0.1095764665
 40
0.1699417763
 40
0.2346677133
 40
0.3748378631
 40
0.5217035064
 40
0.662957948
 40
0.7283812463
 40
0.7893149684
 40
0.8980485547
 40
0.9489998018
 40
1.0
 40
1.0
 40
1.0
 40
1.0
 10
656.5287577163
 20
521.6591919856
 30
0.0
 10
656.4798445994
 20
521.8416573538
 30
0.0
 10
656.328690027
 20
522.2049560586
 30
0.0
 10
655.970053021
 20
522.6951705918
 30
0.0
 10
655.490016362
 20
523.1295135767
 30
0.0
 10
654.6911478646
 20
523.633559947
 30
0.0
 10
653.50010382
 20
524.0551979589
 30
0.0
 10
651.981223434
 20
524.2325681156
 30
0.0
 10
650.7199406126
 20
524.1050462829
 30
0.0
 10
649.8113296759
 20
523.8171316036
 30
0.0
 10
649.064444562
 20
523.4433176957
 30
0.0
 10
648.4651936874
 20
522.8899030555
 30
0.0
 10
648.1582705869
 20
522.1988362119
 30
0.0
 10
648.1070864933
 20
521.8354575345
 30
0.0
 10
648.1055078273
 20
521.6545603261
 30
0.0
  0
SPLINE
  5
278
100
AcDbEntity
  8
0
100
AcDbSpline
 62
7
  6
CONTINUOUS
 70
0
 71
3
 72
15
 73
11
 74
0
 42
0.0000001
 43
0.0000001
 44
0.0000000001
 40
0.0
 40
0.0
 40
0.0
 40
0.0
 40
0.1192070647
 40
0.210642729
 40
0.2935885561
 40
0.388312632
 40
0.5045901619
 40
0.6451466532
 40
0.8103750437
 40
1.0
 40
1.0
 40
1.0
 40
1.0
 10
632.851858683
 20
534.7945596889
 30
0.0
 10
632.7401154932
 20
534.7955388085
 30
0.0
 10
632.5415200762
 20
534.7844844438
 30
0.0
 10
632.2768441684
 20
534.6811298225
 30
0.0
 10
632.1111461482
 20
534.4786768509
 30
0.0
 10
632.0286513751
 20
534.2124103585
 30
0.0
 10
631.9837250318
 20
533.8856573915
 30
0.0
 10
631.9606604244
 20
533.490403041
 30
0.0
 10
631.9492611066
 20
533.0261512614
 30
0.0
 10
631.945511329
 20
532.693509458
 30
0.0
 10
631.9439713809
 20
532.5157572771
 30
0.0
  0
SPLINE
  5
279
100
AcDbEntity
  8
0
100
AcDbSpline
 62
7
  6
CONTINUOUS
 70
0
 71
3
 72
10
 73
6
 74
0
 42
0.0000001
 43
0.0000001
 44
0.0000000001
 40
0.0
 40
0.0
 40
0.0
 40
0.0
 40
0.2105070834
 40
0.4512530257
 40
1.0
 40
1.0
 40
1.0
 40
1.0
 10
655.2812965602
 20
505.1051184542
 30
0.0
 10
655.0764462584
 20
505.1789180743
 30
0.0
 10
654.6232347728
 20
505.2978025005
 30
0.0
 10
653.600335588
 20
505.4558046761
 30
0.0
 10
652.7822826431
 20
505.4968483271
 30
0.0
 10
652.2147066696
 20
505.5018014876
 30
0.0
  0
SPLINE
  5
27A
100
AcDbEntity
  8
0
100
AcDbSpline
 62
7
  6
CONTINUOUS
 70
0
 71
3
 72
10
 73
6
 74
0
 42
0.0000001
 43
0.0000001
 44
0.0000000001
 40
0.0
 40
0.0
 40
0.0
 40
0.0
 40
0.2105070834
 40
0.4512530257
 40
1.0
 40
1.0
 40
1.0
 40
1.0
 10
655.3517905249
 20
513.1829267197
 30
0.0
 10
655.1469402232
 20
513.2567263398
 30
0.0
 10
654.6937287376
 20
513.375610766
 30
0.0
 10
653.6708295528
 20
513.5336129416
 30
0.0
 10
652.8527766079
 20
513.5746565926
 30
0.0
 10
652.2852006344
 20
513.5796097531
 30
0.0
  0
SPLINE
  5
27B
100
AcDbEntity
  8
0
100
AcDbSpline
 62
7
  6
CONTINUOUS
 70
0
 71
3
 72
10
 73
6
 74
0
 42
0.0000001
 43
0.0000001
 44
0.0000000001
 40
0.0
 40
0.0
 40
0.0
 40
0.0
 40
0.5546762529
 40
0.7938815644
 40
1.0
 40
1.0
 40
1.0
 40
1.0
 10
652.2852006344
 20
513.5796097531
 30
0.0
 10
651.679911901
 20
513.5848920278
 30
0.0
 10
650.8108739867
 20
513.5550155337
 30
0.0
 10
649.7309694724
 20
513.3919308383
 30
0.0
 10
649.2601456143
 20
513.2609096066
 30
0.0
 10
649.0514142524
 20
513.1770834628
 30
0.0
  0
SPLINE
  5
27C
100
AcDbEntity
  8
0
100
AcDbSpline
 62
7
  6
CONTINUOUS
 70
0
 71
3
 72
19
 73
15
 74
0
 42
0.0000001
 43
0.0000001
 44
0.0000000001
 40
0.0
 40
0.0
 40
0.0
 40
0.0
 40
0.0532565499
 40
0.1095764665
 40
0.1699417763
 40
0.2346677133
 40
0.3748378631
 40
0.5217035064
 40
0.662957948
 40
0.7283812463
 40
0.7893149684
 40
0.8980485547
 40
0.9489998018
 40
1.0
 40
1.0
 40
1.0
 40
1.0
 10
656.3877697867
 20
505.5035754547
 30
0.0
 10
656.3388566698
 20
505.6860408229
 30
0.0
 10
656.1877020975
 20
506.0493395277
 30
0.0
 10
655.8290650915
 20
506.5395540609
 30
0.0
 10
655.3490284324
 20
506.9738970458
 30
0.0
 10
654.550159935
 20
507.4779434161
 30
0.0
 10
653.3591158905
 20
507.899581428
 30
0.0
 10
651.8402355044
 20
508.0769515847
 30
0.0
 10
650.5789526831
 20
507.949429752
 30
0.0
 10
649.6703417463
 20
507.6615150727
 30
0.0
 10
648.9234566324
 20
507.2877011648
 30
0.0
 10
648.3242057579
 20
506.7342865246
 30
0.0
 10
648.0172826574
 20
506.043219681
 30
0.0
 10
647.9660985638
 20
505.6798410036
 30
0.0
 10
647.9645198977
 20
505.4989437952
 30
0.0
  0
SPLINE
  5
27D
100
AcDbEntity
  8
0
100
AcDbSpline
 62
7
  6
CONTINUOUS
 70
0
 71
3
 72
10
 73
6
 74
0
 42
0.0000001
 43
0.0000001
 44
0.0000000001
 40
0.0
 40
0.0
 40
0.0
 40
0.0
 40
0.5546762529
 40
0.7938815644
 40
1.0
 40
1.0
 40
1.0
 40
1.0
 10
652.2147066696
 20
505.5018014876
 30
0.0
 10
651.6094179363
 20
505.5070837624
 30
0.0
 10
650.7403800219
 20
505.4772072682
 30
0.0
 10
649.6604755076
 20
505.3141225728
 30
0.0
 10
649.1896516495
 20
505.1831013411
 30
0.0
 10
648.9809202877
 20
505.0992751974
 30
0.0
  0
ELLIPSE
  5
27E
100
AcDbEntity
  8
0
100
AcDbEllipse
 62
7
  6
CONTINUOUS
 10
475.7126982372
 20
508.6648475715
 30
0.0
 11
759.5754294903
 21
18.3091672745
 31
0.0
 40
0.0323407027
 41
1.325238238
 42
1.3294801707
  0
ELLIPSE
  5
27F
100
AcDbEntity
  8
0
100
AcDbEllipse
 62
7
  6
CONTINUOUS
 10
426.0660926982
 20
509.0981069343
 30
0.0
 11
957.6322218985
 21
-33.2853195524
 31
0.0
 40
0.0256491185
 41
-1.3265611757
 42
-1.3239127065
  0
ELLIPSE
  5
280
100
AcDbEntity
  8
0
100
AcDbEllipse
 62
7
  6
CONTINUOUS
 10
652.2089052015
 20
504.8370190928
 30
0.0
 11
4.2478789365
 21
0.2373083594
 31
0.0
 40
0.7009588934
 41
6.047135438
 42
6.4287002112
  0
ELLIPSE
  5
281
100
AcDbEntity
  8
0
100
AcDbEllipse
 62
7
  6
CONTINUOUS
 10
652.2793991663
 20
512.9148273582
 30
0.0
 11
4.2478789365
 21
0.2373083594
 31
0.0
 40
0.7009588934
 41
6.047135438
 42
6.4287002112
  0
ELLIPSE
  5
282
100
AcDbEntity
  8
0
100
AcDbEllipse
 62
7
  6
CONTINUOUS
 10
475.7126982372
 20
508.6648475715
 30
0.0
 11
759.5754294903
 21
18.3091672745
 31
0.0
 40
0.0323407027
 41
-1.3316041941
 42
-1.3273622615
  0
ELLIPSE
  5
283
100
AcDbEntity
  8
0
100
AcDbEllipse
 62
7
  6
CONTINUOUS
 10
652.3498931311
 20
520.9926356237
 30
0.0
 11
4.2478789365
 21
0.2373083594
 31
0.0
 40
0.7009588934
 41
6.047135438
 42
6.4287002112
  0
ENDSEC
  0
SECTION
  2
OBJECTS
  0
DICTIONARY
  5
C
100
AcDbDictionary
280
0
281
1
  3
ACAD_GROUP
350
D
  3
ACAD_MLINESTYLE
350
17
  3
ACAD_LAYOUT
350
1A
  3
ACAD_PLOTSETTINGS
350
19
  3
ACAD_PLOTSTYLENAME
350
E
  0
DICTIONARY
  5
D
102
{ACAD_REACTORS
330
C
102
}
100
AcDbDictionary
280
0
281
1
  0
ACDBDICTIONARYWDFLT
  5
E
102
{ACAD_REACTORS
330
C
102
}
100
AcDbDictionary
281
1
  3
Normal
350
F
100
AcDbDictionaryWithDefault
340
F
  0
DICTIONARY
  5
17
102
{ACAD_REACTORS
330
C
102
}
100
AcDbDictionary
280
0
281
1
  3
Standard
350
18
  0
DICTIONARY
  5
19
102
{ACAD_REACTORS
330
C
102
}
100
AcDbDictionary
281
1
  0
DICTIONARY
  5
1A
102
{ACAD_REACTORS
330
C
102
}
100
AcDbDictionary
281
1
  3
Model
350
284
  3
Layout1
350
285
  0
ACDBPLACEHOLDER
  5
F
102
{ACAD_REACTORS
330
E
102
}
  0
MLINESTYLE
  5
18
102
{ACAD_REACTORS
330
17
102
}
100
AcDbMlineStyle
  2
STANDARD
 70
0
  3

 62
256
 51
90.0
 52
90.0
 71
2
 49
0.5
 62
256
  6
BYLAYER
 49
-0.5
 62
256
  6
BYLAYER
  0
LAYOUT
  5
284
102
{ACAD_REACTORS
330
1A
102
}
100
AcDbPlotSettings
  1

  2
none_device
  4

  6

 40
0.0
 41
0.0
 42
0.0
 43
0.0
 44
210.0
 45
297.0
 46
0.0
 47
0.0
 48
0.0
 49
0.0
140
0.0
141
0.0
142
1.0
143
1.0
 70
1024
 72
1
 73
0
 74
0
  7

 75
0
147
1.0
148
0.0
149
0.0
100
AcDbLayout
  1
Model
 70
0
 71
0
 10
0.0
 20
0.0
 11
210.0
 21
297.0
 12
0.0
 22
0.0
 32
0.0
 14
0.0
 24
0.0
 34
0.0
 15
0.0
 25
0.0
 35
0.0
146
0.0
 13
0.0
 23
0.0
 33
0.0
 16
1.0
 26
0.0
 36
0.0
 17
0.0
 27
1.0
 37
0.0
 76
0
330
210
345
0
346
0
  0
LAYOUT
  5
285
102
{ACAD_REACTORS
330
1A
102
}
100
AcDbPlotSettings
  1

  2
none_device
  4

  6

 40
0.0
 41
0.0
 42
0.0
 43
0.0
 44
210.0
 45
297.0
 46
0.0
 47
0.0
 48
0.0
 49
0.0
140
0.0
141
0.0
142
1.0
143
1.0
 70
0
 72
1
 73
0
 74
0
  7

 75
0
147
1.0
148
0.0
149
0.0
100
AcDbLayout
  1
Layout1
 70
0
 71
1
 10
0.0
 20
0.0
 11
210.0
 21
297.0
 12
0.0
 22
0.0
 32
0.0
 14
0.0
 24
0.0
 34
0.0
 15
0.0
 25
0.0
 35
0.0
146
0.0
 13
0.0
 23
0.0
 33
0.0
 16
1.0
 26
0.0
 36
0.0
 17
0.0
 27
1.0
 37
0.0
 76
0
330
211
345
0
346
0
  0
ENDSEC
  0
EOF
