999
DXF file: C:\Users\sesa63760\Dev\_Creo\CAD\MCADID0002083_3D-CAD\drw0001_1.dxf
999
Pro/ENGINEER 2019471 by Parametric Technology Corporation
  0
SECTION
  2
HEADER
  9
$ACADVER
  1
AC1024
  9
$DWGCODEPAGE
  3
ANSI_1252
  9
$EXTMAX
 10
295.1851364886
 20
417.4761216053
 30
0.0
  9
$EXTMIN
 10
0.0
 20
0.0
 30
0.0
  9
$LIMMIN
 10
0.0
 20
0.0
  9
$LIMMAX
 10
295.1851364886
 20
417.4761216053
  9
$VIEWCTR
 10
147.5925682443
 20
208.7380608026
  9
$VIEWSIZE
 40
417.4761216053
  9
$CLAYER
  8
0
  9
$LTSCALE
 40
27.2132582972
  9
$CELTYPE
  6
BYLAYER
  9
$DIMSCALE
 40
1.0
  9
$DIMASZ
 40
3.5141087677
  9
$DIMEXO
 40
1.0
  9
$DIMDLI
 40
18.8018875508
  9
$DIMEXE
 40
1.0
  9
$DIMCEN
 40
4.4530786305
  9
$DIMLFAC
 40
1.0
  9
$DIMBLK
  1
_FILLED
  9
$DIMALT
 70
0
  9
$DIMALTF
 40
0.0393700787
  9
$DIMTXT
 40
4.9197522748
  9
$DIMTOL
 70
1
  9
$DIMLIM
 70
0
  9
$DIMTFAC
 40
1.0
  9
$DIMTP
 40
0.01
  9
$DIMTM
 40
0.01
  9
$DIMGAP
 40
0.625
  9
$DIMDSEP
 70
46
  9
$AUNITS
 70
0
  9
$PDMODE
 70
3
  9
$PDSIZE
 40
0.3125
  9
$HANDSEED
  5
551
  9
$TILEMODE
 70
1
  9
$MEASUREMENT
 70
1
  9
$INSUNITS
 70
4
  0
ENDSEC
  0
SECTION
  2
CLASSES
  0
CLASS
  1
ACDBDICTIONARYWDFLT
  2
AcDbDictionaryWithDefault
  3
AutoCAD 2000
 90
0
 91
1
280
0
281
0
  0
CLASS
  1
ACDBPLACEHOLDER
  2
AcDbPlaceHolder
  3
AutoCAD 2000
 90
0
 91
1
280
0
281
0
  0
CLASS
  1
LAYOUT
  2
AcDbLayout
  3
AutoCAD 2000
 90
0
 91
0
280
0
281
0
  0
ENDSEC
  0
SECTION
  2
TABLES
  0
TABLE
  2
VPORT
  5
8
100
AcDbSymbolTable
 70
2
  0
VPORT
  5
1F4
100
AcDbSymbolTableRecord
100
AcDbViewportTableRecord
  2
*ACTIVE
 70
0
 10
0.0
 20
0.0
 11
1.0
 21
1.0
 12
147.5925682443
 22
208.7380608026
 13
0.0
 23
0.0
 14
1.0
 24
1.0
 15
0.0
 25
0.0
 16
0.0
 26
0.0
 36
1.0
 17
0.0
 27
0.0
 37
0.0
 40
417.4761216053
 41
0.7070707071
 42
50.0
 43
0.0
 44
0.0
 50
0.0
 51
0.0
 71
0
 72
100
 73
1
 74
1
 75
0
 76
0
 77
0
 78
0
  0
ENDTAB
  0
TABLE
  2
LTYPE
  5
5
100
AcDbSymbolTable
 70
6
  0
LTYPE
  5
14
100
AcDbSymbolTableRecord
100
AcDbLinetypeTableRecord
  2
BYBLOCK
 70
0
  3

 72
65
 73
0
 40
0.0
  0
LTYPE
  5
15
100
AcDbSymbolTableRecord
100
AcDbLinetypeTableRecord
  2
BYLAYER
 70
0
  3

 72
65
 73
0
 40
0.0
  0
LTYPE
  5
16
100
AcDbSymbolTableRecord
100
AcDbLinetypeTableRecord
  2
CONTINUOUS
 70
64
  3
Solid line
 72
65
 73
0
 40
0.0
  0
LTYPE
  5
1F5
100
AcDbSymbolTableRecord
100
AcDbLinetypeTableRecord
  2
CENTER
 70
64
  3
____ _ ____ _ ____ _ ____ _ ____ _ ____ _ ____
 72
65
 73
4
 40
0.6
 49
0.375
 74
0
 49
-0.075
 74
0
 49
0.075
 74
0
 49
-0.075
 74
0
  0
LTYPE
  5
1F6
100
AcDbSymbolTableRecord
100
AcDbLinetypeTableRecord
  2
HIDDEN
 70
64
  3
- - - - - - - - - - - - - - - - - - - -
 72
65
 73
2
 40
0.2
 49
0.1
 74
0
 49
-0.1
 74
0
  0
LTYPE
  5
1F7
100
AcDbSymbolTableRecord
100
AcDbLinetypeTableRecord
  2
PHANTOM
 70
64
  3
_____ _ _ _____ _ _ _____ _ _ _____
 72
65
 73
6
 40
0.8
 49
0.45
 74
0
 49
-0.05
 74
0
 49
0.1
 74
0
 49
-0.05
 74
0
 49
0.1
 74
0
 49
-0.05
 74
0
  0
LTYPE
  5
1F8
100
AcDbSymbolTableRecord
100
AcDbLinetypeTableRecord
  2
DOT
 70
64
  3
. . . . . . . . . . . . . . . . . . . .
 72
65
 73
2
 40
0.2
 49
0.1
 74
0
 49
-0.1
 74
0
  0
LTYPE
  5
1F9
100
AcDbSymbolTableRecord
100
AcDbLinetypeTableRecord
  2
DASHED
 70
64
  3
- - - - - - - - - - - - - - - - - - - -
 72
65
 73
2
 40
0.2
 49
0.1
 74
0
 49
-0.1
 74
0
  0
ENDTAB
  0
TABLE
  2
LAYER
  5
2
100
AcDbSymbolTable
 70
36
  0
LAYER
  5
10
100
AcDbSymbolTableRecord
100
AcDbLayerTableRecord
  2
0
 70
0
 62
7
  6
CONTINUOUS
370
-3
390
F
  0
LAYER
  5
1FA
100
AcDbSymbolTableRecord
100
AcDbLayerTableRecord
  2
DEFAULT_1
 70
0
 62
7
  6
CENTER
370
-3
390
F
  0
LAYER
  5
1FB
100
AcDbSymbolTableRecord
100
AcDbLayerTableRecord
  2
DEFAULT_2
 70
0
 62
8
  6
HIDDEN
370
-3
390
F
  0
LAYER
  5
1FC
100
AcDbSymbolTableRecord
100
AcDbLayerTableRecord
  2
DEFAULT_3
 70
0
 62
7
  6
PHANTOM
370
-3
390
F
  0
LAYER
  5
1FD
100
AcDbSymbolTableRecord
100
AcDbLayerTableRecord
  2
00_COMPONENTS
 70
0
 62
7
  6
CONTINUOUS
370
-3
390
F
  0
LAYER
  5
1FE
100
AcDbSymbolTableRecord
100
AcDbLayerTableRecord
  2
01_1_DEFAULT_DATUMS
 70
0
 62
7
  6
CONTINUOUS
370
-3
390
F
  0
LAYER
  5
1FF
100
AcDbSymbolTableRecord
100
AcDbLayerTableRecord
  2
01_PLANES
 70
0
 62
7
  6
CONTINUOUS
370
-3
390
F
  0
LAYER
  5
200
100
AcDbSymbolTableRecord
100
AcDbLayerTableRecord
  2
02_COORD_SYS
 70
0
 62
7
  6
CONTINUOUS
370
-3
390
F
  0
LAYER
  5
201
100
AcDbSymbolTableRecord
100
AcDbLayerTableRecord
  2
03_AXES
 70
0
 62
7
  6
CONTINUOUS
370
-3
390
F
  0
LAYER
  5
202
100
AcDbSymbolTableRecord
100
AcDbLayerTableRecord
  2
04_POINTS
 70
0
 62
7
  6
CONTINUOUS
370
-3
390
F
  0
LAYER
  5
203
100
AcDbSymbolTableRecord
100
AcDbLayerTableRecord
  2
05_CURVES
 70
0
 62
7
  6
CONTINUOUS
370
-3
390
F
  0
LAYER
  5
204
100
AcDbSymbolTableRecord
100
AcDbLayerTableRecord
  2
06_SURFS
 70
0
 62
7
  6
CONTINUOUS
370
-3
390
F
  0
LAYER
  5
205
100
AcDbSymbolTableRecord
100
AcDbLayerTableRecord
  2
07_COSMETICS
 70
0
 62
7
  6
CONTINUOUS
370
-3
390
F
  0
LAYER
  5
206
100
AcDbSymbolTableRecord
100
AcDbLayerTableRecord
  2
10_NOTES
 70
0
 62
7
  6
CONTINUOUS
370
-3
390
F
  0
LAYER
  5
207
100
AcDbSymbolTableRecord
100
AcDbLayerTableRecord
  2
11_NOTES_PUB
 70
0
 62
7
  6
CONTINUOUS
370
-3
390
F
  0
LAYER
  5
208
100
AcDbSymbolTableRecord
100
AcDbLayerTableRecord
  2
13_REF_GTOL
 70
0
 62
7
  6
CONTINUOUS
370
-3
390
F
  0
LAYER
  5
209
100
AcDbSymbolTableRecord
100
AcDbLayerTableRecord
  2
16_MISC
 70
0
 62
7
  6
CONTINUOUS
370
-3
390
F
  0
LAYER
  5
20A
100
AcDbSymbolTableRecord
100
AcDbLayerTableRecord
  2
17_NO_PRINT
 70
0
 62
7
  6
CONTINUOUS
370
-3
390
F
  0
LAYER
  5
20B
100
AcDbSymbolTableRecord
100
AcDbLayerTableRecord
  2
18_DATUM_CAMS_JOINTS
 70
0
 62
7
  6
CONTINUOUS
370
-3
390
F
  0
LAYER
  5
20C
100
AcDbSymbolTableRecord
100
AcDbLayerTableRecord
  2
19_DATUM_FUNCTIONAL
 70
0
 62
7
  6
CONTINUOUS
370
-3
390
F
  0
LAYER
  5
20D
100
AcDbSymbolTableRecord
100
AcDbLayerTableRecord
  2
20_DATUM_KINEMATIC_SCHEME
 70
0
 62
7
  6
CONTINUOUS
370
-3
390
F
  0
ENDTAB
  0
TABLE
  2
STYLE
  5
3
100
AcDbSymbolTable
 70
1
  0
STYLE
  5
11
100
AcDbSymbolTableRecord
100
AcDbTextStyleTableRecord
  2
STANDARD
 70
0
 40
0.0
 41
0.8
 50
0.0
 71
0
 42
0.2
  3
txt
  4

  0
STYLE
  5
20E
100
AcDbSymbolTableRecord
100
AcDbTextStyleTableRecord
  2
TEXTSTYLE_1
 70
0
 40
0.0
 41
0.8
 50
0.0
 71
0
 42
0.2
  3
gdt
  4

  0
ENDTAB
  0
TABLE
  2
VIEW
  5
6
100
AcDbSymbolTable
 70
0
  0
ENDTAB
  0
TABLE
  2
UCS
  5
7
100
AcDbSymbolTable
 70
0
  0
ENDTAB
  0
TABLE
  2
APPID
  5
9
100
AcDbSymbolTable
 70
1
  0
APPID
  5
20F
100
AcDbSymbolTableRecord
100
AcDbRegAppTableRecord
  2
ACAD
 70
0
  0
ENDTAB
  0
TABLE
  2
BLOCK_RECORD
  5
1
100
AcDbSymbolTable
 70
0
  0
BLOCK_RECORD
  5
210
100
AcDbSymbolTableRecord
100
AcDbBlockTableRecord
  2
*Model_Space
  0
BLOCK_RECORD
  5
211
100
AcDbSymbolTableRecord
100
AcDbBlockTableRecord
  2
*Paper_Space
  0
BLOCK_RECORD
  5
212
100
AcDbSymbolTableRecord
100
AcDbBlockTableRecord
  2
_FILLED
  0
ENDTAB
  0
TABLE
  2
DIMSTYLE
  5
A
100
AcDbSymbolTable
 70
1
100
AcDbDimStyleTable
 71
0
  0
DIMSTYLE
105
213
100
AcDbSymbolTableRecord
100
AcDbDimStyleTableRecord
  2
STANDARD
 70
0
  3

  4

 40
1.0
 41
3.5141087677
 42
1.0
 43
0.38
 44
1.0
 45
0.0
 46
0.0
 47
0.01
 48
0.01
140
4.9197522748
141
0.09
142
0.0
143
25.4
144
1.0
145
0.0
146
1.0
147
0.625
 71
1
 72
0
 73
0
 74
0
 75
0
 76
0
 77
1
 78
8
 79
2
170
0
171
1
172
0
173
0
174
0
175
0
176
0
177
0
178
0
270
2
179
2
271
2
272
2
273
2
274
2
275
0
280
0
281
0
282
0
283
1
284
8
285
0
286
0
287
3
288
0
340
11
278
46
341
212
342
212
343
212
344
212
  0
ENDTAB
  0
ENDSEC
  0
SECTION
  2
BLOCKS
  0
BLOCK
  5
20
100
AcDbEntity
  8
0
100
AcDbBlockBegin
  2
*Model_Space
 70
0
 10
0.0
 20
0.0
 30
0.0
  3
*Model_Space
  1

  0
ENDBLK
  5
21
100
AcDbEntity
  8
0
100
AcDbBlockEnd
  0
BLOCK
  5
1C
100
AcDbEntity
  8
0
100
AcDbBlockBegin
  2
*Paper_Space
 70
0
 10
0.0
 20
0.0
 30
0.0
  3
*Paper_Space
  1

  0
ENDBLK
  5
1D
100
AcDbEntity
  8
0
100
AcDbBlockEnd
  0
BLOCK
  5
214
100
AcDbEntity
  8
0
100
AcDbBlockBegin
  2
_FILLED
 70
64
 10
0.0
 20
0.0
  3
_FILLED
  1

  0
SOLID
  5
215
100
AcDbEntity
  8
0
  6
BYBLOCK
 62
0
100
AcDbTrace
 10
0.0
 20
0.0
 11
-1.0
 21
0.25
 12
-1.0
 22
-0.25
 13
-1.0
 23
-0.25
  0
ENDBLK
  5
216
100
AcDbEntity
  8
0
  6
BYBLOCK
 62
0
100
AcDbBlockEnd
  0
ENDSEC
  0
SECTION
  2
ENTITIES
  0
LINE
  5
217
100
AcDbEntity
  8
0
100
AcDbLine
 62
7
  6
CONTINUOUS
 10
34.2456386366
 20
163.3833057124
 11
34.2448724922
 21
163.4337257158
  0
LINE
  5
218
100
AcDbEntity
  8
0
100
AcDbLine
 62
7
  6
CONTINUOUS
 10
34.2448720183
 20
163.4350120081
 11
34.2448720183
 21
165.5779164706
  0
LINE
  5
219
100
AcDbEntity
  8
0
100
AcDbLine
 62
7
  6
CONTINUOUS
 10
35.7094927553
 20
161.3647182633
 11
35.7095431764
 21
163.5365858084
  0
LINE
  5
21A
100
AcDbEntity
  8
0
100
AcDbLine
 62
7
  6
CONTINUOUS
 10
39.5984563205
 20
160.2625785058
 11
39.5984563205
 21
159.9768026598
  0
LINE
  5
21B
100
AcDbEntity
  8
0
100
AcDbLine
 62
7
  6
CONTINUOUS
 10
34.328572114
 20
166.1038985743
 11
34.2448720183
 21
165.5779164706
  0
LINE
  5
21C
100
AcDbEntity
  8
0
100
AcDbLine
 62
7
  6
CONTINUOUS
 10
36.8672978565
 20
169.3869174955
 11
35.7095431764
 21
163.5365858084
  0
LINE
  5
21D
100
AcDbEntity
  8
0
100
AcDbLine
 62
7
  6
CONTINUOUS
 10
52.3264313732
 20
152.9142449244
 11
52.3264313732
 21
152.6284690784
  0
LINE
  5
21E
100
AcDbEntity
  8
0
100
AcDbLine
 62
7
  6
CONTINUOUS
 10
56.2153950261
 20
149.5258978649
 11
56.2155349251
 21
151.6977137834
  0
LINE
  5
21F
100
AcDbEntity
  8
0
100
AcDbLine
 62
7
  6
CONTINUOUS
 10
35.9264290116
 20
171.0820901992
 11
34.328572114
 21
166.1038985743
  0
LINE
  5
220
100
AcDbEntity
  8
0
100
AcDbLine
 62
7
  6
CONTINUOUS
 10
35.9449033369
 20
171.135021982
 11
35.9264290116
 21
171.0820901992
  0
LINE
  5
221
100
AcDbEntity
  8
0
100
AcDbLine
 62
7
  6
CONTINUOUS
 10
35.7094927553
 20
161.3647182633
 11
56.2153950261
 21
149.5258978649
  0
LINE
  5
222
100
AcDbEntity
  8
0
100
AcDbLine
 62
7
  6
CONTINUOUS
 10
39.5984563205
 20
159.9768026598
 11
52.3264313732
 21
152.6284690784
  0
LINE
  5
223
100
AcDbEntity
  8
0
100
AcDbLine
 62
7
  6
CONTINUOUS
 10
39.5984563205
 20
160.2625785058
 11
52.3264313732
 21
152.9142449244
  0
LINE
  5
224
100
AcDbEntity
  8
0
100
AcDbLine
 62
7
  6
CONTINUOUS
 10
35.7095431764
 20
163.5365858084
 11
56.2155349251
 21
151.6977137834
  0
LINE
  5
225
100
AcDbEntity
  8
0
100
AcDbLine
 62
7
  6
CONTINUOUS
 10
63.2866027208
 20
151.6977308443
 11
62.1293122735
 21
157.5517402752
  0
LINE
  5
226
100
AcDbEntity
  8
0
100
AcDbLine
 62
7
  6
CONTINUOUS
 10
63.287689115
 20
149.5266209027
 11
63.2866027209
 21
151.6977308444
  0
LINE
  5
227
100
AcDbEntity
  8
0
100
AcDbLine
 62
7
  6
CONTINUOUS
 10
36.8885164251
 20
169.3880736837
 11
57.3544808501
 21
157.572310922
  0
LINE
  5
228
100
AcDbEntity
  8
0
100
AcDbLine
 62
7
  6
CONTINUOUS
 10
57.372307826
 20
157.5491581301
 11
56.2155349251
 21
151.6977137834
  0
LINE
  5
229
100
AcDbEntity
  8
0
100
AcDbLine
 62
7
  6
CONTINUOUS
 10
59.7510253717
 20
168.1176747827
 11
46.1324694777
 21
175.9801738206
  0
LINE
  5
22A
100
AcDbEntity
  8
0
100
AcDbLine
 62
7
  6
CONTINUOUS
 10
102.7373242548
 20
218.5958329507
 11
102.7747192078
 21
216.954118556
  0
LINE
  5
22B
100
AcDbEntity
  8
0
100
AcDbLine
 62
7
  6
CONTINUOUS
 10
102.1307741359
 20
212.7561475169
 11
102.3243965805
 21
215.9573595016
  0
LINE
  5
22C
100
AcDbEntity
  8
0
100
AcDbLine
 62
7
  6
CONTINUOUS
 10
103.4930379216
 20
214.2413527226
 11
103.3333601689
 21
211.6006735652
  0
LINE
  5
22D
100
AcDbEntity
  8
0
100
AcDbLine
 62
7
  6
CONTINUOUS
 10
99.2665565913
 20
219.3788745692
 11
98.8833238715
 21
218.4290350632
  0
LINE
  5
22E
100
AcDbEntity
  8
0
100
AcDbLine
 62
7
  6
CONTINUOUS
 10
99.2665565913
 20
219.3788745692
 11
99.2665002973
 21
219.3787376899
  0
LWPOLYLINE
  5
22F
100
AcDbEntity
  8
0
100
AcDbPolyline
 62
7
  6
CONTINUOUS
 90
6
 70
0
 10
98.8838553317
 20
218.4300328462
 10
98.3265447804
 20
217.1662190062
 10
97.341744545
 20
215.3314256854
 10
95.9743843986
 20
213.2272817067
 10
93.5292938835
 20
210.1219863043
 10
92.1820176462
 20
208.4179365661
  0
LWPOLYLINE
  5
230
100
AcDbEntity
  8
0
100
AcDbPolyline
 62
7
  6
CONTINUOUS
 90
4
 70
0
 10
100.1142663913
 20
221.274698997
 10
99.8526587818
 20
220.7222001612
 10
99.5046176038
 20
219.9437126876
 10
99.2664456481
 20
219.3789135334
  0
LINE
  5
231
100
AcDbEntity
  8
0
100
AcDbLine
 62
7
  6
CONTINUOUS
 10
100.1142663913
 20
221.274698997
 11
100.1143421632
 21
221.2748536965
  0
LWPOLYLINE
  5
232
100
AcDbEntity
  8
0
100
AcDbPolyline
 62
7
  6
CONTINUOUS
 90
3
 70
0
 10
100.3115394798
 20
221.6479368302
 10
100.0962337177
 20
221.2369940027
 10
100.1144370849
 20
221.2748529148
  0
LINE
  5
233
100
AcDbEntity
  8
0
100
AcDbLine
 62
7
  6
CONTINUOUS
 10
101.5743983457
 20
223.7140923643
 11
100.2975308454
 21
221.6233721596
  0
LINE
  5
234
100
AcDbEntity
  8
0
100
AcDbLine
 62
7
  6
CONTINUOUS
 10
92.1810126955
 20
208.4185299948
 11
92.1811300445
 21
208.4186854575
  0
LWPOLYLINE
  5
235
100
AcDbEntity
  8
0
100
AcDbPolyline
 62
7
  6
CONTINUOUS
 90
3
 70
0
 10
105.1794515633
 20
228.6063483373
 10
103.3623820229
 20
226.395022747
 10
101.5743983457
 20
223.7140923643
  0
LINE
  5
236
100
AcDbEntity
  8
0
100
AcDbLine
 62
7
  6
CONTINUOUS
 10
105.1792432352
 20
228.6061721275
 11
105.1793055596
 21
228.6062365197
  0
LWPOLYLINE
  5
237
100
AcDbEntity
  8
0
100
AcDbPolyline
 62
7
  6
CONTINUOUS
 90
3
 70
0
 10
190.1822153316
 20
281.0193882481
 10
182.2463712808
 20
278.133770698
 10
177.0592393034
 20
276.2302471807
  0
LINE
  5
238
100
AcDbEntity
  8
0
100
AcDbLine
 62
7
  6
CONTINUOUS
 10
190.6770680084
 20
280.9650691508
 11
190.257152383
 21
280.8123776779
  0
LINE
  5
239
100
AcDbEntity
  8
0
100
AcDbLine
 62
7
  6
CONTINUOUS
 10
193.3369210881
 20
279.4414806274
 11
178.8051315005
 21
274.8085352502
  0
LINE
  5
23A
100
AcDbEntity
  8
0
100
AcDbLine
 62
7
  6
CONTINUOUS
 10
179.0404442755
 20
274.5488695631
 11
193.3369210881
 21
279.1067938132
  0
LINE
  5
23B
100
AcDbEntity
  8
0
100
AcDbLine
 62
7
  6
CONTINUOUS
 10
112.6778093544
 20
180.2136047796
 11
112.6778057027
 21
179.1847919192
  0
LINE
  5
23C
100
AcDbEntity
  8
0
100
AcDbLine
 62
7
  6
CONTINUOUS
 10
112.7414450851
 20
179.2215339145
 11
112.7411254988
 21
178.078282816
  0
LWPOLYLINE
  5
23D
100
AcDbEntity
  8
0
100
AcDbPolyline
 62
7
  6
CONTINUOUS
 90
3
 70
0
 10
92.1810126955
 20
208.4185299948
 10
90.800774681
 20
206.6419490409
 10
89.07840381
 20
204.5592493709
  0
LINE
  5
23E
100
AcDbEntity
  8
0
100
AcDbLine
 62
7
  6
CONTINUOUS
 10
89.0766732475
 20
204.5572257928
 11
89.07840381
 21
204.5592493709
  0
LWPOLYLINE
  5
23F
100
AcDbEntity
  8
0
100
AcDbPolyline
 62
7
  6
CONTINUOUS
 90
4
 70
0
 10
89.0772275639
 20
204.5575698541
 10
88.9191068791
 20
204.3759811877
 10
87.1826035509
 20
202.7293470437
 10
85.5068522496
 20
201.5875219444
  0
LWPOLYLINE
  5
240
100
AcDbEntity
  8
0
100
AcDbPolyline
 62
7
  6
CONTINUOUS
 90
3
 70
0
 10
39.3835177354
 20
174.9583654811
 10
37.2834989678
 20
173.2937315047
 10
35.9451209751
 20
171.1349841508
  0
LINE
  5
241
100
AcDbEntity
  8
0
100
AcDbLine
 62
7
  6
CONTINUOUS
 10
104.0580952531
 20
225.2534355333
 11
151.1983803267
 21
260.5394692207
  0
LINE
  5
242
100
AcDbEntity
  8
0
100
AcDbLine
 62
7
  6
CONTINUOUS
 10
151.1983803267
 20
258.6079237717
 11
104.9488402583
 21
223.9888074172
  0
LINE
  5
243
100
AcDbEntity
  8
0
100
AcDbLine
 62
7
  6
CONTINUOUS
 10
110.2950098048
 20
233.1794214809
 11
110.2867560501
 21
233.1732786977
  0
LINE
  5
244
100
AcDbEntity
  8
0
100
AcDbLine
 62
7
  6
CONTINUOUS
 10
137.9649837938
 20
246.1699031591
 11
142.1052093904
 21
248.5602493
  0
LINE
  5
245
100
AcDbEntity
  8
0
100
AcDbLine
 62
7
  6
CONTINUOUS
 10
118.0689034196
 20
164.1430621466
 11
118.0739269307
 21
164.1441963625
  0
LWPOLYLINE
  5
246
100
AcDbEntity
  8
0
100
AcDbPolyline
 62
7
  6
CONTINUOUS
 90
4
 70
0
 10
123.8111758045
 20
165.7360426073
 10
128.3260821038
 20
166.7163513324
 10
133.1706466288
 20
167.9123465632
 10
138.1386727581
 20
169.4169843113
  0
LINE
  5
247
100
AcDbEntity
  8
0
100
AcDbLine
 62
7
  6
CONTINUOUS
 10
123.6724285651
 20
165.7067589683
 11
123.8109463156
 21
165.7360039167
  0
LINE
  5
248
100
AcDbEntity
  8
0
100
AcDbLine
 62
7
  6
CONTINUOUS
 10
123.8111758045
 20
165.7360426073
 11
123.8109501846
 21
165.7359956934
  0
LINE
  5
249
100
AcDbEntity
  8
0
100
AcDbLine
 62
7
  6
CONTINUOUS
 10
120.236613244
 20
215.8035880306
 11
120.2366131179
 21
215.7219377889
  0
LINE
  5
24A
100
AcDbEntity
  8
0
100
AcDbLine
 62
7
  6
CONTINUOUS
 10
122.1829281179
 20
200.7283675574
 11
122.1829672763
 21
203.4509613216
  0
LINE
  5
24B
100
AcDbEntity
  8
0
100
AcDbLine
 62
7
  6
CONTINUOUS
 10
119.7532567637
 20
226.9074983869
 11
119.7879491176
 21
231.5573109726
  0
LINE
  5
24C
100
AcDbEntity
  8
0
100
AcDbLine
 62
7
  6
CONTINUOUS
 10
121.9684476615
 20
231.6250909059
 11
122.0039900003
 21
232.2127219578
  0
LINE
  5
24D
100
AcDbEntity
  8
0
100
AcDbLine
 62
7
  6
CONTINUOUS
 10
122.0914408257
 20
232.0807598441
 11
122.0606600656
 21
231.5718532539
  0
LINE
  5
24E
100
AcDbEntity
  8
0
100
AcDbLine
 62
7
  6
CONTINUOUS
 10
116.4143600395
 20
215.8431726872
 11
116.7405069569
 21
217.3416645492
  0
LINE
  5
24F
100
AcDbEntity
  8
0
100
AcDbLine
 62
7
  6
CONTINUOUS
 10
115.2016354631
 20
210.6416523493
 11
116.7573086721
 21
217.4188605371
  0
LINE
  5
250
100
AcDbEntity
  8
0
100
AcDbLine
 62
7
  6
CONTINUOUS
 10
116.7574829925
 20
217.3379697132
 11
115.2016354631
 21
210.5600021076
  0
LINE
  5
251
100
AcDbEntity
  8
0
100
AcDbLine
 62
7
  6
CONTINUOUS
 10
119.7879491176
 20
231.5573109726
 11
120.9368892945
 21
232.2206479334
  0
LINE
  5
252
100
AcDbEntity
  8
0
100
AcDbLine
 62
7
  6
CONTINUOUS
 10
122.1534434238
 20
232.4544178347
 11
138.1546283395
 21
241.6926511083
  0
LINE
  5
253
100
AcDbEntity
  8
0
100
AcDbLine
 62
7
  6
CONTINUOUS
 10
122.3034427523
 20
232.439560551
 11
138.3041516334
 21
241.6775202806
  0
LINE
  5
254
100
AcDbEntity
  8
0
100
AcDbLine
 62
7
  6
CONTINUOUS
 10
102.7373242548
 20
218.5958329507
 11
100.8468855435
 21
217.5044415221
  0
LINE
  5
255
100
AcDbEntity
  8
0
100
AcDbLine
 62
7
  6
CONTINUOUS
 10
148.6318384873
 20
244.7921834791
 11
152.1768445625
 21
246.8388814738
  0
LINE
  5
256
100
AcDbEntity
  8
0
100
AcDbLine
 62
7
  6
CONTINUOUS
 10
103.5550185987
 20
217.6341642654
 11
119.5562041161
 21
226.8723978864
  0
LINE
  5
257
100
AcDbEntity
  8
0
100
AcDbLine
 62
7
  6
CONTINUOUS
 10
103.7037660301
 20
217.6185854275
 11
119.7062034445
 21
226.8575406027
  0
LINE
  5
258
100
AcDbEntity
  8
0
100
AcDbLine
 62
7
  6
CONTINUOUS
 10
231.357074552
 20
275.6896367558
 11
223.3215165577
 21
272.5569126384
  0
LINE
  5
259
100
AcDbEntity
  8
0
100
AcDbLine
 62
7
  6
CONTINUOUS
 10
193.7632710061
 20
256.4702978603
 11
199.6223870918
 21
258.3485484332
  0
LINE
  5
25A
100
AcDbEntity
  8
0
100
AcDbLine
 62
7
  6
CONTINUOUS
 10
194.26900473
 20
256.3973724641
 11
200.910298829
 21
258.5263650062
  0
LINE
  5
25B
100
AcDbEntity
  8
0
100
AcDbLine
 62
7
  6
CONTINUOUS
 10
203.2365838308
 20
260.1020821288
 11
218.4393163309
 21
264.9489338419
  0
LWPOLYLINE
  5
25C
100
AcDbEntity
  8
0
100
AcDbPolyline
 62
7
  6
CONTINUOUS
 90
4
 70
0
 10
118.0734930091
 20
164.1440739786
 10
119.8085707464
 20
164.6069644408
 10
121.3672313424
 20
165.0860384158
 10
123.6724321594
 20
165.7067467038
  0
LWPOLYLINE
  5
25D
100
AcDbEntity
  8
0
100
AcDbPolyline
 62
7
  6
CONTINUOUS
 90
3
 70
0
 10
153.0166083713
 20
179.7825742151
 10
158.6891525046
 20
181.1545744969
 10
159.6593841435
 20
181.647489246
  0
LINE
  5
25E
100
AcDbEntity
  8
0
100
AcDbLine
 62
7
  6
CONTINUOUS
 10
151.8992546761
 20
179.6761095042
 11
152.2299553866
 21
179.7241086917
  0
LINE
  5
25F
100
AcDbEntity
  8
0
100
AcDbLine
 62
7
  6
CONTINUOUS
 10
153.0230762757
 20
179.7831883247
 11
153.0041106663
 21
179.7813744943
  0
LINE
  5
260
100
AcDbEntity
  8
0
100
AcDbLine
 62
7
  6
CONTINUOUS
 10
151.8992546761
 20
179.6761095042
 11
152.9977817856
 21
179.7807712253
  0
LINE
  5
261
100
AcDbEntity
  8
0
100
AcDbLine
 62
7
  6
CONTINUOUS
 10
153.0041106663
 20
179.7813744943
 11
152.2299553866
 21
179.7241086917
  0
LINE
  5
262
100
AcDbEntity
  8
0
100
AcDbLine
 62
7
  6
CONTINUOUS
 10
117.2818895703
 20
217.4278097053
 11
117.2667523984
 21
217.5181991996
  0
LINE
  5
263
100
AcDbEntity
  8
0
100
AcDbLine
 62
7
  6
CONTINUOUS
 10
128.7496653876
 20
185.8102516474
 11
128.7496653876
 21
186.8390446929
  0
LINE
  5
264
100
AcDbEntity
  8
0
100
AcDbLine
 62
7
  6
CONTINUOUS
 10
129.1004915464
 20
185.9276280865
 11
129.1004917844
 21
184.910318486
  0
LINE
  5
265
100
AcDbEntity
  8
0
100
AcDbLine
 62
7
  6
CONTINUOUS
 10
127.095520465
 20
219.7635563231
 11
127.08038314
 21
219.6731665949
  0
LINE
  5
266
100
AcDbEntity
  8
0
100
AcDbLine
 62
7
  6
CONTINUOUS
 10
134.5775204156
 20
228.0940336346
 11
134.5908211394
 21
228.1734564398
  0
LINE
  5
267
100
AcDbEntity
  8
0
100
AcDbLine
 62
7
  6
CONTINUOUS
 10
153.115575339
 20
272.832141702
 11
153.1129330136
 21
272.8250379643
  0
LINE
  5
268
100
AcDbEntity
  8
0
100
AcDbLine
 62
7
  6
CONTINUOUS
 10
125.8050405757
 20
202.9030097942
 11
125.804636877
 21
202.9020015163
  0
LINE
  5
269
100
AcDbEntity
  8
0
100
AcDbLine
 62
7
  6
CONTINUOUS
 10
153.3538931796
 20
274.5345325529
 11
153.3743370372
 21
274.5793530043
  0
LWPOLYLINE
  5
26A
100
AcDbEntity
  8
0
100
AcDbPolyline
 62
7
  6
CONTINUOUS
 90
4
 70
0
 10
127.4817348755
 20
206.6361973778
 10
127.0769061694
 20
205.7991172852
 10
126.3719796899
 20
204.2481584273
 10
125.8050405757
 20
202.9030097942
  0
LINE
  5
26B
100
AcDbEntity
  8
0
100
AcDbLine
 62
7
  6
CONTINUOUS
 10
127.4816852984
 20
206.6361464598
 11
127.4816588066
 21
206.6360927628
  0
LWPOLYLINE
  5
26C
100
AcDbEntity
  8
0
100
AcDbPolyline
 62
7
  6
CONTINUOUS
 90
4
 70
0
 10
191.5780236192
 20
255.3723812597
 10
191.2217833226
 20
255.1538960507
 10
191.0700113726
 20
255.0529622786
 10
190.7989316182
 20
254.8608079461
  0
LINE
  5
26D
100
AcDbEntity
  8
0
100
AcDbLine
 62
7
  6
CONTINUOUS
 10
91.147557116
 20
205.4011801223
 11
102.6161340072
 21
212.0225265535
  0
LINE
  5
26E
100
AcDbEntity
  8
0
100
AcDbLine
 62
7
  6
CONTINUOUS
 10
85.5066298891
 20
201.5873896221
 11
39.3826828491
 21
174.9578753392
  0
LINE
  5
26F
100
AcDbEntity
  8
0
100
AcDbLine
 62
7
  6
CONTINUOUS
 10
141.4497283604
 20
232.1334247324
 11
134.5908211394
 21
228.1734564398
  0
LINE
  5
270
100
AcDbEntity
  8
0
100
AcDbLine
 62
7
  6
CONTINUOUS
 10
134.5908211394
 20
228.0918061981
 11
141.4497283604
 21
232.0517744907
  0
LINE
  5
271
100
AcDbEntity
  8
0
100
AcDbLine
 62
7
  6
CONTINUOUS
 10
46.1324694777
 20
175.9801738206
 11
89.0889833692
 21
200.7809807503
  0
LINE
  5
272
100
AcDbEntity
  8
0
100
AcDbLine
 62
7
  6
CONTINUOUS
 10
127.095520465
 20
219.7635563231
 11
120.236613244
 21
215.8035880306
  0
LINE
  5
273
100
AcDbEntity
  8
0
100
AcDbLine
 62
7
  6
CONTINUOUS
 10
120.236613244
 20
215.7219377889
 11
127.095520465
 21
219.6819060814
  0
LINE
  5
274
100
AcDbEntity
  8
0
100
AcDbLine
 62
7
  6
CONTINUOUS
 10
138.8334794903
 20
225.7240119127
 11
145.6923867113
 21
229.6839802052
  0
LINE
  5
275
100
AcDbEntity
  8
0
100
AcDbLine
 62
7
  6
CONTINUOUS
 10
191.5780234299
 20
255.3723811504
 11
192.4841095131
 21
255.8955070717
  0
LINE
  5
276
100
AcDbEntity
  8
0
100
AcDbLine
 62
7
  6
CONTINUOUS
 10
193.4260050475
 20
255.6147730695
 11
192.5199199148
 21
255.0916465995
  0
LINE
  5
277
100
AcDbEntity
  8
0
100
AcDbLine
 62
7
  6
CONTINUOUS
 10
217.2575205601
 20
269.1105260526
 11
222.7611487165
 21
272.2880282831
  0
LINE
  5
278
100
AcDbEntity
  8
0
100
AcDbLine
 62
7
  6
CONTINUOUS
 10
192.1279582097
 20
255.317940676
 11
193.0341070515
 21
255.8410303644
  0
LINE
  5
279
100
AcDbEntity
  8
0
100
AcDbLine
 62
7
  6
CONTINUOUS
 10
85.5085563653
 20
201.58850167
 11
85.5083591369
 21
201.5883879572
  0
LINE
  5
27A
100
AcDbEntity
  8
0
100
AcDbLine
 62
7
  6
CONTINUOUS
 10
121.9708932645
 20
200.8405322423
 11
102.8104133405
 21
211.902590227
  0
LINE
  5
27B
100
AcDbEntity
  8
0
100
AcDbLine
 62
7
  6
CONTINUOUS
 10
103.4930379216
 20
214.2413527226
 11
122.1829672763
 21
203.4509613216
  0
LINE
  5
27C
100
AcDbEntity
  8
0
100
AcDbLine
 62
7
  6
CONTINUOUS
 10
122.3944899483
 20
203.810037116
 11
103.7055110256
 21
214.5998797983
  0
LINE
  5
27D
100
AcDbEntity
  8
0
100
AcDbLine
 62
7
  6
CONTINUOUS
 10
124.4792715949
 20
213.3541435035
 11
124.5095460648
 21
213.2550146838
  0
LINE
  5
27E
100
AcDbEntity
  8
0
100
AcDbLine
 62
7
  6
CONTINUOUS
 10
127.5349217056
 20
219.6731678486
 11
127.5197845337
 21
219.7635573429
  0
LINE
  5
27F
100
AcDbEntity
  8
0
100
AcDbLine
 62
7
  6
CONTINUOUS
 10
127.4496059125
 20
211.6392589815
 11
127.462931342
 21
211.5594820971
  0
LINE
  5
280
100
AcDbEntity
  8
0
100
AcDbLine
 62
7
  6
CONTINUOUS
 10
137.9306139885
 20
241.5633171345
 11
137.9649837938
 21
246.1699031591
  0
LINE
  5
281
100
AcDbEntity
  8
0
100
AcDbLine
 62
7
  6
CONTINUOUS
 10
138.6525830268
 20
234.1422103206
 11
138.6499423938
 21
234.0606455686
  0
LINE
  5
282
100
AcDbEntity
  8
0
100
AcDbLine
 62
7
  6
CONTINUOUS
 10
153.115575339
 20
272.832141702
 11
153.1138591887
 21
272.8249235473
  0
LINE
  5
283
100
AcDbEntity
  8
0
100
AcDbLine
 62
7
  6
CONTINUOUS
 10
151.2949867579
 20
270.7079269785
 11
151.6553109755
 21
271.9863725501
  0
LINE
  5
284
100
AcDbEntity
  8
0
100
AcDbLine
 62
7
  6
CONTINUOUS
 10
152.2890329113
 20
272.9219491983
 11
152.3094767689
 21
272.9942958631
  0
LINE
  5
285
100
AcDbEntity
  8
0
100
AcDbLine
 62
7
  6
CONTINUOUS
 10
141.4497283604
 20
232.1334247324
 11
141.4194538365
 21
232.0342955905
  0
LWPOLYLINE
  5
286
100
AcDbEntity
  8
0
100
AcDbPolyline
 62
7
  6
CONTINUOUS
 90
6
 70
0
 10
125.8046445998
 20
202.9019962464
 10
125.2811524742
 20
202.0507647235
 10
124.2182215294
 20
200.9598775957
 10
123.5484948343
 20
200.409404415
 10
121.90618642
 20
199.2605862072
 10
120.4393483478
 20
198.3712429457
  0
LWPOLYLINE
  5
287
100
AcDbEntity
  8
0
100
AcDbPolyline
 62
7
  6
CONTINUOUS
 90
4
 70
0
 10
127.7171295224
 20
207.0289012077
 10
127.6114111474
 20
206.8726485845
 10
127.5223819149
 20
206.7159702397
 10
127.4819054493
 20
206.6365927027
  0
LINE
  5
288
100
AcDbEntity
  8
0
100
AcDbLine
 62
7
  6
CONTINUOUS
 10
127.7171295224
 20
207.0289012077
 11
127.7170859192
 21
207.028842793
  0
LINE
  5
289
100
AcDbEntity
  8
0
100
AcDbLine
 62
7
  6
CONTINUOUS
 10
59.9566473845
 20
134.6489171832
 11
58.0858682281
 21
132.813728575
  0
LWPOLYLINE
  5
28A
100
AcDbEntity
  8
0
100
AcDbPolyline
 62
7
  6
CONTINUOUS
 90
4
 70
0
 10
130.3524642633
 20
209.8200583279
 10
129.618296221
 20
209.1893686078
 10
128.550047864
 20
208.0584013214
 10
127.7170889236
 20
207.0288468065
  0
LINE
  5
28B
100
AcDbEntity
  8
0
100
AcDbLine
 62
7
  6
CONTINUOUS
 10
167.5651950026
 20
233.7705700105
 11
159.4406521667
 21
227.3339328234
  0
LINE
  5
28C
100
AcDbEntity
  8
0
100
AcDbLine
 62
7
  6
CONTINUOUS
 10
164.6723572736
 20
233.0796133887
 11
162.1992797467
 21
231.1230659927
  0
LINE
  5
28D
100
AcDbEntity
  8
0
100
AcDbLine
 62
7
  6
CONTINUOUS
 10
167.5717703369
 20
233.7670396425
 11
153.3344069561
 21
222.5129818602
  0
LINE
  5
28E
100
AcDbEntity
  8
0
100
AcDbLine
 62
7
  6
CONTINUOUS
 10
164.6784149417
 20
233.0763595969
 11
162.2037197822
 21
231.1206786944
  0
LINE
  5
28F
100
AcDbEntity
  8
0
100
AcDbLine
 62
7
  6
CONTINUOUS
 10
159.4406521667
 20
227.3339328234
 11
142.6985519532
 21
214.1400793811
  0
LINE
  5
290
100
AcDbEntity
  8
0
100
AcDbLine
 62
7
  6
CONTINUOUS
 10
153.3344069561
 20
222.5129818602
 11
147.2924464172
 21
217.7523461459
  0
LINE
  5
291
100
AcDbEntity
  8
0
100
AcDbLine
 62
7
  6
CONTINUOUS
 10
153.6007282332
 20
224.3340392356
 11
150.9134772815
 21
222.2179588777
  0
LINE
  5
292
100
AcDbEntity
  8
0
100
AcDbLine
 62
7
  6
CONTINUOUS
 10
153.5952786947
 20
224.3369795802
 11
141.9190622678
 21
215.1481808222
  0
LINE
  5
293
100
AcDbEntity
  8
0
100
AcDbLine
 62
7
  6
CONTINUOUS
 10
147.2924464172
 20
217.7523461459
 11
142.6988756205
 21
214.1389686004
  0
LINE
  5
294
100
AcDbEntity
  8
0
100
AcDbLine
 62
7
  6
CONTINUOUS
 10
150.9134772815
 20
222.2179588777
 11
145.7769441641
 21
218.1781399512
  0
LINE
  5
295
100
AcDbEntity
  8
0
100
AcDbLine
 62
7
  6
CONTINUOUS
 10
145.7769441641
 20
218.1781399512
 11
141.9190622678
 21
215.1481808222
  0
LINE
  5
296
100
AcDbEntity
  8
0
100
AcDbLine
 62
7
  6
CONTINUOUS
 10
190.7617891107
 20
254.8332779639
 11
130.3501479673
 21
209.8183521788
  0
LINE
  5
297
100
AcDbEntity
  8
0
100
AcDbLine
 62
7
  6
CONTINUOUS
 10
191.3062493399
 20
254.7745471649
 11
130.8944453765
 21
209.759715517
  0
LINE
  5
298
100
AcDbEntity
  8
0
100
AcDbLine
 62
7
  6
CONTINUOUS
 10
130.3526607792
 20
209.8202012716
 11
130.3501479673
 21
209.8183521788
  0
LINE
  5
299
100
AcDbEntity
  8
0
100
AcDbLine
 62
7
  6
CONTINUOUS
 10
193.2056950714
 20
254.0782748779
 11
194.1117811545
 21
254.6014007992
  0
LINE
  5
29A
100
AcDbEntity
  8
0
100
AcDbLine
 62
7
  6
CONTINUOUS
 10
124.4792715949
 20
213.3541435035
 11
131.3381788158
 21
217.314111796
  0
LINE
  5
29B
100
AcDbEntity
  8
0
100
AcDbLine
 62
7
  6
CONTINUOUS
 10
124.5004701781
 20
213.2847321964
 11
124.4792715949
 21
213.2724932617
  0
LINE
  5
29C
100
AcDbEntity
  8
0
100
AcDbLine
 62
7
  6
CONTINUOUS
 10
234.8467989002
 20
275.6283387513
 11
236.480088002
 21
276.5713130251
  0
LINE
  5
29D
100
AcDbEntity
  8
0
100
AcDbLine
 62
7
  6
CONTINUOUS
 10
241.8946234584
 20
278.542679053
 11
242.9904683798
 21
279.1753616368
  0
LINE
  5
29E
100
AcDbEntity
  8
0
100
AcDbLine
 62
7
  6
CONTINUOUS
 10
248.1858893597
 20
281.0202226179
 11
249.5008487577
 21
281.7794102486
  0
LINE
  5
29F
100
AcDbEntity
  8
0
100
AcDbLine
 62
7
  6
CONTINUOUS
 10
39.8459490011
 20
160.1196917726
 11
39.5984563205
 21
159.9768026598
  0
LINE
  5
2A0
100
AcDbEntity
  8
0
100
AcDbLine
 62
7
  6
CONTINUOUS
 10
254.5167544948
 20
283.5206286746
 11
256.0112291356
 21
284.3834588603
  0
LINE
  5
2A1
100
AcDbEntity
  8
0
100
AcDbLine
 62
7
  6
CONTINUOUS
 10
102.7075438143
 20
192.9184819114
 11
59.7510253717
 21
168.1176747827
  0
LINE
  5
2A2
100
AcDbEntity
  8
0
100
AcDbLine
 62
7
  6
CONTINUOUS
 10
117.2667523984
 20
217.4365489579
 11
120.236613244
 21
215.7219377889
  0
LINE
  5
2A3
100
AcDbEntity
  8
0
100
AcDbLine
 62
7
  6
CONTINUOUS
 10
124.4792715949
 20
213.2724932617
 11
127.4500793844
 21
211.5573353868
  0
LINE
  5
2A4
100
AcDbEntity
  8
0
100
AcDbLine
 62
7
  6
CONTINUOUS
 10
127.4496059125
 20
211.6392589815
 11
124.4792715949
 21
213.3541435035
  0
LINE
  5
2A5
100
AcDbEntity
  8
0
100
AcDbLine
 62
7
  6
CONTINUOUS
 10
120.236613244
 20
215.8035880306
 11
117.2667523984
 21
217.5181991996
  0
LINE
  5
2A6
100
AcDbEntity
  8
0
100
AcDbLine
 62
7
  6
CONTINUOUS
 10
131.3381770495
 20
217.5590572685
 11
131.3514776787
 21
217.4796344307
  0
LINE
  5
2A7
100
AcDbEntity
  8
0
100
AcDbLine
 62
7
  6
CONTINUOUS
 10
144.440948285
 20
191.0728745028
 11
144.4409515439
 21
192.2159692553
  0
LINE
  5
2A8
100
AcDbEntity
  8
0
100
AcDbLine
 62
7
  6
CONTINUOUS
 10
144.8215901521
 20
192.4357297464
 11
144.821590928
 21
193.4644977978
  0
LINE
  5
2A9
100
AcDbEntity
  8
0
100
AcDbLine
 62
7
  6
CONTINUOUS
 10
150.7275284446
 20
234.8902588407
 11
150.7273644922
 21
234.8459158865
  0
LINE
  5
2AA
100
AcDbEntity
  8
0
100
AcDbLine
 62
7
  6
CONTINUOUS
 10
143.9750586915
 20
246.1701500831
 11
143.9405471466
 21
241.5445671051
  0
LINE
  5
2AB
100
AcDbEntity
  8
0
100
AcDbLine
 62
7
  6
CONTINUOUS
 10
151.1983836917
 20
269.6040466239
 11
151.2026332021
 21
269.8360253472
  0
LINE
  5
2AC
100
AcDbEntity
  8
0
100
AcDbLine
 62
7
  6
CONTINUOUS
 10
150.3879084847
 20
234.9588071824
 11
150.3905491176
 21
235.0403719345
  0
LINE
  5
2AD
100
AcDbEntity
  8
0
100
AcDbLine
 62
7
  6
CONTINUOUS
 10
151.2949712981
 20
270.7079298279
 11
151.2749514629
 21
270.4779557021
  0
LINE
  5
2AE
100
AcDbEntity
  8
0
100
AcDbLine
 62
7
  6
CONTINUOUS
 10
142.5809038133
 20
175.8827458639
 11
144.0614522053
 21
185.7685985041
  0
LINE
  5
2AF
100
AcDbEntity
  8
0
100
AcDbLine
 62
7
  6
CONTINUOUS
 10
150.7273644922
 20
234.8459158865
 11
149.1716912832
 21
228.0687076987
  0
LINE
  5
2B0
100
AcDbEntity
  8
0
100
AcDbLine
 62
7
  6
CONTINUOUS
 10
161.5826728704
 20
247.300254244
 11
161.5959830481
 21
247.3289337588
  0
LINE
  5
2B1
100
AcDbEntity
  8
0
100
AcDbLine
 62
7
  6
CONTINUOUS
 10
163.8659112722
 20
246.9777855086
 11
163.8526010944
 21
246.9491059938
  0
LINE
  5
2B2
100
AcDbEntity
  8
0
100
AcDbLine
 62
7
  6
CONTINUOUS
 10
176.9789563177
 20
272.8848711701
 11
177.1039157485
 21
273.1336931618
  0
LINE
  5
2B3
100
AcDbEntity
  8
0
100
AcDbLine
 62
7
  6
CONTINUOUS
 10
179.4350655671
 20
254.2281556725
 11
179.8915029892
 21
254.8174205897
  0
LINE
  5
2B4
100
AcDbEntity
  8
0
100
AcDbLine
 62
7
  6
CONTINUOUS
 10
122.1786336632
 20
200.7283676191
 11
110.7101247529
 21
194.1070605045
  0
LINE
  5
2B5
100
AcDbEntity
  8
0
100
AcDbLine
 62
7
  6
CONTINUOUS
 10
260.1781691871
 20
273.7411318481
 11
261.6612038412
 21
274.5973571939
  0
LINE
  5
2B6
100
AcDbEntity
  8
0
100
AcDbLine
 62
7
  6
CONTINUOUS
 10
254.811847253
 20
269.4882041136
 11
256.1508189865
 21
270.2612551899
  0
LINE
  5
2B7
100
AcDbEntity
  8
0
100
AcDbLine
 62
7
  6
CONTINUOUS
 10
62.1478242475
 20
157.5714251813
 11
110.9412796448
 21
185.7431713057
  0
LINE
  5
2B8
100
AcDbEntity
  8
0
100
AcDbLine
 62
7
  6
CONTINUOUS
 10
120.4393700791
 20
198.3714248003
 11
120.4481851575
 21
198.3765130797
  0
LINE
  5
2B9
100
AcDbEntity
  8
0
100
AcDbLine
 62
7
  6
CONTINUOUS
 10
127.5197845337
 20
219.6819071012
 11
131.3381770495
 21
217.4774070268
  0
LINE
  5
2BA
100
AcDbEntity
  8
0
100
AcDbLine
 62
7
  6
CONTINUOUS
 10
131.3381770495
 20
217.5590572685
 11
127.5197845337
 21
219.7635573429
  0
LINE
  5
2BB
100
AcDbEntity
  8
0
100
AcDbLine
 62
7
  6
CONTINUOUS
 10
119.7062034445
 20
226.8575406027
 11
138.5877728038
 21
215.9565080647
  0
LINE
  5
2BC
100
AcDbEntity
  8
0
100
AcDbLine
 62
7
  6
CONTINUOUS
 10
119.8562008995
 20
226.8723989681
 11
138.6644907513
 21
216.0136734164
  0
LINE
  5
2BD
100
AcDbEntity
  8
0
100
AcDbLine
 62
7
  6
CONTINUOUS
 10
151.1983803267
 20
258.3528281387
 11
151.1983803267
 21
269.6040362864
  0
LINE
  5
2BE
100
AcDbEntity
  8
0
100
AcDbLine
 62
7
  6
CONTINUOUS
 10
151.2749514629
 20
270.2105874635
 11
151.2749514629
 21
270.4779557021
  0
LINE
  5
2BF
100
AcDbEntity
  8
0
100
AcDbLine
 62
7
  6
CONTINUOUS
 10
151.9483803267
 20
242.877420473
 11
151.9483803267
 21
245.4798302879
  0
LINE
  5
2C0
100
AcDbEntity
  8
0
100
AcDbLine
 62
7
  6
CONTINUOUS
 10
152.1768445625
 20
246.8388814738
 11
152.1768445625
 21
247.1654824406
  0
LINE
  5
2C1
100
AcDbEntity
  8
0
100
AcDbLine
 62
7
  6
CONTINUOUS
 10
152.6983803267
 20
246.0922071008
 11
152.6983803267
 21
254.5680974531
  0
LINE
  5
2C2
100
AcDbEntity
  8
0
100
AcDbLine
 62
7
  6
CONTINUOUS
 10
159.1983803267
 20
271.9746156895
 11
159.1983803267
 21
271.5642928773
  0
LINE
  5
2C3
100
AcDbEntity
  8
0
100
AcDbLine
 62
7
  6
CONTINUOUS
 10
108.9077461921
 20
162.9106785569
 11
106.9708086023
 21
161.0372933345
  0
LINE
  5
2C4
100
AcDbEntity
  8
0
100
AcDbLine
 62
7
  6
CONTINUOUS
 10
128.7830553482
 20
185.8318974777
 11
128.7496979274
 21
185.8102608328
  0
LINE
  5
2C5
100
AcDbEntity
  8
0
100
AcDbLine
 62
7
  6
CONTINUOUS
 10
249.4470124527
 20
265.2361349711
 11
250.6404341317
 21
265.9251531858
  0
LINE
  5
2C6
100
AcDbEntity
  8
0
100
AcDbLine
 62
7
  6
CONTINUOUS
 10
243.4876525113
 20
260.6408186272
 11
245.130049277
 21
261.5890511818
  0
LINE
  5
2C7
100
AcDbEntity
  8
0
100
AcDbLine
 62
7
  6
CONTINUOUS
 10
226.4746278279
 20
247.1811016104
 11
234.5610958893
 21
251.8497982541
  0
LINE
  5
2C8
100
AcDbEntity
  8
0
100
AcDbLine
 62
7
  6
CONTINUOUS
 10
63.2866027208
 20
151.6977308443
 11
112.6778054298
 21
180.2136069249
  0
LINE
  5
2C9
100
AcDbEntity
  8
0
100
AcDbLine
 62
7
  6
CONTINUOUS
 10
112.6778057027
 20
179.1847919192
 11
112.7414450851
 21
179.2215339145
  0
LINE
  5
2CA
100
AcDbEntity
  8
0
100
AcDbLine
 62
7
  6
CONTINUOUS
 10
112.7411254988
 20
178.078282816
 11
63.287689115
 21
149.5266209027
  0
LINE
  5
2CB
100
AcDbEntity
  8
0
100
AcDbLine
 62
7
  6
CONTINUOUS
 10
127.2764169285
 20
211.3453579152
 11
115.5384508377
 21
210.4471963013
  0
LINE
  5
2CC
100
AcDbEntity
  8
0
100
AcDbLine
 62
7
  6
CONTINUOUS
 10
119.7879491176
 20
231.5573109726
 11
142.1772315182
 21
218.6311451806
  0
LINE
  5
2CD
100
AcDbEntity
  8
0
100
AcDbLine
 62
7
  6
CONTINUOUS
 10
143.1803991059
 20
219.3786420811
 11
120.9368892945
 21
232.2206479334
  0
LINE
  5
2CE
100
AcDbEntity
  8
0
100
AcDbLine
 62
7
  6
CONTINUOUS
 10
122.0914408257
 20
232.0807598441
 11
143.578650821
 21
219.6753940161
  0
LINE
  5
2CF
100
AcDbEntity
  8
0
100
AcDbLine
 62
7
  6
CONTINUOUS
 10
143.9425123198
 20
219.9465205415
 11
122.3034427523
 21
232.439560551
  0
LINE
  5
2D0
100
AcDbEntity
  8
0
100
AcDbLine
 62
7
  6
CONTINUOUS
 10
134.5908229058
 20
227.9285109673
 11
138.4092154216
 21
225.7240108929
  0
LINE
  5
2D1
100
AcDbEntity
  8
0
100
AcDbLine
 62
7
  6
CONTINUOUS
 10
161.5826728704
 20
240.8498851487
 11
161.5826728704
 21
247.300254244
  0
LINE
  5
2D2
100
AcDbEntity
  8
0
100
AcDbLine
 62
7
  6
CONTINUOUS
 10
161.5959830481
 20
247.3289337588
 11
161.5959830481
 21
249.8161966957
  0
LINE
  5
2D3
100
AcDbEntity
  8
0
100
AcDbLine
 62
7
  6
CONTINUOUS
 10
161.9205515742
 20
249.7549171613
 11
161.9205515742
 21
242.6393674326
  0
LINE
  5
2D4
100
AcDbEntity
  8
0
100
AcDbLine
 62
7
  6
CONTINUOUS
 10
163.8526010944
 20
246.9491059938
 11
163.8526010944
 21
240.4987368985
  0
LINE
  5
2D5
100
AcDbEntity
  8
0
100
AcDbLine
 62
7
  6
CONTINUOUS
 10
163.8659112722
 20
249.3876272763
 11
163.8659112722
 21
246.9777855086
  0
LINE
  5
2D6
100
AcDbEntity
  8
0
100
AcDbLine
 62
7
  6
CONTINUOUS
 10
166.5146771834
 20
260.0102942309
 11
166.5141707547
 21
261.2156696987
  0
LINE
  5
2D7
100
AcDbEntity
  8
0
100
AcDbLine
 62
7
  6
CONTINUOUS
 10
166.8107299618
 20
267.5383918328
 11
166.8107299618
 21
267.948714645
  0
LINE
  5
2D8
100
AcDbEntity
  8
0
100
AcDbLine
 62
7
  6
CONTINUOUS
 10
167.7121990603
 20
260.0525837138
 11
167.7121990603
 21
260.9881210657
  0
LINE
  5
2D9
100
AcDbEntity
  8
0
100
AcDbLine
 62
7
  6
CONTINUOUS
 10
169.4981815227
 20
260.2205171183
 11
169.4981815227
 21
261.1560544703
  0
LINE
  5
2DA
100
AcDbEntity
  8
0
100
AcDbLine
 62
7
  6
CONTINUOUS
 10
163.2779726199
 20
234.3540799781
 11
163.2929432665
 21
235.0172165346
  0
LINE
  5
2DB
100
AcDbEntity
  8
0
100
AcDbLine
 62
7
  6
CONTINUOUS
 10
144.6165224185
 20
175.0413121528
 11
143.9941289377
 21
174.0706353662
  0
LINE
  5
2DC
100
AcDbEntity
  8
0
100
AcDbLine
 62
7
  6
CONTINUOUS
 10
145.2675351143
 20
175.9450032579
 11
144.6164655494
 21
175.041223708
  0
LINE
  5
2DD
100
AcDbEntity
  8
0
100
AcDbLine
 62
7
  6
CONTINUOUS
 10
241.8049678488
 20
257.5932467136
 11
235.074142306
 21
252.2006462103
  0
LINE
  5
2DE
100
AcDbEntity
  8
0
100
AcDbLine
 62
7
  6
CONTINUOUS
 10
144.821590928
 20
193.4644977978
 11
224.1048041447
 21
239.2384344994
  0
LINE
  5
2DF
100
AcDbEntity
  8
0
100
AcDbLine
 62
7
  6
CONTINUOUS
 10
220.1375544524
 20
235.9191624483
 11
219.2160387905
 21
235.3871283087
  0
LINE
  5
2E0
100
AcDbEntity
  8
0
100
AcDbLine
 62
7
  6
CONTINUOUS
 10
144.4409515439
 20
192.2159692553
 11
144.8215901521
 21
192.4357297464
  0
LINE
  5
2E1
100
AcDbEntity
  8
0
100
AcDbLine
 62
7
  6
CONTINUOUS
 10
224.104070917
 20
237.0661229088
 11
144.440948285
 21
191.0728745028
  0
LINE
  5
2E2
100
AcDbEntity
  8
0
100
AcDbLine
 62
7
  6
CONTINUOUS
 10
144.0614522053
 20
185.7685985041
 11
223.769502894
 21
231.787752555
  0
LINE
  5
2E3
100
AcDbEntity
  8
0
100
AcDbLine
 62
7
  6
CONTINUOUS
 10
108.9077461921
 20
162.9106785569
 11
59.9566473845
 21
134.6489171832
  0
LINE
  5
2E4
100
AcDbEntity
  8
0
100
AcDbLine
 62
7
  6
CONTINUOUS
 10
217.2884301002
 20
219.0046450902
 11
217.2881176791
 21
219.0045115911
  0
LINE
  5
2E5
100
AcDbEntity
  8
0
100
AcDbLine
 62
7
  6
CONTINUOUS
 10
128.7496979274
 20
185.8102608328
 11
126.4539898268
 21
185.139290567
  0
LINE
  5
2E6
100
AcDbEntity
  8
0
100
AcDbLine
 62
7
  6
CONTINUOUS
 10
141.4497283604
 20
232.0517744907
 11
141.4285297508
 21
232.0640132368
  0
LINE
  5
2E7
100
AcDbEntity
  8
0
100
AcDbLine
 62
7
  6
CONTINUOUS
 10
138.4793940428
 20
233.8483092543
 11
141.4497283604
 21
232.1334247324
  0
LINE
  5
2E8
100
AcDbEntity
  8
0
100
AcDbLine
 62
7
  6
CONTINUOUS
 10
145.6923867113
 20
229.6839802052
 11
148.6622475569
 21
227.9693690363
  0
LINE
  5
2E9
100
AcDbEntity
  8
0
100
AcDbLine
 62
7
  6
CONTINUOUS
 10
170.6570593761
 20
260.3997965688
 11
170.6570593761
 21
261.3353339207
  0
LINE
  5
2EA
100
AcDbEntity
  8
0
100
AcDbLine
 62
7
  6
CONTINUOUS
 10
171.9819784314
 20
273.2243466194
 11
171.9819784314
 21
273.6343405033
  0
LINE
  5
2EB
100
AcDbEntity
  8
0
100
AcDbLine
 62
7
  6
CONTINUOUS
 10
172.168206293
 20
273.5235643413
 11
172.168206293
 21
273.113518727
  0
LINE
  5
2EC
100
AcDbEntity
  8
0
100
AcDbLine
 62
7
  6
CONTINUOUS
 10
172.3491968946
 20
260.7699314664
 11
172.3491968946
 21
261.7054688183
  0
LINE
  5
2ED
100
AcDbEntity
  8
0
100
AcDbLine
 62
7
  6
CONTINUOUS
 10
172.5917145834
 20
273.5910887363
 11
172.5917145834
 21
273.1807788455
  0
LINE
  5
2EE
100
AcDbEntity
  8
0
100
AcDbLine
 62
7
  6
CONTINUOUS
 10
173.422901094
 20
261.0790027086
 11
173.422901094
 21
262.0145400605
  0
LINE
  5
2EF
100
AcDbEntity
  8
0
100
AcDbLine
 62
7
  6
CONTINUOUS
 10
174.6501348391
 20
273.160873702
 11
174.6501348391
 21
273.5725665445
  0
LINE
  5
2F0
100
AcDbEntity
  8
0
100
AcDbLine
 62
7
  6
CONTINUOUS
 10
175.10366594
 20
273.0952415064
 11
175.10366594
 21
273.5072641728
  0
LINE
  5
2F1
100
AcDbEntity
  8
0
100
AcDbLine
 62
7
  6
CONTINUOUS
 10
175.2288751792
 20
273.6162725605
 11
175.2288751792
 21
273.20409102
  0
LWPOLYLINE
  5
2F2
100
AcDbEntity
  8
0
100
AcDbPolyline
 62
7
  6
CONTINUOUS
 90
4
 70
0
 10
140.7888083057
 20
170.7526263846
 10
142.3099309829
 20
171.9241271927
 10
143.5146135607
 20
173.3642138588
 10
143.9941289377
 20
174.0706353662
  0
LWPOLYLINE
  5
2F3
100
AcDbEntity
  8
0
100
AcDbPolyline
 62
7
  6
CONTINUOUS
 90
3
 70
0
 10
217.2882878297
 20
219.0045333377
 10
218.6995060917
 20
219.8883698626
 10
219.8731622692
 20
221.1865255938
  0
LINE
  5
2F4
100
AcDbEntity
  8
0
100
AcDbLine
 62
7
  6
CONTINUOUS
 10
214.8303444866
 20
217.6564364963
 11
216.4414557143
 21
218.6075789658
  0
LINE
  5
2F5
100
AcDbEntity
  8
0
100
AcDbLine
 62
7
  6
CONTINUOUS
 10
139.2178880001
 20
169.8767033288
 11
139.7768034391
 21
170.2045212939
  0
LINE
  5
2F6
100
AcDbEntity
  8
0
100
AcDbLine
 62
7
  6
CONTINUOUS
 10
58.084577043
 20
132.8129828605
 11
106.9734699301
 21
161.0388298436
  0
LINE
  5
2F7
100
AcDbEntity
  8
0
100
AcDbLine
 62
7
  6
CONTINUOUS
 10
215.0229777509
 20
219.6421548154
 11
218.3211216454
 21
221.5463277143
  0
LINE
  5
2F8
100
AcDbEntity
  8
0
100
AcDbLine
 62
7
  6
CONTINUOUS
 10
214.7047939638
 20
217.5189720147
 11
151.4156706715
 21
180.9792049268
  0
LINE
  5
2F9
100
AcDbEntity
  8
0
100
AcDbLine
 62
7
  6
CONTINUOUS
 10
146.4652420519
 20
178.1209725606
 11
142.6119462059
 21
175.8962881317
  0
LINE
  5
2FA
100
AcDbEntity
  8
0
100
AcDbLine
 62
7
  6
CONTINUOUS
 10
140.1914097409
 20
170.4077218245
 11
140.7887226713
 21
170.7525785438
  0
LINE
  5
2FB
100
AcDbEntity
  8
0
100
AcDbLine
 62
7
  6
CONTINUOUS
 10
159.6561426612
 20
181.6456235313
 11
209.7501889898
 21
210.5672620249
  0
LINE
  5
2FC
100
AcDbEntity
  8
0
100
AcDbLine
 62
7
  6
CONTINUOUS
 10
216.4414557143
 20
218.6075789658
 11
216.4412684642
 21
218.6074830571
  0
LWPOLYLINE
  5
2FD
100
AcDbEntity
  8
0
100
AcDbPolyline
 62
7
  6
CONTINUOUS
 90
4
 70
0
 10
216.4412775289
 20
218.6074856067
 10
216.6747872058
 20
218.7243129722
 10
217.1116127462
 20
218.9277138963
 10
217.2881176791
 20
219.0045115911
  0
LINE
  5
2FE
100
AcDbEntity
  8
0
100
AcDbLine
 62
7
  6
CONTINUOUS
 10
150.3905491176
 20
234.9587216928
 11
138.6525830268
 21
234.0605600789
  0
LINE
  5
2FF
100
AcDbEntity
  8
0
100
AcDbLine
 62
7
  6
CONTINUOUS
 10
138.6525830268
 20
234.1422103206
 11
150.3905491176
 21
235.0403719345
  0
LINE
  5
300
100
AcDbEntity
  8
0
100
AcDbLine
 62
7
  6
CONTINUOUS
 10
143.534510007
 20
241.6775311198
 11
160.1964868738
 21
232.0579521202
  0
LINE
  5
301
100
AcDbEntity
  8
0
100
AcDbLine
 62
7
  6
CONTINUOUS
 10
143.6840280791
 20
241.6926651074
 11
160.2732038011
 21
232.1151167117
  0
LINE
  5
302
100
AcDbEntity
  8
0
100
AcDbLine
 62
7
  6
CONTINUOUS
 10
143.9749535323
 20
246.1702107309
 11
163.2930473142
 21
235.0171564015
  0
LINE
  5
303
100
AcDbEntity
  8
0
100
AcDbLine
 62
7
  6
CONTINUOUS
 10
179.6983803267
 20
246.5895269928
 11
179.6983803267
 21
254.5680974531
  0
LINE
  5
304
100
AcDbEntity
  8
0
100
AcDbLine
 62
7
  6
CONTINUOUS
 10
181.1983803267
 20
258.3528281387
 11
181.1983803267
 21
269.6040362864
  0
LINE
  5
305
100
AcDbEntity
  8
0
100
AcDbLine
 62
7
  6
CONTINUOUS
 10
211.8308430651
 20
211.9350114484
 11
211.833391817
 21
211.93690237
  0
LINE
  5
306
100
AcDbEntity
  8
0
100
AcDbLine
 62
7
  6
CONTINUOUS
 10
209.7500690502
 20
210.5670247813
 11
211.8327116204
 21
211.9369768005
  0
LWPOLYLINE
  5
307
100
AcDbEntity
  8
0
100
AcDbPolyline
 62
7
  6
CONTINUOUS
 90
3
 70
0
 10
139.2178536839
 20
169.8766572004
 10
139.8500106266
 20
170.2145992677
 10
140.1921913879
 20
170.4081719748
  0
LINE
  5
308
100
AcDbEntity
  8
0
100
AcDbLine
 62
7
  6
CONTINUOUS
 10
139.2176379929
 20
169.8765744131
 11
139.2178880001
 21
169.8767033288
  0
LINE
  5
309
100
AcDbEntity
  8
0
100
AcDbLine
 62
7
  6
CONTINUOUS
 10
138.1386542805
 20
169.4169784676
 11
138.982074608
 21
169.8185844497
  0
LWPOLYLINE
  5
30A
100
AcDbEntity
  8
0
100
AcDbPolyline
 62
7
  6
CONTINUOUS
 90
4
 70
0
 10
106.5144897511
 20
160.7738390956
 10
110.4093211013
 20
162.0904658844
 10
115.7553995037
 20
163.5913603373
 10
118.0689034196
 20
164.1430621466
  0
LINE
  5
30B
100
AcDbEntity
  8
0
100
AcDbLine
 62
7
  6
CONTINUOUS
 10
221.6104682888
 20
262.2950696229
 11
217.7757919112
 21
261.2315380955
  0
LINE
  5
30C
100
AcDbEntity
  8
0
100
AcDbLine
 62
7
  6
CONTINUOUS
 10
221.6104682888
 20
262.2950696229
 11
217.7724696661
 21
261.2336031424
  0
LINE
  5
30D
100
AcDbEntity
  8
0
100
AcDbLine
 62
7
  6
CONTINUOUS
 10
194.691939412
 20
256.1531967188
 11
196.8832088434
 21
256.7505769448
  0
LINE
  5
30E
100
AcDbEntity
  8
0
100
AcDbLine
 62
7
  6
CONTINUOUS
 10
194.691939412
 20
256.1531967188
 11
196.8856884292
 21
256.7490222907
  0
LINE
  5
30F
100
AcDbEntity
  8
0
100
AcDbLine
 62
7
  6
CONTINUOUS
 10
200.2157157738
 20
256.4228981419
 11
195.2233687841
 21
255.0695236519
  0
LINE
  5
310
100
AcDbEntity
  8
0
100
AcDbLine
 62
7
  6
CONTINUOUS
 10
200.218989315
 20
256.4208532161
 11
195.2233687841
 21
255.0695236519
  0
LINE
  5
311
100
AcDbEntity
  8
0
100
AcDbLine
 62
7
  6
CONTINUOUS
 10
163.8526010944
 20
246.9491059938
 11
163.8656679082
 21
246.948995539
  0
LINE
  5
312
100
AcDbEntity
  8
0
100
AcDbLine
 62
7
  6
CONTINUOUS
 10
164.7769401437
 20
235.4710155647
 11
142.1052093904
 21
248.5602493
  0
LINE
  5
313
100
AcDbEntity
  8
0
100
AcDbLine
 62
7
  6
CONTINUOUS
 10
152.9616950863
 20
254.2281556725
 11
152.5052576642
 21
254.8174205897
  0
LINE
  5
314
100
AcDbEntity
  8
0
100
AcDbLine
 62
7
  6
CONTINUOUS
 10
193.3369210881
 20
279.1067938132
 11
193.3369210881
 21
279.4414806274
  0
LINE
  5
315
100
AcDbEntity
  8
0
100
AcDbLine
 62
7
  6
CONTINUOUS
 10
213.6480902292
 20
214.0466612887
 11
213.5529268101
 21
213.9514155727
  0
LWPOLYLINE
  5
316
100
AcDbEntity
  8
0
100
AcDbPolyline
 62
7
  6
CONTINUOUS
 90
3
 70
0
 10
163.8659117518
 20
249.7993128739
 10
163.8519250332
 20
249.7993128402
 10
163.8292786122
 20
249.8035610175
  0
LINE
  5
317
100
AcDbEntity
  8
0
100
AcDbLine
 62
7
  6
CONTINUOUS
 10
163.8655724663
 20
249.79806865
 11
163.8286930494
 21
249.8014479707
  0
LINE
  5
318
100
AcDbEntity
  8
0
100
AcDbLine
 62
7
  6
CONTINUOUS
 10
163.8526010944
 20
246.9491059938
 11
163.8653091574
 21
246.9478150611
  0
LINE
  5
319
100
AcDbEntity
  8
0
100
AcDbLine
 62
7
  6
CONTINUOUS
 10
172.5692454818
 20
273.6491142872
 11
172.5917145834
 21
273.5910844226
  0
LINE
  5
31A
100
AcDbEntity
  8
0
100
AcDbLine
 62
7
  6
CONTINUOUS
 10
213.6483187454
 20
214.0470734683
 11
213.6480902292
 21
214.0466612887
  0
LWPOLYLINE
  5
31B
100
AcDbEntity
  8
0
100
AcDbPolyline
 62
7
  6
CONTINUOUS
 90
3
 70
0
 10
224.1490569934
 20
227.2355883039
 10
225.0197716565
 20
228.6993872542
 10
226.152812065
 20
232.5063094067
  0
LINE
  5
31C
100
AcDbEntity
  8
0
100
AcDbLine
 62
7
  6
CONTINUOUS
 10
218.3211216454
 20
221.5463277143
 11
223.3663672811
 21
228.6843111583
  0
LINE
  5
31D
100
AcDbEntity
  8
0
100
AcDbLine
 62
7
  6
CONTINUOUS
 10
224.1491210245
 20
227.2359321258
 11
219.8813825832
 21
221.1980168686
  0
LINE
  5
31E
100
AcDbEntity
  8
0
100
AcDbLine
 62
7
  6
CONTINUOUS
 10
219.8813825832
 20
221.1980168686
 11
219.8735774294
 21
221.186995329
  0
LINE
  5
31F
100
AcDbEntity
  8
0
100
AcDbLine
 62
7
  6
CONTINUOUS
 10
192.4841095131
 20
255.8955070717
 11
193.0341070508
 21
255.8410303648
  0
LINE
  5
320
100
AcDbEntity
  8
0
100
AcDbLine
 62
7
  6
CONTINUOUS
 10
192.1280209676
 20
255.3179044435
 11
191.5781349305
 21
255.3724454988
  0
LINE
  5
321
100
AcDbEntity
  8
0
100
AcDbLine
 62
7
  6
CONTINUOUS
 10
194.2690047293
 20
256.3973724645
 11
193.7632710061
 21
256.4702978603
  0
LINE
  5
322
100
AcDbEntity
  8
0
100
AcDbLine
 62
7
  6
CONTINUOUS
 10
180.0299095596
 20
255.0571532249
 11
186.2459809242
 21
251.4683839381
  0
LINE
  5
323
100
AcDbEntity
  8
0
100
AcDbLine
 62
7
  6
CONTINUOUS
 10
215.0229777509
 20
219.6421548154
 11
214.7047939638
 21
217.5189720147
  0
LINE
  5
324
100
AcDbEntity
  8
0
100
AcDbLine
 62
7
  6
CONTINUOUS
 10
215.125090558
 20
219.7011093202
 11
214.8210354683
 21
217.6722047586
  0
LINE
  5
325
100
AcDbEntity
  8
0
100
AcDbLine
 62
7
  6
CONTINUOUS
 10
219.2160387905
 20
235.3871283087
 11
219.3352916924
 21
235.9698929894
  0
LINE
  5
326
100
AcDbEntity
  8
0
100
AcDbLine
 62
7
  6
CONTINUOUS
 10
196.6031397155
 20
280.0228926745
 11
197.3826550464
 21
280.0953181575
  0
LINE
  5
327
100
AcDbEntity
  8
0
100
AcDbLine
 62
7
  6
CONTINUOUS
 10
188.7103616988
 20
253.3046842864
 11
181.1085072952
 21
257.693517684
  0
LINE
  5
328
100
AcDbEntity
  8
0
100
AcDbLine
 62
7
  6
CONTINUOUS
 10
219.5138838562
 20
236.279230689
 11
220.1375544524
 21
235.9191624483
  0
LINE
  5
329
100
AcDbEntity
  8
0
100
AcDbLine
 62
7
  6
CONTINUOUS
 10
219.788976992
 20
236.4966241613
 11
220.0183015505
 21
236.3642265609
  0
LINE
  5
32A
100
AcDbEntity
  8
0
100
AcDbLine
 62
7
  6
CONTINUOUS
 10
191.3062493399
 20
254.7745471649
 11
191.7116562419
 21
254.540491816
  0
LINE
  5
32B
100
AcDbEntity
  8
0
100
AcDbLine
 62
7
  6
CONTINUOUS
 10
192.5199199148
 20
255.0916465995
 11
192.1279582097
 21
255.317940676
  0
LINE
  5
32C
100
AcDbEntity
  8
0
100
AcDbLine
 62
7
  6
CONTINUOUS
 10
193.0341070515
 20
255.8410303644
 11
193.4260050475
 21
255.6147730695
  0
LINE
  5
32D
100
AcDbEntity
  8
0
100
AcDbLine
 62
7
  6
CONTINUOUS
 10
194.691939412
 20
256.1531967188
 11
194.26900473
 21
256.3973724641
  0
LINE
  5
32E
100
AcDbEntity
  8
0
100
AcDbLine
 62
7
  6
CONTINUOUS
 10
216.8483533119
 20
219.2090948722
 11
216.8483477798
 21
220.6960264022
  0
LINE
  5
32F
100
AcDbEntity
  8
0
100
AcDbLine
 62
7
  6
CONTINUOUS
 10
224.1048041447
 20
239.2384344994
 11
224.104070917
 21
237.0661229088
  0
LWPOLYLINE
  5
330
100
AcDbEntity
  8
0
100
AcDbPolyline
 62
7
  6
CONTINUOUS
 90
4
 70
0
 10
226.5570071437
 20
235.6179707972
 10
226.7315499878
 20
237.2415571689
 10
226.8547135793
 20
239.2405815393
 10
226.8865407244
 20
240.9445244841
  0
LINE
  5
331
100
AcDbEntity
  8
0
100
AcDbLine
 62
7
  6
CONTINUOUS
 10
223.3663672811
 20
228.6843111583
 11
223.769502894
 21
231.787752555
  0
LINE
  5
332
100
AcDbEntity
  8
0
100
AcDbLine
 62
7
  6
CONTINUOUS
 10
226.1527921743
 20
232.5065950311
 11
226.5569516014
 21
235.6181752319
  0
LINE
  5
333
100
AcDbEntity
  8
0
100
AcDbLine
 62
7
  6
CONTINUOUS
 10
220.6791341711
 20
266.1229252542
 11
222.0079395738
 21
265.8707257083
  0
LINE
  5
334
100
AcDbEntity
  8
0
100
AcDbLine
 62
7
  6
CONTINUOUS
 10
243.4909169823
 20
260.6576148514
 11
243.5099055951
 21
260.6536663744
  0
LINE
  5
335
100
AcDbEntity
  8
0
100
AcDbLine
 62
7
  6
CONTINUOUS
 10
243.4922433808
 20
260.5117510032
 11
243.5115003258
 21
260.5075691715
  0
LINE
  5
336
100
AcDbEntity
  8
0
100
AcDbLine
 62
7
  6
CONTINUOUS
 10
176.3806755826
 20
276.6489480764
 11
176.3144775397
 21
276.6869591009
  0
LINE
  5
337
100
AcDbEntity
  8
0
100
AcDbLine
 62
7
  6
CONTINUOUS
 10
181.1983803267
 20
267.8779095625
 11
198.3889580602
 21
257.9531494086
  0
LINE
  5
338
100
AcDbEntity
  8
0
100
AcDbLine
 62
7
  6
CONTINUOUS
 10
200.910298829
 20
258.5263650062
 11
181.161559673
 21
269.9280469336
  0
LINE
  5
339
100
AcDbEntity
  8
0
100
AcDbLine
 62
7
  6
CONTINUOUS
 10
179.7933303362
 20
273.6367446496
 11
203.2365838308
 21
260.1020821288
  0
LINE
  5
33A
100
AcDbEntity
  8
0
100
AcDbLine
 62
7
  6
CONTINUOUS
 10
176.3806755826
 20
276.6489480764
 11
176.5069247497
 21
276.5754179902
  0
LINE
  5
33B
100
AcDbEntity
  8
0
100
AcDbLine
 62
7
  6
CONTINUOUS
 10
219.9267317571
 20
236.4943059764
 11
220.0183015505
 21
236.364226561
  0
LINE
  5
33C
100
AcDbEntity
  8
0
100
AcDbLine
 62
7
  6
CONTINUOUS
 10
220.0183015505
 20
236.364226561
 11
220.1375544524
 21
235.9191624483
  0
LINE
  5
33D
100
AcDbEntity
  8
0
100
AcDbLine
 62
7
  6
CONTINUOUS
 10
226.8865409845
 20
243.1163055323
 11
226.877169085
 21
243.3598715188
  0
LINE
  5
33E
100
AcDbEntity
  8
0
100
AcDbLine
 62
7
  6
CONTINUOUS
 10
226.8865409845
 20
243.1163055323
 11
226.8865409845
 21
240.9444091028
  0
LINE
  5
33F
100
AcDbEntity
  8
0
100
AcDbLine
 62
7
  6
CONTINUOUS
 10
190.6770705898
 20
280.9650700894
 11
190.1819175667
 21
281.0192803579
  0
LWPOLYLINE
  5
340
100
AcDbEntity
  8
0
100
AcDbPolyline
 62
7
  6
CONTINUOUS
 90
4
 70
0
 10
197.3824956878
 20
280.0954089061
 10
195.0934477578
 20
280.8886362835
 10
192.3301785798
 20
281.2968383576
 10
190.1819175657
 20
281.0192803576
  0
LINE
  5
341
100
AcDbEntity
  8
0
100
AcDbLine
 62
7
  6
CONTINUOUS
 10
197.3826550464
 20
280.0953181575
 11
197.3827151144
 21
280.0952908069
  0
LINE
  5
342
100
AcDbEntity
  8
0
100
AcDbLine
 62
7
  6
CONTINUOUS
 10
218.0658451793
 20
264.8298658197
 11
193.3369210881
 21
279.1067938132
  0
LINE
  5
343
100
AcDbEntity
  8
0
100
AcDbLine
 62
7
  6
CONTINUOUS
 10
193.3369210881
 20
279.4414806274
 11
218.4393163309
 21
264.9489338419
  0
LINE
  5
344
100
AcDbEntity
  8
0
100
AcDbLine
 62
7
  6
CONTINUOUS
 10
223.6963166929
 20
263.6152108548
 11
223.6964962182
 21
263.6144618533
  0
LINE
  5
345
100
AcDbEntity
  8
0
100
AcDbLine
 62
7
  6
CONTINUOUS
 10
222.0079395738
 20
265.8707257083
 11
222.0080807608
 21
265.8706205206
  0
LWPOLYLINE
  5
346
100
AcDbEntity
  8
0
100
AcDbPolyline
 62
7
  6
CONTINUOUS
 90
4
 70
0
 10
223.6967605651
 20
263.6140986109
 10
223.5592838702
 20
264.034436444
 10
222.8315384893
 20
265.1385556218
 10
222.0082582097
 20
265.8705132316
  0
ARC
  5
347
100
AcDbEntity
  8
0
100
AcDbCircle
 62
7
  6
CONTINUOUS
 10
-4898.5386813304
 20
6637.7574652068
 40
8164.3191650338
100
AcDbArc
 50
308.3281139877
 51
308.5703568201
  0
ARC
  5
348
100
AcDbEntity
  8
0
100
AcDbCircle
 62
7
  6
CONTINUOUS
 10
-4851.9774252816
 20
6569.7185108547
 40
8083.3257495161
100
AcDbArc
 50
308.3874233001
 51
308.6131991724
  0
ARC
  5
349
100
AcDbEntity
  8
0
100
AcDbCircle
 62
7
  6
CONTINUOUS
 10
81.8689961456
 20
349.0704797748
 40
157.5360584355
100
AcDbArc
 50
277.6012102353
 51
278.4602430293
  0
ARC
  5
34A
100
AcDbEntity
  8
0
100
AcDbCircle
 62
7
  6
CONTINUOUS
 10
32.8012663126
 20
192.0683119002
 40
95.2913461629
100
AcDbArc
 50
5.9610215
 51
6.264592162
  0
ARC
  5
34B
100
AcDbEntity
  8
0
100
AcDbCircle
 62
7
  6
CONTINUOUS
 10
67.1536344268
 20
184.9100890969
 40
61.9467993744
100
AcDbArc
 50
359.7233663257
 51
0.0002037073
  0
ARC
  5
34C
100
AcDbEntity
  8
0
100
AcDbCircle
 62
7
  6
CONTINUOUS
 10
92.029369401
 20
215.777413362
 40
37.9080755653
100
AcDbArc
 50
338.7493209718
 51
339.4431755857
  0
ARC
  5
34D
100
AcDbEntity
  8
0
100
AcDbCircle
 62
7
  6
CONTINUOUS
 10
48.1569224493
 20
162.4618170933
 40
13.6691030591
100
AcDbArc
 50
98.5170840496
 51
100.9345809595
  0
ARC
  5
34E
100
AcDbEntity
  8
0
100
AcDbCircle
 62
7
  6
CONTINUOUS
 10
44.1450021169
 20
162.7117257044
 40
13.4164842518
100
AcDbArc
 50
81.4810456406
 51
84.3236251773
  0
ARC
  5
34F
100
AcDbEntity
  8
0
100
AcDbCircle
 62
7
  6
CONTINUOUS
 10
124.7772850641
 20
-70.6816472183
 40
264.5116496902
100
AcDbArc
 50
93.0069159898
 51
94.267128544
  0
ARC
  5
350
100
AcDbEntity
  8
0
100
AcDbCircle
 62
7
  6
CONTINUOUS
 10
126.2817948444
 20
125.5581065969
 40
169.7187660129
100
AcDbArc
 50
65.2917685646
 51
65.5221471889
  0
ARC
  5
351
100
AcDbEntity
  8
0
100
AcDbCircle
 62
7
  6
CONTINUOUS
 10
143.1432758418
 20
127.2094328586
 40
61.1375640369
100
AcDbArc
 50
117.2588745155
 51
117.4922479691
  0
ARC
  5
352
100
AcDbEntity
  8
0
100
AcDbCircle
 62
7
  6
CONTINUOUS
 10
141.7081900039
 20
129.9110609385
 40
58.0785510055
100
AcDbArc
 50
117.4667191947
 51
119.9898901793
  0
ARC
  5
353
100
AcDbEntity
  8
0
100
AcDbCircle
 62
7
  6
CONTINUOUS
 10
133.9264634217
 20
211.0733741428
 40
71.8998739887
100
AcDbArc
 50
56.6308018509
 51
59.3375478783
  0
ARC
  5
354
100
AcDbEntity
  8
0
100
AcDbCircle
 62
7
  6
CONTINUOUS
 10
104.1906345922
 20
191.0720688316
 40
40.2497891995
100
AcDbArc
 50
359.522392529
 51
0.0007096246
  0
ARC
  5
355
100
AcDbEntity
  8
0
100
AcDbCircle
 62
7
  6
CONTINUOUS
 10
125.468738027
 20
162.1290879335
 40
27.7249342751
100
AcDbArc
 50
118.5035496305
 51
121.5999601551
  0
ARC
  5
356
100
AcDbEntity
  8
0
100
AcDbCircle
 62
7
  6
CONTINUOUS
 10
128.6880341355
 20
164.8913424222
 40
27.4843769976
100
AcDbArc
 50
127.0093687633
 51
130.3607779885
  0
ARC
  5
357
100
AcDbEntity
  8
0
100
AcDbCircle
 62
7
  6
CONTINUOUS
 10
128.3268484247
 20
147.8952225902
 40
18.726747963
100
AcDbArc
 50
101.6473434834
 51
102.2868400472
  0
ARC
  5
358
100
AcDbEntity
  8
0
100
AcDbCircle
 62
7
  6
CONTINUOUS
 10
127.8109016375
 20
151.8137858527
 40
14.7965975579
100
AcDbArc
 50
105.9986119433
 51
106.5502332989
  0
ARC
  5
359
100
AcDbEntity
  8
0
100
AcDbCircle
 62
7
  6
CONTINUOUS
 10
131.6751513133
 20
213.5316661371
 40
9.1849128339
100
AcDbArc
 50
244.3733103319
 51
249.3527295129
  0
ARC
  5
35A
100
AcDbEntity
  8
0
100
AcDbCircle
 62
7
  6
CONTINUOUS
 10
135.5515166722
 20
176.9870986115
 40
8.0
100
AcDbArc
 50
288.8681889849
 51
297.2788301755
  0
ARC
  5
35B
100
AcDbEntity
  8
0
100
AcDbCircle
 62
7
  6
CONTINUOUS
 10
120.315185906
 20
170.8622233847
 40
6.1655583296
100
AcDbArc
 50
310.7729483941
 51
319.6219762372
  0
ARC
  5
35C
100
AcDbEntity
  8
0
100
AcDbCircle
 62
7
  6
CONTINUOUS
 10
136.1756341842
 20
175.1223083697
 40
6.0938351453
100
AcDbArc
 50
314.978176641
 51
316.248404833
  0
ARC
  5
35D
100
AcDbEntity
  8
0
100
AcDbCircle
 62
7
  6
CONTINUOUS
 10
136.2564640194
 20
175.0073964426
 40
5.9554543198
100
AcDbArc
 50
309.2066497659
 51
315.2091811846
  0
ARC
  5
35E
100
AcDbEntity
  8
0
100
AcDbCircle
 62
7
  6
CONTINUOUS
 10
136.4362644477
 20
174.7928695335
 40
5.6755695177
100
AcDbArc
 50
306.0560442468
 51
309.1691404447
  0
ARC
  5
35F
100
AcDbEntity
  8
0
100
AcDbCircle
 62
7
  6
CONTINUOUS
 10
105.3777769536
 20
214.7169228181
 40
3.3499191737
100
AcDbArc
 50
119.9812660725
 51
121.8848773
  0
ARC
  5
360
100
AcDbEntity
  8
0
100
AcDbCircle
 62
7
  6
CONTINUOUS
 10
123.4845280917
 20
166.5692131144
 40
0.8818678463
100
AcDbArc
 50
282.3476531786
 51
287.6806405609
  0
ARC
  5
361
100
AcDbEntity
  8
0
100
AcDbCircle
 62
7
  6
CONTINUOUS
 10
127.4239374155
 20
211.5201881081
 40
0.1134625366
100
AcDbArc
 50
336.658755693
 51
342.614077184
  0
ARC
  5
362
100
AcDbEntity
  8
0
100
AcDbCircle
 62
7
  6
CONTINUOUS
 10
127.4241497633
 20
211.4322185497
 40
0.1132843807
100
AcDbArc
 50
17.3657606018
 51
23.4015487623
  0
ARC
  5
363
100
AcDbEntity
  8
0
100
AcDbCircle
 62
7
  6
CONTINUOUS
 10
127.4316987609
 20
211.5163366028
 40
0.105342968
100
AcDbArc
 50
12.2306137152
 51
15.0811648623
  0
ARC
  5
364
100
AcDbEntity
  8
0
100
AcDbCircle
 62
7
  6
CONTINUOUS
 10
115.300761909
 20
210.6189476183
 40
0.1016934466
100
AcDbArc
 50
167.0990420958
 51
183.7590176125
  0
ARC
  5
365
100
AcDbEntity
  8
0
100
AcDbCircle
 62
7
  6
CONTINUOUS
 10
108.199705001
 20
260.9442450412
 40
77.8711422503
100
AcDbArc
 50
285.5694593372
 51
287.3293318756
  0
ARC
  5
366
100
AcDbEntity
  8
0
100
AcDbCircle
 62
7
  6
CONTINUOUS
 10
118.2895005039
 20
230.0158566654
 40
63.3170499078
100
AcDbArc
 50
288.1708228587
 51
289.8347594639
  0
ARC
  5
367
100
AcDbEntity
  8
0
100
AcDbCircle
 62
7
  6
CONTINUOUS
 10
119.8834357303
 20
226.6514286829
 40
59.9560687381
100
AcDbArc
 50
287.7626856126
 51
288.5747525204
  0
ARC
  5
368
100
AcDbEntity
  8
0
100
AcDbCircle
 62
7
  6
CONTINUOUS
 10
110.0622191791
 20
224.535480403
 40
5.9340846361
100
AcDbArc
 50
135.9574951529
 51
140.1587304419
  0
ARC
  5
369
100
AcDbEntity
  8
0
100
AcDbCircle
 62
7
  6
CONTINUOUS
 10
104.9651537955
 20
218.9583406306
 40
5.3751614499
100
AcDbArc
 50
144.1447878004
 51
148.8682977966
  0
ARC
  5
36A
100
AcDbEntity
  8
0
100
AcDbCircle
 62
7
  6
CONTINUOUS
 10
104.5139062956
 20
219.2363815897
 40
4.8451552444
100
AcDbArc
 50
148.9238734168
 51
150.1454368733
  0
ARC
  5
36B
100
AcDbEntity
  8
0
100
AcDbCircle
 62
7
  6
CONTINUOUS
 10
122.3034427523
 20
232.1946098259
 40
0.3
100
AcDbArc
 50
119.9998519061
 51
176.538732712
  0
ARC
  5
36C
100
AcDbEntity
  8
0
100
AcDbCircle
 62
7
  6
CONTINUOUS
 10
119.7062034445
 20
226.6125898776
 40
0.3
100
AcDbArc
 50
59.96032826
 51
119.9998519061
  0
ARC
  5
36D
100
AcDbEntity
  8
0
100
AcDbCircle
 62
7
  6
CONTINUOUS
 10
116.9282659903
 20
217.3489131281
 40
0.188704665
100
AcDbArc
 50
131.4057902259
 51
136.3244495899
  0
ARC
  5
36E
100
AcDbEntity
  8
0
100
AcDbCircle
 62
7
  6
CONTINUOUS
 10
131.3130539591
 20
217.3517992323
 40
0.1134051598
100
AcDbArc
 50
17.4338123199
 51
23.3579575531
  0
ARC
  5
36F
100
AcDbEntity
  8
0
100
AcDbCircle
 62
7
  6
CONTINUOUS
 10
131.3130544809
 20
217.4397183781
 40
0.1134046038
100
AcDbArc
 50
336.6423979829
 51
342.5666784159
  0
ARC
  5
370
100
AcDbEntity
  8
0
100
AcDbCircle
 62
7
  6
CONTINUOUS
 10
134.6159448377
 20
228.0541183072
 40
0.1134039141
100
AcDbArc
 50
197.4308168312
 51
203.3583749643
  0
ARC
  5
371
100
AcDbEntity
  8
0
100
AcDbCircle
 62
7
  6
CONTINUOUS
 10
134.615944316
 20
227.9662000706
 40
0.1134033583
100
AcDbArc
 50
156.6419805402
 51
162.5696739511
  0
ARC
  5
372
100
AcDbEntity
  8
0
100
AcDbCircle
 62
7
  6
CONTINUOUS
 10
134.6106359796
 20
228.0523790847
 40
0.1078178734
100
AcDbArc
 50
195.2722219723
 51
197.394113988
  0
ARC
  5
373
100
AcDbEntity
  8
0
100
AcDbCircle
 62
7
  6
CONTINUOUS
 10
134.6106353417
 20
227.9679392791
 40
0.1078172115
100
AcDbArc
 50
162.6063768741
 51
164.7285651331
  0
ARC
  5
374
100
AcDbEntity
  8
0
100
AcDbCircle
 62
7
  6
CONTINUOUS
 10
131.3206442378
 20
217.4358105168
 40
0.1054544671
100
AcDbArc
 50
12.2459915999
 51
15.2728799153
  0
ARC
  5
375
100
AcDbEntity
  8
0
100
AcDbCircle
 62
7
  6
CONTINUOUS
 10
142.9575228867
 20
191.8267331078
 40
52.3488853612
100
AcDbArc
 50
127.9207171
 51
128.3105448783
  0
ARC
  5
376
100
AcDbEntity
  8
0
100
AcDbCircle
 62
7
  6
CONTINUOUS
 10
161.369502256
 20
165.139072442
 40
19.8075529794
100
AcDbArc
 50
146.1019609077
 51
146.3364887276
  0
ARC
  5
377
100
AcDbEntity
  8
0
100
AcDbCircle
 62
7
  6
CONTINUOUS
 10
152.4859651641
 20
171.344528693
 40
8.3835390321
100
AcDbArc
 50
91.7457968011
 51
96.1407528383
  0
ARC
  5
378
100
AcDbEntity
  8
0
100
AcDbCircle
 62
7
  6
CONTINUOUS
 10
137.4777786578
 20
175.9066205725
 40
5.9152101398
100
AcDbArc
 50
292.8368512094
 51
300.5338832093
  0
ARC
  5
379
100
AcDbEntity
  8
0
100
AcDbCircle
 62
7
  6
CONTINUOUS
 10
136.810351715
 20
175.3056458805
 40
5.9012071162
100
AcDbArc
 50
291.5931523788
 51
293.924168987
  0
ARC
  5
37A
100
AcDbEntity
  8
0
100
AcDbCircle
 62
7
  6
CONTINUOUS
 10
136.8333575556
 20
175.2556133496
 40
5.8461437841
100
AcDbArc
 50
293.9169195278
 51
300.2308392732
  0
ARC
  5
37B
100
AcDbEntity
  8
0
100
AcDbCircle
 62
7
  6
CONTINUOUS
 10
158.4353513111
 20
183.7628320385
 40
2.4439765369
100
AcDbArc
 50
297.4097550147
 51
299.9707547335
  0
ARC
  5
37C
100
AcDbEntity
  8
0
100
AcDbCircle
 62
7
  6
CONTINUOUS
 10
166.2005342042
 20
285.8823678321
 40
25.8739807188
100
AcDbArc
 50
270.6956606062
 51
273.3493634531
  0
ARC
  5
37D
100
AcDbEntity
  8
0
100
AcDbCircle
 62
7
  6
CONTINUOUS
 10
166.2310828879
 20
286.3208713453
 40
25.3760111492
100
AcDbArc
 50
273.346072082
 51
277.3972225888
  0
ARC
  5
37E
100
AcDbEntity
  8
0
100
AcDbCircle
 62
7
  6
CONTINUOUS
 10
166.3579971344
 20
284.3541232383
 40
24.3370438293
100
AcDbArc
 50
277.4134854599
 51
280.1745091296
  0
ARC
  5
37F
100
AcDbEntity
  8
0
100
AcDbCircle
 62
7
  6
CONTINUOUS
 10
166.605029385
 20
283.9129310114
 40
22.938326823
100
AcDbArc
 50
280.1746276641
 51
284.5022424077
  0
ARC
  5
380
100
AcDbEntity
  8
0
100
AcDbCircle
 62
7
  6
CONTINUOUS
 10
166.0205092591
 20
262.0250738311
 40
21.6352260804
100
AcDbArc
 50
258.1634252672
 51
264.2491567838
  0
ARC
  5
381
100
AcDbEntity
  8
0
100
AcDbCircle
 62
7
  6
CONTINUOUS
 10
167.0495827467
 20
281.2001752837
 40
21.1064154359
100
AcDbArc
 50
284.5420341857
 51
287.57543496
  0
ARC
  5
382
100
AcDbEntity
  8
0
100
AcDbCircle
 62
7
  6
CONTINUOUS
 10
166.0606529759
 20
261.9022244338
 40
19.7027434502
100
AcDbArc
 50
257.8701366324
 51
263.5619483379
  0
ARC
  5
383
100
AcDbEntity
  8
0
100
AcDbCircle
 62
7
  6
CONTINUOUS
 10
169.1562652561
 20
264.1106508136
 40
14.4707939602
100
AcDbArc
 50
60.3522310389
 51
60.7915307508
  0
ARC
  5
384
100
AcDbEntity
  8
0
100
AcDbCircle
 62
7
  6
CONTINUOUS
 10
159.0149740907
 20
259.8727839275
 40
8.2421384204
100
AcDbArc
 50
217.8325082131
 51
222.8055634844
  0
ARC
  5
385
100
AcDbEntity
  8
0
100
AcDbCircle
 62
7
  6
CONTINUOUS
 10
158.8496016483
 20
269.0993950344
 40
7.7554032723
100
AcDbArc
 50
149.2081957245
 51
149.7341606822
  0
ARC
  5
386
100
AcDbEntity
  8
0
100
AcDbCircle
 62
7
  6
CONTINUOUS
 10
158.7362172865
 20
269.1649214612
 40
7.6244474939
100
AcDbArc
 50
149.7300107446
 51
151.7574225957
  0
ARC
  5
387
100
AcDbEntity
  8
0
100
AcDbCircle
 62
7
  6
CONTINUOUS
 10
157.2214894865
 20
254.6254875892
 40
4.5230873531
100
AcDbArc
 50
181.0312594108
 51
185.5479546418
  0
ARC
  5
388
100
AcDbEntity
  8
0
100
AcDbCircle
 62
7
  6
CONTINUOUS
 10
157.2586265669
 20
254.6257568058
 40
4.509004704
100
AcDbArc
 50
182.233992655
 51
185.425735649
  0
ARC
  5
389
100
AcDbEntity
  8
0
100
AcDbCircle
 62
7
  6
CONTINUOUS
 10
160.2416602405
 20
271.3716189233
 40
3.0434287996
100
AcDbArc
 50
172.2091873702
 51
174.2417512279
  0
ARC
  5
38A
100
AcDbEntity
  8
0
100
AcDbCircle
 62
7
  6
CONTINUOUS
 10
154.1220243029
 20
273.8928112423
 40
1.0483710914
100
AcDbArc
 50
151.7914301782
 51
153.9786213666
  0
ARC
  5
38B
100
AcDbEntity
  8
0
100
AcDbCircle
 62
7
  6
CONTINUOUS
 10
167.2392049279
 20
266.7494154795
 40
0.6901282158
100
AcDbArc
 50
39.0335568985
 51
43.6494078301
  0
ARC
  5
38C
100
AcDbEntity
  8
0
100
AcDbCircle
 62
7
  6
CONTINUOUS
 10
138.6911292243
 20
233.6383974945
 40
0.5052852394
100
AcDbArc
 50
94.3751172774
 51
95.6865723958
  0
ARC
  5
38D
100
AcDbEntity
  8
0
100
AcDbCircle
 62
7
  6
CONTINUOUS
 10
153.6375126243
 20
274.2303095863
 40
0.4563492151
100
AcDbArc
 50
136.8981693798
 51
139.0109848055
  0
ARC
  5
38E
100
AcDbEntity
  8
0
100
AcDbCircle
 62
7
  6
CONTINUOUS
 10
138.5050343207
 20
233.8857047861
 40
0.1134521877
100
AcDbArc
 50
156.6054132165
 51
162.6323230953
  0
ARC
  5
38F
100
AcDbEntity
  8
0
100
AcDbCircle
 62
7
  6
CONTINUOUS
 10
138.5048370376
 20
233.9735578535
 40
0.1132312775
100
AcDbArc
 50
197.2561177284
 51
203.3255165346
  0
ARC
  5
390
100
AcDbEntity
  8
0
100
AcDbCircle
 62
7
  6
CONTINUOUS
 10
138.4994874346
 20
233.9718206899
 40
0.1076071752
100
AcDbArc
 50
195.081131415
 51
197.2177568156
  0
ARC
  5
391
100
AcDbEntity
  8
0
100
AcDbCircle
 62
7
  6
CONTINUOUS
 10
-746.509990241
 20
3726.0177582757
 40
3595.2497783904
100
AcDbArc
 50
285.2125527266
 51
285.612382814
  0
ARC
  5
392
100
AcDbEntity
  8
0
100
AcDbCircle
 62
7
  6
CONTINUOUS
 10
-737.0516223887
 20
3711.4729983541
 40
3579.9247932304
100
AcDbArc
 50
285.1776624342
 51
285.4690123985
  0
ARC
  5
393
100
AcDbEntity
  8
0
100
AcDbCircle
 62
7
  6
CONTINUOUS
 10
5239.6306844013
 20
-6982.2557329199
 40
8852.4991117131
100
AcDbArc
 50
125.0857917555
 51
125.4060282404
  0
ARC
  5
394
100
AcDbEntity
  8
0
100
AcDbCircle
 62
7
  6
CONTINUOUS
 10
5223.4179756606
 20
-6959.9013301568
 40
8825.2160383459
100
AcDbArc
 50
125.0815863081
 51
125.4066944671
  0
ARC
  5
395
100
AcDbEntity
  8
0
100
AcDbCircle
 62
7
  6
CONTINUOUS
 10
1174.4674342145
 20
-2436.9273189368
 40
2890.4640611126
100
AcDbArc
 50
109.9075082116
 51
110.1815197946
  0
ARC
  5
396
100
AcDbEntity
  8
0
100
AcDbCircle
 62
7
  6
CONTINUOUS
 10
207.6898781949
 20
103.3642446657
 40
127.0434862783
100
AcDbArc
 50
129.0938116124
 51
129.3285786119
  0
ARC
  5
397
100
AcDbEntity
  8
0
100
AcDbCircle
 62
7
  6
CONTINUOUS
 10
187.6290842819
 20
148.7256096952
 40
50.7766773273
100
AcDbArc
 50
148.5635741234
 51
148.9553633466
  0
ARC
  5
398
100
AcDbEntity
  8
0
100
AcDbCircle
 62
7
  6
CONTINUOUS
 10
209.7464746445
 20
235.1678506633
 40
49.9628251123
100
AcDbArc
 50
130.9832206608
 51
133.9946150468
  0
ARC
  5
399
100
AcDbEntity
  8
0
100
AcDbCircle
 62
7
  6
CONTINUOUS
 10
205.3071356678
 20
238.9413610026
 40
45.9026278721
100
AcDbArc
 50
130.9395402255
 51
131.1467576931
  0
ARC
  5
39A
100
AcDbEntity
  8
0
100
AcDbCircle
 62
7
  6
CONTINUOUS
 10
205.0020706026
 20
238.8296431321
 40
45.4757719376
100
AcDbArc
 50
130.8972522025
 51
131.1062833263
  0
ARC
  5
39B
100
AcDbEntity
  8
0
100
AcDbCircle
 62
7
  6
CONTINUOUS
 10
196.6947127545
 20
247.5479841896
 40
9.0145363535
100
AcDbArc
 50
124.5751279644
 51
126.710400851
  0
ARC
  5
39C
100
AcDbEntity
  8
0
100
AcDbCircle
 62
7
  6
CONTINUOUS
 10
206.235649656
 20
218.0022537224
 40
8.363482676
100
AcDbArc
 50
331.0311181393
 51
331.8811023966
  0
ARC
  5
39D
100
AcDbEntity
  8
0
100
AcDbCircle
 62
7
  6
CONTINUOUS
 10
173.5008184452
 20
259.7715467409
 40
8.0860258563
100
AcDbArc
 50
317.1476424889
 51
322.2167036019
  0
ARC
  5
39E
100
AcDbEntity
  8
0
100
AcDbCircle
 62
7
  6
CONTINUOUS
 10
196.1651203292
 20
248.3334267731
 40
8.0672857605
100
AcDbArc
 50
120.028350486
 51
124.6438113786
  0
ARC
  5
39F
100
AcDbEntity
  8
0
100
AcDbCircle
 62
7
  6
CONTINUOUS
 10
208.5104003102
 20
216.4128833244
 40
5.5746282965
100
AcDbArc
 50
306.5904329437
 51
310.0842371993
  0
ARC
  5
3A0
100
AcDbEntity
  8
0
100
AcDbCircle
 62
7
  6
CONTINUOUS
 10
195.968828712
 20
251.0989308619
 40
5.5644305414
100
AcDbArc
 50
107.7870655777
 51
112.2561392214
  0
ARC
  5
3A1
100
AcDbEntity
  8
0
100
AcDbCircle
 62
7
  6
CONTINUOUS
 10
214.9932932867
 20
223.5619578842
 40
4.7318449999
100
AcDbArc
 50
293.0839951994
 51
296.2537882311
  0
ARC
  5
3A2
100
AcDbEntity
  8
0
100
AcDbCircle
 62
7
  6
CONTINUOUS
 10
175.182151295
 20
254.6252758088
 40
4.5162392799
100
AcDbArc
 50
354.6047521738
 51
359.1340154514
  0
ARC
  5
3A3
100
AcDbEntity
  8
0
100
AcDbCircle
 62
7
  6
CONTINUOUS
 10
175.1446072218
 20
254.625554629
 40
4.5025628561
100
AcDbArc
 50
354.6662130266
 51
358.1199749387
  0
ARC
  5
3A4
100
AcDbEntity
  8
0
100
AcDbCircle
 62
7
  6
CONTINUOUS
 10
176.3764927618
 20
272.4429982971
 40
0.8193349776
100
AcDbArc
 50
45.8143917196
 51
49.4351281381
  0
ARC
  5
3A5
100
AcDbEntity
  8
0
100
AcDbCircle
 62
7
  6
CONTINUOUS
 10
190.9154252667
 20
254.6287971334
 40
0.2556815668
100
AcDbArc
 50
121.2169413462
 51
126.9193348733
  0
ARC
  5
3A6
100
AcDbEntity
  8
0
100
AcDbCircle
 62
7
  6
CONTINUOUS
 10
225.4038703446
 20
202.9627535384
 40
18.3614650396
100
AcDbArc
 50
117.7718460321
 51
118.6436268313
  0
ARC
  5
3A7
100
AcDbEntity
  8
0
100
AcDbCircle
 62
7
  6
CONTINUOUS
 10
224.4749587132
 20
204.6562850051
 40
16.4299080018
100
AcDbArc
 50
118.6317068515
 51
119.9355195553
  0
ARC
  5
3A8
100
AcDbEntity
  8
0
100
AcDbCircle
 62
7
  6
CONTINUOUS
 10
224.0168445074
 20
205.4529277517
 40
15.5109368529
100
AcDbArc
 50
119.9375461272
 51
120.8832024009
  0
ARC
  5
3A9
100
AcDbEntity
  8
0
100
AcDbCircle
 62
7
  6
CONTINUOUS
 10
225.9795627083
 20
257.2514996606
 40
11.0254543527
100
AcDbArc
 50
359.4033130721
 51
0.0008974913
  0
ARC
  5
3AA
100
AcDbEntity
  8
0
100
AcDbCircle
 62
7
  6
CONTINUOUS
 10
225.9973789647
 20
257.2622101447
 40
11.0240233155
100
AcDbArc
 50
359.403313072
 51
0.0008974912
  0
ARC
  5
3AB
100
AcDbEntity
  8
0
100
AcDbCircle
 62
7
  6
CONTINUOUS
 10
233.9481857792
 20
262.6249311601
 40
9.9043108093
100
AcDbArc
 50
359.3631868807
 51
0.0008666758
  0
ARC
  5
3AC
100
AcDbEntity
  8
0
100
AcDbCircle
 62
7
  6
CONTINUOUS
 10
233.7417816627
 20
262.0928736378
 40
9.7942686583
100
AcDbArc
 50
359.363342007
 51
0.0010218019
  0
ARC
  5
3AD
100
AcDbEntity
  8
0
100
AcDbCircle
 62
7
  6
CONTINUOUS
 10
238.7714572884
 20
265.5577369788
 40
8.415333212
100
AcDbArc
 50
0.0013748446
 51
0.7391501415
  0
ARC
  5
3AE
100
AcDbEntity
  8
0
100
AcDbCircle
 62
7
  6
CONTINUOUS
 10
238.6744850846
 20
265.5487016837
 40
8.2470826798
100
AcDbArc
 50
0.001374843
 51
0.7391501393
  0
ARC
  5
3AF
100
AcDbEntity
  8
0
100
AcDbCircle
 62
7
  6
CONTINUOUS
 10
245.0172946395
 20
269.4360260841
 40
7.4727687532
100
AcDbArc
 50
0.0017549412
 51
0.8351636294
  0
ARC
  5
3B0
100
AcDbEntity
  8
0
100
AcDbCircle
 62
7
  6
CONTINUOUS
 10
244.9205672542
 20
269.426991913
 40
7.3042734024
100
AcDbArc
 50
0.0017549417
 51
0.8351636294
  0
ARC
  5
3B1
100
AcDbEntity
  8
0
100
AcDbCircle
 62
7
  6
CONTINUOUS
 10
251.2630558676
 20
273.3143068901
 40
6.5302804181
100
AcDbArc
 50
0.00231756
 51
0.9598452365
  0
ARC
  5
3B2
100
AcDbEntity
  8
0
100
AcDbCircle
 62
7
  6
CONTINUOUS
 10
251.1666469319
 20
273.3052743864
 40
6.3614666176
100
AcDbArc
 50
0.0023175607
 51
0.9598452366
  0
ARC
  5
3B3
100
AcDbEntity
  8
0
100
AcDbCircle
 62
7
  6
CONTINUOUS
 10
250.5565972382
 20
270.6621727153
 40
5.9160402226
100
AcDbArc
 50
255.9069362721
 51
258.7836908293
  0
ARC
  5
3B4
100
AcDbEntity
  8
0
100
AcDbCircle
 62
7
  6
CONTINUOUS
 10
257.5087007008
 20
277.1925748712
 40
5.5879084795
100
AcDbArc
 50
0.0032014099
 51
1.1282884074
  0
ARC
  5
3B5
100
AcDbEntity
  8
0
100
AcDbCircle
 62
7
  6
CONTINUOUS
 10
257.4127230348
 20
277.1835449956
 40
5.4186634092
100
AcDbArc
 50
0.0032014086
 51
1.1282884061
  0
ARC
  5
3B6
100
AcDbEntity
  8
0
100
AcDbCircle
 62
7
  6
CONTINUOUS
 10
262.0943904729
 20
278.9017451998
 40
5.4137109894
100
AcDbArc
 50
249.4082177176
 51
251.4550269827
  0
ARC
  5
3B7
100
AcDbEntity
  8
0
100
AcDbCircle
 62
7
  6
CONTINUOUS
 10
224.8105545259
 20
268.7353275276
 40
4.10143229
100
AcDbArc
 50
111.2878200794
 51
119.9788654615
  0
ARC
  5
3B8
100
AcDbEntity
  8
0
100
AcDbCircle
 62
7
  6
CONTINUOUS
 10
232.5090880455
 20
255.4009967332
 40
4.1014322899
100
AcDbArc
 50
300.0208383507
 51
308.711883733
  0
ARC
  5
3B9
100
AcDbEntity
  8
0
100
AcDbCircle
 62
7
  6
CONTINUOUS
 10
232.5509053249
 20
255.3177120734
 40
4.0087564082
100
AcDbArc
 50
307.7060349487
 51
308.8591447086
  0
ARC
  5
3BA
100
AcDbEntity
  8
0
100
AcDbCircle
 62
7
  6
CONTINUOUS
 10
224.7447864329
 20
268.849410788
 40
3.9697199856
100
AcDbArc
 50
111.247064727
 51
119.9793880419
  0
ARC
  5
3BB
100
AcDbEntity
  8
0
100
AcDbCircle
 62
7
  6
CONTINUOUS
 10
232.5796561692
 20
255.2800438583
 40
3.9613705525
100
AcDbArc
 50
300.0123567365
 51
307.7102551261
  0
ARC
  5
3BC
100
AcDbEntity
  8
0
100
AcDbCircle
 62
7
  6
CONTINUOUS
 10
238.0392743874
 20
274.2059040541
 40
3.0048174084
100
AcDbArc
 50
124.9402027608
 51
132.8461451986
  0
ARC
  5
3BD
100
AcDbEntity
  8
0
100
AcDbCircle
 62
7
  6
CONTINUOUS
 10
243.8690969646
 20
264.103310441
 40
2.9844363395
100
AcDbArc
 50
291.0356934743
 51
296.4953295648
  0
ARC
  5
3BE
100
AcDbEntity
  8
0
100
AcDbCircle
 62
7
  6
CONTINUOUS
 10
244.3840850747
 20
277.0975856476
 40
2.6729669149
100
AcDbArc
 50
125.0701317571
 51
133.94603367
  0
ARC
  5
3BF
100
AcDbEntity
  8
0
100
AcDbCircle
 62
7
  6
CONTINUOUS
 10
249.5426363333
 20
268.1593166235
 40
2.6603598016
100
AcDbArc
 50
289.1362886882
 51
296.0031038268
  0
ARC
  5
3C0
100
AcDbEntity
  8
0
100
AcDbCircle
 62
7
  6
CONTINUOUS
 10
250.7345214964
 20
279.9831099712
 40
2.34937775
100
AcDbArc
 50
125.160879132
 51
133.2539096022
  0
ARC
  5
3C1
100
AcDbEntity
  8
0
100
AcDbCircle
 62
7
  6
CONTINUOUS
 10
255.2129855657
 20
272.2251753459
 40
2.3465795928
100
AcDbArc
 50
287.0427444601
 51
294.9536326267
  0
SPLINE
  5
3C2
100
AcDbEntity
  8
0
100
AcDbSpline
 62
7
  6
CONTINUOUS
 70
0
 71
3
 72
9
 73
5
 74
0
 42
0.0000001
 43
0.0000001
 44
0.0000000001
 40
0.0
 40
0.0
 40
0.0
 40
0.0
 40
0.2397584272
 40
1.0
 40
1.0
 40
1.0
 40
1.0
 10
150.7177353761
 20
234.835972281
 30
0.0
 10
150.7161971757
 20
234.8389869327
 30
0.0
 10
150.7092680134
 20
234.8512973973
 30
0.0
 10
150.7004255984
 20
234.8624847014
 30
0.0
 10
150.6930374636
 20
234.8702680324
 30
0.0
  0
SPLINE
  5
3C3
100
AcDbEntity
  8
0
100
AcDbSpline
 62
7
  6
CONTINUOUS
 70
0
 71
3
 72
8
 73
4
 74
0
 42
0.0000001
 43
0.0000001
 44
0.0000000001
 40
0.0
 40
0.0
 40
0.0
 40
0.0
 40
1.0
 40
1.0
 40
1.0
 40
1.0
 10
150.6930374636
 20
234.8702680324
 30
0.0
 10
150.6880203111
 20
234.8755535556
 30
0.0
 10
150.6826698355
 20
234.8805361755
 30
0.0
 10
150.6770846488
 20
234.8852174427
 30
0.0
  0
SPLINE
  5
3C4
100
AcDbEntity
  8
0
100
AcDbSpline
 62
7
  6
CONTINUOUS
 70
0
 71
3
 72
9
 73
5
 74
0
 42
0.0000001
 43
0.0000001
 44
0.0000000001
 40
0.0
 40
0.0
 40
0.0
 40
0.0
 40
0.4619926797
 40
1.0
 40
1.0
 40
1.0
 40
1.0
 10
150.6770846488
 20
234.8852174427
 30
0.0
 10
150.6415886339
 20
234.9149687007
 30
0.0
 10
150.5456598553
 20
234.9554218499
 30
0.0
 10
150.4443277348
 20
234.9628367063
 30
0.0
 10
150.3905491176
 20
234.9587216928
 30
0.0
  0
SPLINE
  5
3C5
100
AcDbEntity
  8
0
100
AcDbSpline
 62
7
  6
CONTINUOUS
 70
0
 71
3
 72
9
 73
5
 74
0
 42
0.0000001
 43
0.0000001
 44
0.0000000001
 40
0.0
 40
0.0
 40
0.0
 40
0.0
 40
0.273975172
 40
1.0
 40
1.0
 40
1.0
 40
1.0
 10
138.4793940428
 20
233.8483092543
 30
0.0
 10
138.4718828508
 20
233.852665146
 30
0.0
 10
138.4452797028
 20
233.8697884953
 30
0.0
 10
138.4216883282
 20
233.892553251
 30
0.0
 10
138.4095630622
 20
233.912108382
 30
0.0
  0
SPLINE
  5
3C6
100
AcDbEntity
  8
0
100
AcDbSpline
 62
7
  6
CONTINUOUS
 70
0
 71
3
 72
8
 73
4
 74
0
 42
0.0000001
 43
0.0000001
 44
0.0000000001
 40
0.0
 40
0.0
 40
0.0
 40
0.0
 40
1.0
 40
1.0
 40
1.0
 40
1.0
 10
138.4095630622
 20
233.912108382
 30
0.0
 10
138.4062683622
 20
233.9174219389
 30
0.0
 10
138.4033318646
 20
233.9229806427
 30
0.0
 10
138.4008601371
 20
233.9287234206
 30
0.0
  0
SPLINE
  5
3C7
100
AcDbEntity
  8
0
100
AcDbSpline
 62
7
  6
CONTINUOUS
 70
0
 71
3
 72
8
 73
4
 74
0
 42
0.0000001
 43
0.0000001
 44
0.0000000001
 40
0.0
 40
0.0
 40
0.0
 40
0.0
 40
1.0
 40
1.0
 40
1.0
 40
1.0
 10
138.3955864262
 20
233.9438227507
 30
0.0
 10
138.3913989559
 20
233.9593671506
 30
0.0
 10
138.3909441976
 20
233.9763699677
 30
0.0
 10
138.3943564396
 20
233.9921027323
 30
0.0
  0
SPLINE
  5
3C8
100
AcDbEntity
  8
0
100
AcDbSpline
 62
7
  6
CONTINUOUS
 70
0
 71
3
 72
9
 73
5
 74
0
 42
0.0000001
 43
0.0000001
 44
0.0000000001
 40
0.0
 40
0.0
 40
0.0
 40
0.0
 40
0.2741236796
 40
1.0
 40
1.0
 40
1.0
 40
1.0
 10
134.5908229058
 20
227.9285109673
 30
0.0
 10
134.5832498747
 20
227.93288316
 30
0.0
 10
134.5564423173
 20
227.9500707817
 30
0.0
 10
134.5326679075
 20
227.9729721608
 30
0.0
 10
134.5204765371
 20
227.9926583014
 30
0.0
  0
SPLINE
  5
3C9
100
AcDbEntity
  8
0
100
AcDbSpline
 62
7
  6
CONTINUOUS
 70
0
 71
3
 72
8
 73
4
 74
0
 42
0.0000001
 43
0.0000001
 44
0.0000000001
 40
0.0
 40
0.0
 40
0.0
 40
0.0
 40
1.0
 40
1.0
 40
1.0
 40
1.0
 10
134.5204765371
 20
227.9926583014
 30
0.0
 10
134.5172080742
 20
227.9979360856
 30
0.0
 10
134.5142928256
 20
228.0034551185
 30
0.0
 10
134.5118351784
 20
228.009155805
 30
0.0
  0
SPLINE
  5
3CA
100
AcDbEntity
  8
0
100
AcDbSpline
 62
7
  6
CONTINUOUS
 70
0
 71
3
 72
8
 73
4
 74
0
 42
0.0000001
 43
0.0000001
 44
0.0000000001
 40
0.0
 40
0.0
 40
0.0
 40
0.0
 40
1.0
 40
1.0
 40
1.0
 40
1.0
 10
134.506625669
 20
228.0239792764
 30
0.0
 10
134.5023581407
 20
228.0396130774
 30
0.0
 10
134.5018648835
 20
228.0567412139
 30
0.0
 10
134.5053007712
 20
228.0725785814
 30
0.0
  0
SPLINE
  5
3CB
100
AcDbEntity
  8
0
100
AcDbSpline
 62
7
  6
CONTINUOUS
 70
0
 71
3
 72
11
 73
7
 74
0
 42
0.0000001
 43
0.0000001
 44
0.0000000001
 40
0.0
 40
0.0
 40
0.0
 40
0.0
 40
0.2372524156
 40
0.4999996414
 40
0.7627470637
 40
1.0
 40
1.0
 40
1.0
 40
1.0
 10
138.8334794903
 20
225.7240119127
 30
0.0
 10
138.8033612669
 20
225.7066232521
 30
0.0
 10
138.7333259685
 20
225.6812449743
 30
0.0
 10
138.6213477279
 20
225.6691117012
 30
0.0
 10
138.5093693573
 20
225.6812444873
 30
0.0
 10
138.4393338366
 20
225.7066224113
 30
0.0
 10
138.4092154216
 20
225.7240108929
 30
0.0
  0
SPLINE
  5
3CC
100
AcDbEntity
  8
0
100
AcDbSpline
 62
7
  6
CONTINUOUS
 70
0
 71
3
 72
11
 73
7
 74
0
 42
0.0000001
 43
0.0000001
 44
0.0000000001
 40
0.0
 40
0.0
 40
0.0
 40
0.0
 40
0.2372524156
 40
0.4999996414
 40
0.7627470637
 40
1.0
 40
1.0
 40
1.0
 40
1.0
 10
149.0865116256
 20
227.9693700561
 30
0.0
 10
149.0563934022
 20
227.9519813954
 30
0.0
 10
148.9863581038
 20
227.9266031177
 30
0.0
 10
148.8743798632
 20
227.9144698446
 30
0.0
 10
148.7624014926
 20
227.9266026307
 30
0.0
 10
148.6923659719
 20
227.9519805547
 30
0.0
 10
148.6622475569
 20
227.9693690363
 30
0.0
  0
SPLINE
  5
3CD
100
AcDbEntity
  8
0
100
AcDbSpline
 62
7
  6
CONTINUOUS
 70
0
 71
3
 72
9
 73
5
 74
0
 42
0.0000001
 43
0.0000001
 44
0.0000000001
 40
0.0
 40
0.0
 40
0.0
 40
0.0
 40
0.4550024713
 40
1.0
 40
1.0
 40
1.0
 40
1.0
 10
149.1716912832
 20
228.0687076987
 30
0.0
 10
149.1670855722
 20
228.0489782657
 30
0.0
 10
149.1438659203
 20
228.0086302661
 30
0.0
 10
149.10752758
 20
227.9815035506
 30
0.0
 10
149.0865116256
 20
227.9693700561
 30
0.0
  0
SPLINE
  5
3CE
100
AcDbEntity
  8
0
100
AcDbSpline
 62
7
  6
CONTINUOUS
 70
0
 71
3
 72
15
 73
11
 74
0
 42
0.0000001
 43
0.0000001
 44
0.0000000001
 40
0.0
 40
0.0
 40
0.0
 40
0.0
 40
0.1154588289
 40
0.2387595534
 40
0.3678497123
 40
0.5000007978
 40
0.6321517055
 40
0.7612415614
 40
0.8845413771
 40
1.0
 40
1.0
 40
1.0
 40
1.0
 10
138.1546307115
 20
241.6926281543
 30
0.0
 10
138.3461194705
 20
241.8032316205
 30
0.0
 10
138.7624034117
 20
241.9977129139
 30
0.0
 10
139.4380380321
 20
242.2038698579
 30
0.0
 10
140.1654638358
 20
242.3301013885
 30
0.0
 10
140.9193304083
 20
242.3725966481
 30
0.0
 10
141.6731965506
 20
242.3301036462
 30
0.0
 10
142.4006200039
 20
242.2038744053
 30
0.0
 10
143.0762530177
 20
241.9977217009
 30
0.0
 10
143.4925360509
 20
241.8032436146
 30
0.0
 10
143.6840252665
 20
241.6926417277
 30
0.0
  0
SPLINE
  5
3CF
100
AcDbEntity
  8
0
100
AcDbSpline
 62
7
  6
CONTINUOUS
 70
0
 71
3
 72
9
 73
5
 74
0
 42
0.0000001
 43
0.0000001
 44
0.0000000001
 40
0.0
 40
0.0
 40
0.0
 40
0.0
 40
0.2673463259
 40
1.0
 40
1.0
 40
1.0
 40
1.0
 10
138.6525830268
 20
234.0605600789
 30
0.0
 10
138.6365565599
 20
234.0593337713
 30
0.0
 10
138.5769585064
 20
234.0519139197
 30
0.0
 10
138.5180128249
 20
234.0333552256
 30
0.0
 10
138.4798657484
 20
234.0113311322
 30
0.0
  0
SPLINE
  5
3D0
100
AcDbEntity
  8
0
100
AcDbSpline
 62
7
  6
CONTINUOUS
 70
0
 71
3
 72
9
 73
5
 74
0
 42
0.0000001
 43
0.0000001
 44
0.0000000001
 40
0.0
 40
0.0
 40
0.0
 40
0.0
 40
0.2804778446
 40
1.0
 40
1.0
 40
1.0
 40
1.0
 10
138.4798657484
 20
234.0113311322
 30
0.0
 10
138.4706519942
 20
234.0060116004
 30
0.0
 10
138.4390153692
 20
233.9853407427
 30
0.0
 10
138.4117292242
 20
233.9558086828
 30
0.0
 10
138.4009087942
 20
233.9307522457
 30
0.0
  0
SPLINE
  5
3D1
100
AcDbEntity
  8
0
100
AcDbSpline
 62
7
  6
CONTINUOUS
 70
0
 71
3
 72
9
 73
5
 74
0
 42
0.0000001
 43
0.0000001
 44
0.0000000001
 40
0.0
 40
0.0
 40
0.0
 40
0.0
 40
0.2804891855
 40
1.0
 40
1.0
 40
1.0
 40
1.0
 10
134.5908211394
 20
228.0918061981
 30
0.0
 10
134.581601376
 20
228.086483197
 30
0.0
 10
134.5499468064
 20
228.0657984123
 30
0.0
 10
134.52264622
 20
228.0362397844
 30
0.0
 10
134.5118348881
 20
228.0111617064
 30
0.0
  0
SPLINE
  5
3D2
100
AcDbEntity
  8
0
100
AcDbSpline
 62
7
  6
CONTINUOUS
 70
0
 71
3
 72
11
 73
7
 74
0
 42
0.0000001
 43
0.0000001
 44
0.0000000001
 40
0.0
 40
0.0
 40
0.0
 40
0.0
 40
0.2979870636
 40
0.5760397573
 40
0.8111600298
 40
1.0
 40
1.0
 40
1.0
 40
1.0
 10
150.3905491176
 20
235.0403719345
 30
0.0
 10
150.4295629243
 20
235.0433571794
 30
0.0
 10
150.5059207575
 20
235.0406806719
 30
0.0
 10
150.6096860423
 20
235.012426902
 30
0.0
 10
150.6900785483
 20
234.9641581008
 30
0.0
 10
150.7223470866
 20
234.9144979406
 30
0.0
 10
150.7275953522
 20
234.8902636705
 30
0.0
  0
SPLINE
  5
3D3
100
AcDbEntity
  8
0
100
AcDbSpline
 62
7
  6
CONTINUOUS
 70
0
 71
3
 72
9
 73
5
 74
0
 42
0.0000001
 43
0.0000001
 44
0.0000000001
 40
0.0
 40
0.0
 40
0.0
 40
0.0
 40
0.2308733102
 40
1.0
 40
1.0
 40
1.0
 40
1.0
 10
138.4798657484
 20
234.0929813739
 30
0.0
 10
138.4911273353
 20
234.0994832153
 30
0.0
 10
138.5418404128
 20
234.1242686803
 30
0.0
 10
138.5979550804
 20
234.13690326
 30
0.0
 10
138.6410622532
 20
234.1411961337
 30
0.0
  0
SPLINE
  5
3D4
100
AcDbEntity
  8
0
100
AcDbSpline
 62
7
  6
CONTINUOUS
 70
0
 71
3
 72
8
 73
4
 74
0
 42
0.0000001
 43
0.0000001
 44
0.0000000001
 40
0.0
 40
0.0
 40
0.0
 40
0.0
 40
1.0
 40
1.0
 40
1.0
 40
1.0
 10
138.1546347774
 20
241.692640394
 30
0.0
 10
138.1633460883
 20
241.6976678247
 30
0.0
 10
138.172920312
 20
241.7013959386
 30
0.0
 10
138.1827139063
 20
241.7036866828
 30
0.0
  0
SPLINE
  5
3D5
100
AcDbEntity
  8
0
100
AcDbSpline
 62
7
  6
CONTINUOUS
 70
0
 71
3
 72
9
 73
5
 74
0
 42
0.0000001
 43
0.0000001
 44
0.0000000001
 40
0.0
 40
0.0
 40
0.0
 40
0.0
 40
0.2218030346
 40
1.0
 40
1.0
 40
1.0
 40
1.0
 10
138.1827139063
 20
241.7036866828
 30
0.0
 10
138.1918167126
 20
241.7058158501
 30
0.0
 10
138.2341867368
 20
241.7100383091
 30
0.0
 10
138.2762428046
 20
241.6941935082
 30
0.0
 10
138.3046577909
 20
241.677811216
 30
0.0
  0
SPLINE
  5
3D6
100
AcDbEntity
  8
0
100
AcDbSpline
 62
7
  6
CONTINUOUS
 70
0
 71
3
 72
9
 73
5
 74
0
 42
0.0000001
 43
0.0000001
 44
0.0000000001
 40
0.0
 40
0.0
 40
0.0
 40
0.0
 40
0.285072039
 40
1.0
 40
1.0
 40
1.0
 40
1.0
 10
143.5340005135
 20
241.677824126
 30
0.0
 10
143.5443866791
 20
241.6838122384
 30
0.0
 10
143.581801188
 20
241.7024799722
 30
0.0
 10
143.6266812646
 20
241.7105484579
 30
0.0
 10
143.6559566197
 20
241.7036970865
 30
0.0
  0
SPLINE
  5
3D7
100
AcDbEntity
  8
0
100
AcDbSpline
 62
7
  6
CONTINUOUS
 70
0
 71
3
 72
8
 73
4
 74
0
 42
0.0000001
 43
0.0000001
 44
0.0000000001
 40
0.0
 40
0.0
 40
0.0
 40
0.0
 40
1.0
 40
1.0
 40
1.0
 40
1.0
 10
143.6559566197
 20
241.7036970865
 30
0.0
 10
143.665745244
 20
241.7014062346
 30
0.0
 10
143.6753144644
 20
241.6976793545
 30
0.0
 10
143.6840216412
 20
241.6926543929
 30
0.0
  0
SPLINE
  5
3D8
100
AcDbEntity
  8
0
100
AcDbSpline
 62
7
  6
CONTINUOUS
 70
0
 71
3
 72
10
 73
6
 74
0
 42
0.0000001
 43
0.0000001
 44
0.0000000001
 40
0.0
 40
0.0
 40
0.0
 40
0.0
 40
0.2164631086
 40
0.4495009854
 40
1.0
 40
1.0
 40
1.0
 40
1.0
 10
122.0040027895
 20
232.2127211858
 30
0.0
 10
122.0032874474
 20
232.2008247386
 30
0.0
 10
122.00637809
 20
232.1756544867
 30
0.0
 10
122.03114469
 20
232.125641548
 30
0.0
 10
122.0656702576
 20
232.0967135895
 30
0.0
 10
122.0914408257
 20
232.0807598441
 30
0.0
  0
SPLINE
  5
3D9
100
AcDbEntity
  8
0
100
AcDbSpline
 62
7
  6
CONTINUOUS
 70
0
 71
3
 72
11
 73
7
 74
0
 42
0.0000001
 43
0.0000001
 44
0.0000000001
 40
0.0
 40
0.0
 40
0.0
 40
0.0
 40
0.2393815374
 40
0.5021621059
 40
0.7637714501
 40
1.0
 40
1.0
 40
1.0
 40
1.0
 10
122.0914408257
 20
232.0807598441
 30
0.0
 10
122.0924631061
 20
232.1151534663
 30
0.0
 10
122.106702708
 20
232.1870126337
 30
0.0
 10
122.1525525658
 20
232.2876246144
 30
0.0
 10
122.2182415915
 20
232.3759963841
 30
0.0
 10
122.2740362966
 20
232.4225828273
 30
0.0
 10
122.3034427523
 20
232.439560551
 30
0.0
  0
SPLINE
  5
3DA
100
AcDbEntity
  8
0
100
AcDbSpline
 62
7
  6
CONTINUOUS
 70
0
 71
3
 72
10
 73
6
 74
0
 42
0.0000001
 43
0.0000001
 44
0.0000000001
 40
0.0
 40
0.0
 40
0.0
 40
0.0
 40
0.5477359738
 40
0.7815803932
 40
1.0
 40
1.0
 40
1.0
 40
1.0
 10
122.3034427523
 20
232.439560551
 30
0.0
 10
122.2786298157
 20
232.4538859825
 30
0.0
 10
122.2390408668
 20
232.469701359
 30
0.0
 10
122.1860788206
 20
232.4683979952
 30
0.0
 10
122.1633452284
 20
232.4601178896
 30
0.0
 10
122.1534496723
 20
232.4544070105
 30
0.0
  0
SPLINE
  5
3DB
100
AcDbEntity
  8
0
100
AcDbSpline
 62
7
  6
CONTINUOUS
 70
0
 71
3
 72
9
 73
5
 74
0
 42
0.0000001
 43
0.0000001
 44
0.0000000001
 40
0.0
 40
0.0
 40
0.0
 40
0.0
 40
0.2361888511
 40
1.0
 40
1.0
 40
1.0
 40
1.0
 10
134.5053007712
 20
228.0725785814
 30
0.0
 10
134.5064273358
 20
228.0777713635
 30
0.0
 10
134.5128805918
 20
228.0993978904
 30
0.0
 10
134.5257533052
 20
228.11876495
 30
0.0
 10
134.5373188686
 20
228.131473743
 30
0.0
  0
SPLINE
  5
3DC
100
AcDbEntity
  8
0
100
AcDbSpline
 62
7
  6
CONTINUOUS
 70
0
 71
3
 72
9
 73
5
 74
0
 42
0.0000001
 43
0.0000001
 44
0.0000000001
 40
0.0
 40
0.0
 40
0.0
 40
0.0
 40
0.2350245671
 40
1.0
 40
1.0
 40
1.0
 40
1.0
 10
134.5373188686
 20
228.131473743
 30
0.0
 10
134.5409130493
 20
228.1354232002
 30
0.0
 10
134.5569958552
 20
228.1515066668
 30
0.0
 10
134.5757685072
 20
228.1647658504
 30
0.0
 10
134.5908211394
 20
228.1734564398
 30
0.0
  0
SPLINE
  5
3DD
100
AcDbEntity
  8
0
100
AcDbSpline
 62
7
  6
CONTINUOUS
 70
0
 71
3
 72
9
 73
5
 74
0
 42
0.0000001
 43
0.0000001
 44
0.0000000001
 40
0.0
 40
0.0
 40
0.0
 40
0.0
 40
0.2361913405
 40
1.0
 40
1.0
 40
1.0
 40
1.0
 10
138.3943564396
 20
233.9921027323
 30
0.0
 10
138.3954836045
 20
233.9972997318
 30
0.0
 10
138.4019387779
 20
234.0189440444
 30
0.0
 10
138.4148212295
 20
234.0383285874
 30
0.0
 10
138.4263997597
 20
234.051043836
 30
0.0
  0
SPLINE
  5
3DE
100
AcDbEntity
  8
0
100
AcDbSpline
 62
7
  6
CONTINUOUS
 70
0
 71
3
 72
9
 73
5
 74
0
 42
0.0000001
 43
0.0000001
 44
0.0000000001
 40
0.0
 40
0.0
 40
0.0
 40
0.0
 40
0.2350286489
 40
1.0
 40
1.0
 40
1.0
 40
1.0
 10
138.4263997597
 20
234.051043836
 30
0.0
 10
138.42999221
 20
234.054988974
 30
0.0
 10
138.4460666661
 20
234.0710540168
 30
0.0
 10
138.4648257444
 20
234.0842980754
 30
0.0
 10
138.4798657484
 20
234.0929813739
 30
0.0
  0
SPLINE
  5
3DF
100
AcDbEntity
  8
0
100
AcDbSpline
 62
7
  6
CONTINUOUS
 70
0
 71
3
 72
15
 73
11
 74
0
 42
0.0000001
 43
0.0000001
 44
0.0000000001
 40
0.0
 40
0.0
 40
0.0
 40
0.0
 40
0.1141458626
 40
0.2373150334
 40
0.3669687631
 40
0.5000004761
 40
0.6330321246
 40
0.7626856681
 40
0.8858545415
 40
1.0
 40
1.0
 40
1.0
 40
1.0
 10
143.534510007
 20
241.6775311198
 30
0.0
 10
143.3555054315
 20
241.7809220103
 30
0.0
 10
142.9640858808
 20
241.9633425404
 30
0.0
 10
142.3265916822
 20
242.1572059256
 30
0.0
 10
141.6363585977
 20
242.2765443319
 30
0.0
 10
140.9193268475
 20
242.3168055513
 30
0.0
 10
140.2022955953
 20
242.2765414326
 30
0.0
 10
139.5120639956
 20
242.157200221
 30
0.0
 10
138.8745722344
 20
241.9633343346
 30
0.0
 10
138.4831548266
 20
241.780912101
 30
0.0
 10
138.3041516334
 20
241.6775202806
 30
0.0
  0
SPLINE
  5
3E0
100
AcDbEntity
  8
0
100
AcDbSpline
 62
7
  6
CONTINUOUS
 70
0
 71
3
 72
9
 73
5
 74
0
 42
0.0000001
 43
0.0000001
 44
0.0000000001
 40
0.0
 40
0.0
 40
0.0
 40
0.0
 40
0.24135275
 40
1.0
 40
1.0
 40
1.0
 40
1.0
 10
127.5281158115
 20
211.4772120129
 30
0.0
 10
127.5269505509
 20
211.479909778
 30
0.0
 10
127.5217068374
 20
211.490906701
 30
0.0
 10
127.5148827104
 20
211.5011215042
 30
0.0
 10
127.509104702
 20
211.5083284186
 30
0.0
  0
SPLINE
  5
3E1
100
AcDbEntity
  8
0
100
AcDbSpline
 62
7
  6
CONTINUOUS
 70
0
 71
3
 72
9
 73
5
 74
0
 42
0.0000001
 43
0.0000001
 44
0.0000000001
 40
0.0
 40
0.0
 40
0.0
 40
0.0
 40
0.2325228621
 40
1.0
 40
1.0
 40
1.0
 40
1.0
 10
127.509104702
 20
211.5083284186
 30
0.0
 10
127.5053727846
 20
211.512983242
 30
0.0
 10
127.488198695
 20
211.5320974353
 30
0.0
 10
127.4671534917
 20
211.5475251839
 30
0.0
 10
127.4500788084
 20
211.5573350526
 30
0.0
  0
SPLINE
  5
3E2
100
AcDbEntity
  8
0
100
AcDbSpline
 62
7
  6
CONTINUOUS
 70
0
 71
3
 72
9
 73
5
 74
0
 42
0.0000001
 43
0.0000001
 44
0.0000000001
 40
0.0
 40
0.0
 40
0.0
 40
0.0
 40
0.2414214529
 40
1.0
 40
1.0
 40
1.0
 40
1.0
 10
131.4171650894
 20
217.3967614699
 30
0.0
 10
131.4160090237
 20
217.3994430949
 30
0.0
 10
131.4108093153
 20
217.4103721819
 30
0.0
 10
131.4040387231
 20
217.4205268886
 30
0.0
 10
131.398298752
 20
217.4276855048
 30
0.0
  0
SPLINE
  5
3E3
100
AcDbEntity
  8
0
100
AcDbSpline
 62
7
  6
CONTINUOUS
 70
0
 71
3
 72
9
 73
5
 74
0
 42
0.0000001
 43
0.0000001
 44
0.0000000001
 40
0.0
 40
0.0
 40
0.0
 40
0.0
 40
0.2323591929
 40
1.0
 40
1.0
 40
1.0
 40
1.0
 10
131.398298752
 20
217.4276855048
 30
0.0
 10
131.3945059879
 20
217.4324156581
 30
0.0
 10
131.3769904295
 20
217.4518157108
 30
0.0
 10
131.3555236969
 20
217.4673921618
 30
0.0
 10
131.3381770495
 20
217.4774070268
 30
0.0
  0
SPLINE
  5
3E4
100
AcDbEntity
  8
0
100
AcDbSpline
 62
7
  6
CONTINUOUS
 70
0
 71
3
 72
9
 73
5
 74
0
 42
0.0000001
 43
0.0000001
 44
0.0000000001
 40
0.0
 40
0.0
 40
0.0
 40
0.0
 40
0.5380149413
 40
1.0
 40
1.0
 40
1.0
 40
1.0
 10
115.5384508377
 20
210.4471963013
 30
0.0
 10
115.4846678771
 20
210.4430809554
 30
0.0
 10
115.383329008
 20
210.4504973242
 30
0.0
 10
115.2873944003
 20
210.4909575743
 30
0.0
 10
115.2518995163
 20
210.5207137935
 30
0.0
  0
SPLINE
  5
3E5
100
AcDbEntity
  8
0
100
AcDbSpline
 62
7
  6
CONTINUOUS
 70
0
 71
3
 72
9
 73
5
 74
0
 42
0.0000001
 43
0.0000001
 44
0.0000000001
 40
0.0
 40
0.0
 40
0.0
 40
0.0
 40
0.2607393314
 40
1.0
 40
1.0
 40
1.0
 40
1.0
 10
115.2518995163
 20
210.5207137935
 30
0.0
 10
115.2491981941
 20
210.5229783773
 30
0.0
 10
115.239061401
 20
210.531922574
 30
0.0
 10
115.2298503454
 20
210.541947292
 30
0.0
 10
115.2238434811
 20
210.5499348726
 30
0.0
  0
SPLINE
  5
3E6
100
AcDbEntity
  8
0
100
AcDbSpline
 62
7
  6
CONTINUOUS
 70
0
 71
3
 72
8
 73
4
 74
0
 42
0.0000001
 43
0.0000001
 44
0.0000000001
 40
0.0
 40
0.0
 40
0.0
 40
0.0
 40
1.0
 40
1.0
 40
1.0
 40
1.0
 10
115.2238434811
 20
210.5499348726
 30
0.0
 10
115.2193735003
 20
210.5558787946
 30
0.0
 10
115.2153257722
 20
210.5621763927
 30
0.0
 10
115.2118751986
 20
210.5687646003
 30
0.0
  0
SPLINE
  5
3E7
100
AcDbEntity
  8
0
100
AcDbSpline
 62
7
  6
CONTINUOUS
 70
0
 71
3
 72
9
 73
5
 74
0
 42
0.0000001
 43
0.0000001
 44
0.0000000001
 40
0.0
 40
0.0
 40
0.0
 40
0.0
 40
0.2587171961
 40
1.0
 40
1.0
 40
1.0
 40
1.0
 10
115.2118751986
 20
210.5687646003
 30
0.0
 10
115.2100552994
 20
210.5722393483
 30
0.0
 10
115.2036474549
 20
210.5859845216
 30
0.0
 10
115.2000361861
 20
210.6010667538
 30
0.0
 10
115.1992872439
 20
210.6122805778
 30
0.0
  0
SPLINE
  5
3E8
100
AcDbEntity
  8
0
100
AcDbSpline
 62
7
  6
CONTINUOUS
 70
0
 71
3
 72
9
 73
5
 74
0
 42
0.0000001
 43
0.0000001
 44
0.0000000001
 40
0.0
 40
0.0
 40
0.0
 40
0.0
 40
0.2303684589
 40
1.0
 40
1.0
 40
1.0
 40
1.0
 10
127.4491342069
 20
211.394586862
 30
0.0
 10
127.4371341821
 20
211.3876586858
 30
0.0
 10
127.3828453091
 20
211.3614255187
 30
0.0
 10
127.322574508
 20
211.3488897848
 30
0.0
 10
127.2764169285
 20
211.3453579152
 30
0.0
  0
SPLINE
  5
3E9
100
AcDbEntity
  8
0
100
AcDbSpline
 62
7
  6
CONTINUOUS
 70
0
 71
3
 72
11
 73
7
 74
0
 42
0.0000001
 43
0.0000001
 44
0.0000000001
 40
0.0
 40
0.0
 40
0.0
 40
0.0
 40
0.2287783598
 40
0.4673796092
 40
0.7229454739
 40
1.0
 40
1.0
 40
1.0
 40
1.0
 10
102.3244214709
 20
215.9566797751
 30
0.0
 10
102.334307177
 20
216.1213006534
 30
0.0
 10
102.4104218026
 20
216.4562457117
 30
0.0
 10
102.6735740775
 20
216.9132261021
 30
0.0
 10
103.0635779348
 20
217.3157094929
 30
0.0
 10
103.3820790802
 20
217.5343365565
 30
0.0
 10
103.5550588494
 20
217.6341625003
 30
0.0
  0
SPLINE
  5
3EA
100
AcDbEntity
  8
0
100
AcDbSpline
 62
7
  6
CONTINUOUS
 70
0
 71
3
 72
8
 73
4
 74
0
 42
0.0000001
 43
0.0000001
 44
0.0000000001
 40
0.0
 40
0.0
 40
0.0
 40
0.0
 40
1.0
 40
1.0
 40
1.0
 40
1.0
 10
131.4236991885
 20
217.4581783905
 30
0.0
 10
131.4274089597
 20
217.4410786074
 30
0.0
 10
131.4264803118
 20
217.4224404115
 30
0.0
 10
131.4212499864
 20
217.4057428463
 30
0.0
  0
SPLINE
  5
3EB
100
AcDbEntity
  8
0
100
AcDbSpline
 62
7
  6
CONTINUOUS
 70
0
 71
3
 72
8
 73
4
 74
0
 42
0.0000001
 43
0.0000001
 44
0.0000000001
 40
0.0
 40
0.0
 40
0.0
 40
0.0
 40
1.0
 40
1.0
 40
1.0
 40
1.0
 10
131.4171653798
 20
217.394757007
 30
0.0
 10
131.4147023323
 20
217.3890435921
 30
0.0
 10
131.4117796181
 20
217.3835126209
 30
0.0
 10
131.4085023168
 20
217.3782240475
 30
0.0
  0
SPLINE
  5
3EC
100
AcDbEntity
  8
0
100
AcDbSpline
 62
7
  6
CONTINUOUS
 70
0
 71
3
 72
9
 73
5
 74
0
 42
0.0000001
 43
0.0000001
 44
0.0000000001
 40
0.0
 40
0.0
 40
0.0
 40
0.0
 40
0.2278835983
 40
1.0
 40
1.0
 40
1.0
 40
1.0
 10
131.4085023168
 20
217.3782240475
 30
0.0
 10
131.4046719238
 20
217.3720429514
 30
0.0
 10
131.3856689159
 20
217.3462692464
 30
0.0
 10
131.3595160403
 20
217.3264307748
 30
0.0
 10
131.3381788158
 20
217.314111796
 30
0.0
  0
SPLINE
  5
3ED
100
AcDbEntity
  8
0
100
AcDbSpline
 62
7
  6
CONTINUOUS
 70
0
 71
3
 72
8
 73
4
 74
0
 42
0.0000001
 43
0.0000001
 44
0.0000000001
 40
0.0
 40
0.0
 40
0.0
 40
0.0
 40
1.0
 40
1.0
 40
1.0
 40
1.0
 10
127.5346507429
 20
211.5386531955
 30
0.0
 10
127.538351356
 20
211.5215745332
 30
0.0
 10
127.5374260375
 20
211.5029651204
 30
0.0
 10
127.5322162768
 20
211.4862847836
 30
0.0
  0
SPLINE
  5
3EE
100
AcDbEntity
  8
0
100
AcDbSpline
 62
7
  6
CONTINUOUS
 70
0
 71
3
 72
8
 73
4
 74
0
 42
0.0000001
 43
0.0000001
 44
0.0000000001
 40
0.0
 40
0.0
 40
0.0
 40
0.0
 40
1.0
 40
1.0
 40
1.0
 40
1.0
 10
127.5281143381
 20
211.4752335087
 30
0.0
 10
127.5256523806
 20
211.4695181353
 30
0.0
 10
127.5227306232
 20
211.4639850736
 30
0.0
 10
127.5194537948
 20
211.4586945988
 30
0.0
  0
SPLINE
  5
3EF
100
AcDbEntity
  8
0
100
AcDbSpline
 62
7
  6
CONTINUOUS
 70
0
 71
3
 72
9
 73
5
 74
0
 42
0.0000001
 43
0.0000001
 44
0.0000000001
 40
0.0
 40
0.0
 40
0.0
 40
0.0
 40
0.2278589703
 40
1.0
 40
1.0
 40
1.0
 40
1.0
 10
127.5194537948
 20
211.4586945988
 30
0.0
 10
127.5156254135
 20
211.452513636
 30
0.0
 10
127.4966275573
 20
211.4267377091
 30
0.0
 10
127.4704709761
 20
211.4069055779
 30
0.0
 10
127.4491342069
 20
211.394586862
 30
0.0
  0
SPLINE
  5
3F0
100
AcDbEntity
  8
0
100
AcDbSpline
 62
7
  6
CONTINUOUS
 70
0
 71
3
 72
11
 73
7
 74
0
 42
0.0000001
 43
0.0000001
 44
0.0000000001
 40
0.0
 40
0.0
 40
0.0
 40
0.0
 40
0.2372531816
 40
0.5000006935
 40
0.7627478297
 40
1.0
 40
1.0
 40
1.0
 40
1.0
 10
127.5197845337
 20
219.6819071012
 30
0.0
 10
127.4896660876
 20
219.6992956008
 30
0.0
 10
127.4196305137
 20
219.7246735308
 30
0.0
 10
127.3076521043
 20
219.7368062929
 30
0.0
 10
127.1956739025
 20
219.7246729958
 30
0.0
 10
127.1256386573
 20
219.6992947241
 30
0.0
 10
127.095520465
 20
219.6819060814
 30
0.0
  0
SPLINE
  5
3F1
100
AcDbEntity
  8
0
100
AcDbSpline
 62
7
  6
CONTINUOUS
 70
0
 71
3
 72
11
 73
7
 74
0
 42
0.0000001
 43
0.0000001
 44
0.0000000001
 40
0.0
 40
0.0
 40
0.0
 40
0.0
 40
0.2372531816
 40
0.5000006935
 40
0.7627478297
 40
1.0
 40
1.0
 40
1.0
 40
1.0
 10
117.2667523984
 20
217.4365489579
 30
0.0
 10
117.2366339523
 20
217.4539374574
 30
0.0
 10
117.1665983784
 20
217.4793153874
 30
0.0
 10
117.054619969
 20
217.4914481496
 30
0.0
 10
116.9426417672
 20
217.4793148524
 30
0.0
 10
116.872606522
 20
217.4539365807
 30
0.0
 10
116.8424883297
 20
217.436547938
 30
0.0
  0
SPLINE
  5
3F2
100
AcDbEntity
  8
0
100
AcDbSpline
 62
7
  6
CONTINUOUS
 70
0
 71
3
 72
9
 73
5
 74
0
 42
0.0000001
 43
0.0000001
 44
0.0000000001
 40
0.0
 40
0.0
 40
0.0
 40
0.0
 40
0.274090268
 40
1.0
 40
1.0
 40
1.0
 40
1.0
 10
116.8424883297
 20
217.436547938
 30
0.0
 10
116.8350357474
 20
217.4322452133
 30
0.0
 10
116.808614472
 20
217.4153696541
 30
0.0
 10
116.7852257737
 20
217.3929154313
 30
0.0
 10
116.7729603506
 20
217.3737062731
 30
0.0
  0
SPLINE
  5
3F3
100
AcDbEntity
  8
0
100
AcDbSpline
 62
7
  6
CONTINUOUS
 70
0
 71
3
 72
9
 73
5
 74
0
 42
0.0000001
 43
0.0000001
 44
0.0000000001
 40
0.0
 40
0.0
 40
0.0
 40
0.0
 40
0.2597658292
 40
1.0
 40
1.0
 40
1.0
 40
1.0
 10
116.7729603506
 20
217.3737062731
 30
0.0
 10
116.7711408078
 20
217.3708566456
 30
0.0
 10
116.764531919
 20
217.3596478966
 30
0.0
 10
116.7596384948
 20
217.3473600451
 30
0.0
 10
116.7574829925
 20
217.3379697132
 30
0.0
  0
SPLINE
  5
3F4
100
AcDbEntity
  8
0
100
AcDbSpline
 62
7
  6
CONTINUOUS
 70
0
 71
3
 72
10
 73
6
 74
0
 42
0.0000001
 43
0.0000001
 44
0.0000000001
 40
0.0
 40
0.0
 40
0.0
 40
0.0
 40
0.5476550785
 40
0.7815474166
 40
1.0
 40
1.0
 40
1.0
 40
1.0
 10
103.7049878163
 20
217.6192895974
 30
0.0
 10
103.6801954351
 20
217.6336230186
 30
0.0
 10
103.6406233527
 20
217.649447005
 30
0.0
 10
103.5876791548
 20
217.6481474961
 30
0.0
 10
103.5649471729
 20
217.6398756735
 30
0.0
 10
103.5550516586
 20
217.6341689092
 30
0.0
  0
SPLINE
  5
3F5
100
AcDbEntity
  8
0
100
AcDbSpline
 62
7
  6
CONTINUOUS
 70
0
 71
3
 72
11
 73
7
 74
0
 42
0.0000001
 43
0.0000001
 44
0.0000000001
 40
0.0
 40
0.0
 40
0.0
 40
0.0
 40
0.2394005883
 40
0.5021850346
 40
0.7637989956
 40
1.0
 40
1.0
 40
1.0
 40
1.0
 10
103.4930542557
 20
214.2413434082
 30
0.0
 10
103.4940657658
 20
214.2757395353
 30
0.0
 10
103.5082953759
 20
214.3476048747
 30
0.0
 10
103.5541489746
 20
214.4482187648
 30
0.0
 10
103.6198443045
 20
214.5365792067
 30
0.0
 10
103.6756178268
 20
214.5831771983
 30
0.0
 10
103.7050101777
 20
214.6001703305
 30
0.0
  0
SPLINE
  5
3F6
100
AcDbEntity
  8
0
100
AcDbSpline
 62
7
  6
CONTINUOUS
 70
0
 71
3
 72
12
 73
8
 74
0
 42
0.0000001
 43
0.0000001
 44
0.0000000001
 40
0.0
 40
0.0
 40
0.0
 40
0.0
 40
0.2906991124
 40
0.5494521715
 40
0.7815152036
 40
0.8915333441
 40
1.0
 40
1.0
 40
1.0
 40
1.0
 10
103.4930886848
 20
214.2413238852
 30
0.0
 10
103.310311641
 20
214.3473931725
 30
0.0
 10
102.9801433098
 20
214.577359483
 30
0.0
 10
102.591177821
 20
214.9986894818
 30
0.0
 10
102.3916839592
 20
215.396150372
 30
0.0
 10
102.3243422102
 20
215.7181836272
 30
0.0
 10
102.3196325669
 20
215.8779491632
 30
0.0
 10
102.3243592687
 20
215.9566575763
 30
0.0
  0
SPLINE
  5
3F7
100
AcDbEntity
  8
0
100
AcDbSpline
 62
7
  6
CONTINUOUS
 70
0
 71
3
 72
9
 73
5
 74
0
 42
0.0000001
 43
0.0000001
 44
0.0000000001
 40
0.0
 40
0.0
 40
0.0
 40
0.0
 40
0.2847867196
 40
1.0
 40
1.0
 40
1.0
 40
1.0
 10
119.7062034445
 20
226.8575406027
 30
0.0
 10
119.7165209015
 20
226.8634973537
 30
0.0
 10
119.7537283066
 20
226.8820989705
 30
0.0
 10
119.7982975485
 20
226.8902197817
 30
0.0
 10
119.8274718135
 20
226.8835827148
 30
0.0
  0
SPLINE
  5
3F8
100
AcDbEntity
  8
0
100
AcDbSpline
 62
7
  6
CONTINUOUS
 70
0
 71
3
 72
8
 73
4
 74
0
 42
0.0000001
 43
0.0000001
 44
0.0000000001
 40
0.0
 40
0.0
 40
0.0
 40
0.0
 40
1.0
 40
1.0
 40
1.0
 40
1.0
 10
119.8274718135
 20
226.8835827148
 30
0.0
 10
119.8374915509
 20
226.8813032514
 30
0.0
 10
119.8472946468
 20
226.877524389
 30
0.0
 10
119.856194651
 20
226.8723881437
 30
0.0
  0
SPLINE
  5
3F9
100
AcDbEntity
  8
0
100
AcDbSpline
 62
7
  6
CONTINUOUS
 70
0
 71
3
 72
8
 73
4
 74
0
 42
0.0000001
 43
0.0000001
 44
0.0000000001
 40
0.0
 40
0.0
 40
0.0
 40
0.0
 40
1.0
 40
1.0
 40
1.0
 40
1.0
 10
119.5562103645
 20
226.8723870622
 30
0.0
 10
119.5651806356
 20
226.8775639449
 30
0.0
 10
119.5750692104
 20
226.8813615359
 30
0.0
 10
119.5851732443
 20
226.8836362615
 30
0.0
  0
SPLINE
  5
3FA
100
AcDbEntity
  8
0
100
AcDbSpline
 62
7
  6
CONTINUOUS
 70
0
 71
3
 72
9
 73
5
 74
0
 42
0.0000001
 43
0.0000001
 44
0.0000000001
 40
0.0
 40
0.0
 40
0.0
 40
0.0
 40
0.2219774171
 40
1.0
 40
1.0
 40
1.0
 40
1.0
 10
119.5851732443
 20
226.8836362615
 30
0.0
 10
119.59423587
 20
226.8856765345
 30
0.0
 10
119.6363205219
 20
226.8895870068
 30
0.0
 10
119.6780062083
 20
226.8738199164
 30
0.0
 10
119.7062034445
 20
226.8575406027
 30
0.0
  0
SPLINE
  5
3FB
100
AcDbEntity
  8
0
100
AcDbSpline
 62
7
  6
CONTINUOUS
 70
0
 71
3
 72
11
 73
7
 74
0
 42
0.0000001
 43
0.0000001
 44
0.0000000001
 40
0.0
 40
0.0
 40
0.0
 40
0.0
 40
0.2362558493
 40
0.4978604561
 40
0.7606372219
 40
1.0
 40
1.0
 40
1.0
 40
1.0
 10
122.3949994418
 20
203.8097441098
 30
0.0
 10
122.3655789759
 20
203.7927818292
 30
0.0
 10
122.3097631989
 20
203.7462070708
 30
0.0
 10
122.2440805342
 20
203.6578241934
 30
0.0
 10
122.1982343611
 20
203.5572142957
 30
0.0
 10
122.1839846782
 20
203.4853613828
 30
0.0
 10
122.1829515556
 20
203.4509702818
 30
0.0
  0
SPLINE
  5
3FC
100
AcDbEntity
  8
0
100
AcDbSpline
 62
7
  6
CONTINUOUS
 70
0
 71
3
 72
11
 73
7
 74
0
 42
0.0000001
 43
0.0000001
 44
0.0000000001
 40
0.0
 40
0.0
 40
0.0
 40
0.0
 40
0.262934138
 40
0.5238217428
 40
0.7723759806
 40
1.0
 40
1.0
 40
1.0
 40
1.0
 10
125.7981448578
 20
202.8235215571
 30
0.0
 10
125.473964813
 20
202.7860439048
 30
0.0
 10
124.8218803331
 20
202.7582270003
 30
0.0
 10
123.864587542
 20
202.8510611166
 30
0.0
 10
122.9735035312
 20
203.072318979
 30
0.0
 10
122.4278983325
 20
203.3102838684
 30
0.0
 10
122.1829165395
 20
203.4509900286
 30
0.0
  0
SPLINE
  5
3FD
100
AcDbEntity
  8
0
100
AcDbSpline
 62
7
  6
CONTINUOUS
 70
0
 71
3
 72
15
 73
11
 74
0
 42
0.0000001
 43
0.0000001
 44
0.0000000001
 40
0.0
 40
0.0
 40
0.0
 40
0.0
 40
0.1428685269
 40
0.2708691352
 40
0.3866470336
 40
0.4956772226
 40
0.6054841739
 40
0.7233336084
 40
0.8541632767
 40
1.0
 40
1.0
 40
1.0
 40
1.0
 10
103.60830195
 20
217.5613764884
 30
0.0
 10
103.4559002172
 20
217.4665412531
 30
0.0
 10
103.1805333411
 20
217.2626106937
 30
0.0
 10
102.8562683115
 20
216.8950757449
 30
0.0
 10
102.6573636887
 20
216.4917699431
 30
0.0
 10
102.5985277044
 20
216.0674448688
 30
0.0
 10
102.6860334082
 20
215.6456420215
 30
0.0
 10
102.9109529768
 20
215.2485005396
 30
0.0
 10
103.2582725065
 20
214.889205635
 30
0.0
 10
103.5468123267
 20
214.6914626998
 30
0.0
 10
103.7055110256
 20
214.5998797983
 30
0.0
  0
SPLINE
  5
3FE
100
AcDbEntity
  8
0
100
AcDbSpline
 62
7
  6
CONTINUOUS
 70
0
 71
3
 72
11
 73
7
 74
0
 42
0.0000001
 43
0.0000001
 44
0.0000000001
 40
0.0
 40
0.0
 40
0.0
 40
0.0
 40
0.227994258
 40
0.477641441
 40
0.7389139956
 40
1.0
 40
1.0
 40
1.0
 40
1.0
 10
122.3944899483
 20
203.810037116
 30
0.0
 10
122.6376313016
 20
203.6696016447
 30
0.0
 10
123.1824946449
 20
203.4354990729
 30
0.0
 10
124.0726229487
 20
203.2292151629
 30
0.0
 10
125.0244104732
 20
203.1602251032
 30
0.0
 10
125.6687697425
 20
203.2099058211
 30
0.0
 10
125.9863589997
 20
203.2601438963
 30
0.0
  0
SPLINE
  5
3FF
100
AcDbEntity
  8
0
100
AcDbSpline
 62
7
  6
CONTINUOUS
 70
0
 71
3
 72
9
 73
5
 74
0
 42
0.0000001
 43
0.0000001
 44
0.0000000001
 40
0.0
 40
0.0
 40
0.0
 40
0.0
 40
0.2657102965
 40
1.0
 40
1.0
 40
1.0
 40
1.0
 10
127.4496059125
 20
211.6392589815
 30
0.0
 10
127.4548799114
 20
211.6362004832
 30
0.0
 10
127.4743310606
 20
211.6240456517
 30
0.0
 10
127.4922151894
 20
211.6091776929
 30
0.0
 10
127.5034652555
 20
211.5966359127
 30
0.0
  0
SPLINE
  5
400
100
AcDbEntity
  8
0
100
AcDbSpline
 62
7
  6
CONTINUOUS
 70
0
 71
3
 72
9
 73
5
 74
0
 42
0.0000001
 43
0.0000001
 44
0.0000000001
 40
0.0
 40
0.0
 40
0.0
 40
0.0
 40
0.2667160591
 40
1.0
 40
1.0
 40
1.0
 40
1.0
 10
127.5034652555
 20
211.5966359127
 30
0.0
 10
127.5070914431
 20
211.5925933722
 30
0.0
 10
127.5199446827
 20
211.5768161193
 30
0.0
 10
127.5295299201
 20
211.5581619146
 30
0.0
 10
127.5334135291
 20
211.5437454851
 30
0.0
  0
SPLINE
  5
401
100
AcDbEntity
  8
0
100
AcDbSpline
 62
7
  6
CONTINUOUS
 70
0
 71
3
 72
9
 73
5
 74
0
 42
0.0000001
 43
0.0000001
 44
0.0000000001
 40
0.0
 40
0.0
 40
0.0
 40
0.0
 40
0.2654788479
 40
1.0
 40
1.0
 40
1.0
 40
1.0
 10
131.3381770495
 20
217.5590572685
 30
0.0
 10
131.3434002025
 20
217.5560417479
 30
0.0
 10
131.3626882299
 20
217.5440528977
 30
0.0
 10
131.3804502111
 20
217.5294146236
 30
0.0
 10
131.3916814036
 20
217.5170731947
 30
0.0
  0
SPLINE
  5
402
100
AcDbEntity
  8
0
100
AcDbSpline
 62
7
  6
CONTINUOUS
 70
0
 71
3
 72
9
 73
5
 74
0
 42
0.0000001
 43
0.0000001
 44
0.0000000001
 40
0.0
 40
0.0
 40
0.0
 40
0.0
 40
0.2670051279
 40
1.0
 40
1.0
 40
1.0
 40
1.0
 10
131.3916814036
 20
217.5170731947
 30
0.0
 10
131.3953940031
 20
217.5129935938
 30
0.0
 10
131.4085459334
 20
217.4970773093
 30
0.0
 10
131.4183866651
 20
217.4781973395
 30
0.0
 10
131.4223742863
 20
217.4635889594
 30
0.0
  0
SPLINE
  5
403
100
AcDbEntity
  8
0
100
AcDbSpline
 62
7
  6
CONTINUOUS
 70
0
 71
3
 72
11
 73
7
 74
0
 42
0.0000001
 43
0.0000001
 44
0.0000000001
 40
0.0
 40
0.0
 40
0.0
 40
0.0
 40
0.2372524156
 40
0.4999996414
 40
0.7627470637
 40
1.0
 40
1.0
 40
1.0
 40
1.0
 10
127.095520465
 20
219.7635563231
 30
0.0
 10
127.1256386884
 20
219.7809449838
 30
0.0
 10
127.1956739868
 20
219.8063232615
 30
0.0
 10
127.3076522274
 20
219.8184565346
 30
0.0
 10
127.419630598
 20
219.8063237485
 30
0.0
 10
127.4896661187
 20
219.7809458245
 30
0.0
 10
127.5197845337
 20
219.7635573429
 30
0.0
  0
SPLINE
  5
404
100
AcDbEntity
  8
0
100
AcDbSpline
 62
7
  6
CONTINUOUS
 70
0
 71
3
 72
11
 73
7
 74
0
 42
0.0000001
 43
0.0000001
 44
0.0000000001
 40
0.0
 40
0.0
 40
0.0
 40
0.0
 40
0.2372524156
 40
0.4999996414
 40
0.7627470637
 40
1.0
 40
1.0
 40
1.0
 40
1.0
 10
116.8424883297
 20
217.5181981798
 30
0.0
 10
116.8726065531
 20
217.5355868404
 30
0.0
 10
116.9426418515
 20
217.5609651181
 30
0.0
 10
117.0546200921
 20
217.5730983913
 30
0.0
 10
117.1665984627
 20
217.5609656051
 30
0.0
 10
117.2366339834
 20
217.5355876812
 30
0.0
 10
117.2667523984
 20
217.5181991996
 30
0.0
  0
SPLINE
  5
405
100
AcDbEntity
  8
0
100
AcDbSpline
 62
7
  6
CONTINUOUS
 70
0
 71
3
 72
9
 73
5
 74
0
 42
0.0000001
 43
0.0000001
 44
0.0000000001
 40
0.0
 40
0.0
 40
0.0
 40
0.0
 40
0.23526405
 40
1.0
 40
1.0
 40
1.0
 40
1.0
 10
116.7573086721
 20
217.4188605371
 30
0.0
 10
116.7585566711
 20
217.4242065765
 30
0.0
 10
116.7656478011
 20
217.4465203042
 30
0.0
 10
116.7794720562
 20
217.46630968
 30
0.0
 10
116.7917830963
 20
217.4792276332
 30
0.0
  0
SPLINE
  5
406
100
AcDbEntity
  8
0
100
AcDbSpline
 62
7
  6
CONTINUOUS
 70
0
 71
3
 72
9
 73
5
 74
0
 42
0.0000001
 43
0.0000001
 44
0.0000000001
 40
0.0
 40
0.0
 40
0.0
 40
0.0
 40
0.2397741727
 40
1.0
 40
1.0
 40
1.0
 40
1.0
 10
116.8034590522
 20
217.4904499742
 30
0.0
 10
116.8063302655
 20
217.4929863811
 30
0.0
 10
116.8186060696
 20
217.5032223321
 30
0.0
 10
116.8319688686
 20
217.5121248023
 30
0.0
 10
116.8424883297
 20
217.5181981798
 30
0.0
  0
SPLINE
  5
407
100
AcDbEntity
  8
0
100
AcDbSpline
 62
7
  6
CONTINUOUS
 70
0
 71
3
 72
9
 73
5
 74
0
 42
0.0000001
 43
0.0000001
 44
0.0000000001
 40
0.0
 40
0.0
 40
0.0
 40
0.0
 40
0.5219430325
 40
1.0
 40
1.0
 40
1.0
 40
1.0
 10
169.4807217165
 20
261.8473983891
 30
0.0
 10
169.4807310615
 20
261.7270790769
 30
0.0
 10
169.490848885
 20
261.4967033535
 30
0.0
 10
169.4981817457
 20
261.2662570827
 30
0.0
 10
169.4981815227
 20
261.1560544703
 30
0.0
  0
SPLINE
  5
408
100
AcDbEntity
  8
0
100
AcDbSpline
 62
7
  6
CONTINUOUS
 70
0
 71
3
 72
10
 73
6
 74
0
 42
0.0000001
 43
0.0000001
 44
0.0000000001
 40
0.0
 40
0.0
 40
0.0
 40
0.0
 40
0.2291602954
 40
0.468107799
 40
1.0
 40
1.0
 40
1.0
 40
1.0
 10
167.8982032297
 20
267.271505842
 30
0.0
 10
167.8981911185
 20
267.2275226601
 30
0.0
 10
167.884649983
 20
267.1371501111
 30
0.0
 10
167.8032015156
 20
266.9611652446
 30
0.0
 10
167.6904107152
 20
266.8558555708
 30
0.0
 10
167.6053182062
 20
266.7994548355
 30
0.0
  0
SPLINE
  5
409
100
AcDbEntity
  8
0
100
AcDbSpline
 62
7
  6
CONTINUOUS
 70
0
 71
3
 72
11
 73
7
 74
0
 42
0.0000001
 43
0.0000001
 44
0.0000000001
 40
0.0
 40
0.0
 40
0.0
 40
0.0
 40
0.2105904414
 40
0.4420552557
 40
0.7044199701
 40
1.0
 40
1.0
 40
1.0
 40
1.0
 10
170.2879456129
 20
273.3370710775
 30
0.0
 10
170.2879412082
 20
273.2992759622
 30
0.0
 10
170.3032827905
 20
273.2194716493
 30
0.0
 10
170.3664921006
 20
273.1080828805
 30
0.0
 10
170.4656653449
 20
273.0053318131
 30
0.0
 10
170.5482764011
 20
272.9477333182
 30
0.0
 10
170.5939121087
 20
272.920686828
 30
0.0
  0
SPLINE
  5
40A
100
AcDbEntity
  8
0
100
AcDbSpline
 62
7
  6
CONTINUOUS
 70
0
 71
3
 72
9
 73
5
 74
0
 42
0.0000001
 43
0.0000001
 44
0.0000000001
 40
0.0
 40
0.0
 40
0.0
 40
0.0
 40
0.4742180496
 40
1.0
 40
1.0
 40
1.0
 40
1.0
 10
179.4350380909
 20
254.2281627286
 30
0.0
 10
179.0563948863
 20
253.7392886215
 30
0.0
 10
178.1287426221
 20
252.806359973
 30
0.0
 10
177.0452163417
 20
252.0690221522
 30
0.0
 10
176.4514713413
 20
251.7262253626
 30
0.0
  0
SPLINE
  5
40B
100
AcDbEntity
  8
0
100
AcDbSpline
 62
7
  6
CONTINUOUS
 70
0
 71
3
 72
11
 73
7
 74
0
 42
0.0000001
 43
0.0000001
 44
0.0000000001
 40
0.0
 40
0.0
 40
0.0
 40
0.0
 40
0.2379321522
 40
0.480989572
 40
0.7337770681
 40
1.0
 40
1.0
 40
1.0
 40
1.0
 10
181.1983803266
 20
258.3528281387
 30
0.0
 10
181.1983797949
 20
258.048648984
 30
0.0
 10
181.1416105611
 20
257.4323381263
 30
0.0
 10
180.8887188322
 20
256.5242463969
 30
0.0
 10
180.4721782176
 20
255.6389717782
 30
0.0
 10
180.0998839774
 20
255.086504417
 30
0.0
 10
179.8914768659
 20
254.8174273339
 30
0.0
  0
SPLINE
  5
40C
100
AcDbEntity
  8
0
100
AcDbSpline
 62
7
  6
CONTINUOUS
 70
0
 71
3
 72
11
 73
7
 74
0
 42
0.0000001
 43
0.0000001
 44
0.0000000001
 40
0.0
 40
0.0
 40
0.0
 40
0.0
 40
0.2605805844
 40
0.5118413671
 40
0.7572668236
 40
1.0
 40
1.0
 40
1.0
 40
1.0
 10
178.6167595273
 20
275.0163967281
 30
0.0
 10
179.0080640541
 20
274.6513619023
 30
0.0
 10
179.7232555526
 20
273.8730860507
 30
0.0
 10
180.553790356
 20
272.5466037863
 30
0.0
 10
181.0781063835
 20
271.1088370673
 30
0.0
 10
181.1983770536
 20
270.1025296702
 30
0.0
 10
181.1983769617
 20
269.6040464028
 30
0.0
  0
SPLINE
  5
40D
100
AcDbEntity
  8
0
100
AcDbSpline
 62
7
  6
CONTINUOUS
 70
0
 71
3
 72
9
 73
5
 74
0
 42
0.0000001
 43
0.0000001
 44
0.0000000001
 40
0.0
 40
0.0
 40
0.0
 40
0.0
 40
0.1596091785
 40
1.0
 40
1.0
 40
1.0
 40
1.0
 10
178.1117650707
 20
275.458614561
 30
0.0
 10
178.113911555
 20
275.4568456716
 30
0.0
 10
178.1265169363
 20
275.4447716014
 30
0.0
 10
178.1374467657
 20
275.4311008785
 30
0.0
 10
178.1463021254
 20
275.4194363541
 30
0.0
  0
SPLINE
  5
40E
100
AcDbEntity
  8
0
100
AcDbSpline
 62
7
  6
CONTINUOUS
 70
0
 71
3
 72
9
 73
5
 74
0
 42
0.0000001
 43
0.0000001
 44
0.0000000001
 40
0.0
 40
0.0
 40
0.0
 40
0.0
 40
0.2554914552
 40
1.0
 40
1.0
 40
1.0
 40
1.0
 10
176.506975473
 20
276.5754100172
 30
0.0
 10
176.6504536741
 20
276.4907449028
 30
0.0
 10
177.2060638486
 20
276.1494383432
 30
0.0
 10
177.7369010387
 20
275.7671521921
 30
0.0
 10
178.1117399037
 20
275.4586532419
 30
0.0
  0
SPLINE
  5
40F
100
AcDbEntity
  8
0
100
AcDbSpline
 62
7
  6
CONTINUOUS
 70
0
 71
3
 72
15
 73
11
 74
0
 42
0.0000001
 43
0.0000001
 44
0.0000000001
 40
0.0
 40
0.0
 40
0.0
 40
0.0
 40
0.1147670104
 40
0.2356090104
 40
0.3614274288
 40
0.4905691701
 40
0.6210528733
 40
0.750765108
 40
0.8776675381
 40
1.0
 40
1.0
 40
1.0
 40
1.0
 10
156.0059565892
 20
276.643220167
 30
0.0
 10
156.6180533294
 20
276.9966122752
 30
0.0
 10
157.9294654256
 20
277.6296595109
 30
0.0
 10
160.0429353995
 20
278.3426590936
 30
0.0
 10
162.3086441174
 20
278.8361275762
 30
0.0
 10
164.6714958986
 20
279.1012841258
 30
0.0
 10
167.0728160552
 20
279.1332046443
 30
0.0
 10
169.4521665405
 20
278.9311683272
 30
0.0
 10
171.7495824302
 20
278.4992764304
 30
0.0
 10
173.2223994234
 20
278.0531430316
 30
0.0
 10
173.9286295005
 20
277.7908096629
 30
0.0
  0
SPLINE
  5
410
100
AcDbEntity
  8
0
100
AcDbSpline
 62
7
  6
CONTINUOUS
 70
0
 71
3
 72
9
 73
5
 74
0
 42
0.0000001
 43
0.0000001
 44
0.0000000001
 40
0.0
 40
0.0
 40
0.0
 40
0.0
 40
0.2560382468
 40
1.0
 40
1.0
 40
1.0
 40
1.0
 10
173.9286295005
 20
277.7908096629
 30
0.0
 10
174.1302116165
 20
277.7159307853
 30
0.0
 10
174.9122450574
 20
277.4096180314
 30
0.0
 10
175.6724644509
 20
277.0463987784
 30
0.0
 10
176.2178489847
 20
276.741482658
 30
0.0
  0
SPLINE
  5
411
100
AcDbEntity
  8
0
100
AcDbSpline
 62
7
  6
CONTINUOUS
 70
0
 71
3
 72
9
 73
5
 74
0
 42
0.0000001
 43
0.0000001
 44
0.0000000001
 40
0.0
 40
0.0
 40
0.0
 40
0.0
 40
0.2190957387
 40
1.0
 40
1.0
 40
1.0
 40
1.0
 10
153.2930441063
 20
274.5296355729
 30
0.0
 10
153.2848778818
 20
274.5202474014
 30
0.0
 10
153.2492113424
 20
274.4760080822
 30
0.0
 10
153.2191377471
 20
274.4274348066
 30
0.0
 10
153.1981653503
 20
274.3883579921
 30
0.0
  0
SPLINE
  5
412
100
AcDbEntity
  8
0
100
AcDbSpline
 62
7
  6
CONTINUOUS
 70
0
 71
3
 72
9
 73
5
 74
0
 42
0.0000001
 43
0.0000001
 44
0.0000000001
 40
0.0
 40
0.0
 40
0.0
 40
0.0
 40
0.2413258214
 40
1.0
 40
1.0
 40
1.0
 40
1.0
 10
153.3550203142
 20
274.5958735547
 30
0.0
 10
153.5410977863
 20
274.7914848796
 30
0.0
 10
154.3460570149
 20
275.5697214894
 30
0.0
 10
155.2709137657
 20
276.2188455281
 30
0.0
 10
156.0059565892
 20
276.643220167
 30
0.0
  0
SPLINE
  5
413
100
AcDbEntity
  8
0
100
AcDbSpline
 62
7
  6
CONTINUOUS
 70
0
 71
3
 72
9
 73
5
 74
0
 42
0.0000001
 43
0.0000001
 44
0.0000000001
 40
0.0
 40
0.0
 40
0.0
 40
0.0
 40
0.2404485986
 40
1.0
 40
1.0
 40
1.0
 40
1.0
 10
152.0193954372
 20
272.7727323817
 30
0.0
 10
152.0054248443
 20
272.746707008
 30
0.0
 10
151.9519350679
 20
272.6360308781
 30
0.0
 10
151.9162597172
 20
272.5169606591
 30
0.0
 10
151.899081239
 20
272.4252480189
 30
0.0
  0
SPLINE
  5
414
100
AcDbEntity
  8
0
100
AcDbSpline
 62
7
  6
CONTINUOUS
 70
0
 71
3
 72
9
 73
5
 74
0
 42
0.0000001
 43
0.0000001
 44
0.0000000001
 40
0.0
 40
0.0
 40
0.0
 40
0.0
 40
0.2480021188
 40
1.0
 40
1.0
 40
1.0
 40
1.0
 10
152.1874532855
 20
273.0695410152
 30
0.0
 10
152.2325449491
 20
273.1452085311
 30
0.0
 10
152.4195303249
 20
273.4472192987
 30
0.0
 10
152.6266450031
 20
273.7366817947
 30
0.0
 10
152.7918557466
 20
273.9465461602
 30
0.0
  0
SPLINE
  5
415
100
AcDbEntity
  8
0
100
AcDbSpline
 62
7
  6
CONTINUOUS
 70
0
 71
3
 72
13
 73
9
 74
0
 42
0.0000001
 43
0.0000001
 44
0.0000000001
 40
0.0
 40
0.0
 40
0.0
 40
0.0
 40
0.2289259778
 40
0.471483694
 40
0.6028945597
 40
0.7407935369
 40
0.8786989046
 40
1.0
 40
1.0
 40
1.0
 40
1.0
 10
151.2026365363
 20
269.8360212184
 30
0.0
 10
151.206930551
 20
269.9509814262
 30
0.0
 10
151.2473340813
 20
270.1876534974
 30
0.0
 10
151.3712721553
 20
270.4665137867
 30
0.0
 10
151.5028225768
 20
270.6875684665
 30
0.0
 10
151.6152504364
 20
270.8586809599
 30
0.0
 10
151.7235321946
 20
271.0259852498
 30
0.0
 10
151.7854590558
 20
271.141674753
 30
0.0
 10
151.8059106803
 20
271.1990979578
 30
0.0
  0
SPLINE
  5
416
100
AcDbEntity
  8
0
100
AcDbSpline
 62
7
  6
CONTINUOUS
 70
0
 71
3
 72
9
 73
5
 74
0
 42
0.0000001
 43
0.0000001
 44
0.0000000001
 40
0.0
 40
0.0
 40
0.0
 40
0.0
 40
0.5096904989
 40
1.0
 40
1.0
 40
1.0
 40
1.0
 10
152.5348202906
 20
247.8157121029
 30
0.0
 10
152.3467632094
 20
247.4490134653
 30
0.0
 10
152.0516215922
 20
246.6878059564
 30
0.0
 10
151.9483810197
 20
245.8762682797
 30
0.0
 10
151.9483803268
 20
245.4798302879
 30
0.0
  0
SPLINE
  5
417
100
AcDbEntity
  8
0
100
AcDbSpline
 62
7
  6
CONTINUOUS
 70
0
 71
3
 72
9
 73
5
 74
0
 42
0.0000001
 43
0.0000001
 44
0.0000000001
 40
0.0
 40
0.0
 40
0.0
 40
0.0
 40
0.5253805446
 40
1.0
 40
1.0
 40
1.0
 40
1.0
 10
172.2914033771
 20
262.6559859136
 30
0.0
 10
172.2914047729
 20
262.4892151576
 30
0.0
 10
172.3252778964
 20
262.1729722265
 30
0.0
 10
172.3491968946
 20
261.8561265582
 30
0.0
 10
172.3491968946
 20
261.7054688183
 30
0.0
  0
SPLINE
  5
418
100
AcDbEntity
  8
0
100
AcDbSpline
 62
7
  6
CONTINUOUS
 70
0
 71
3
 72
11
 73
7
 74
0
 42
0.0000001
 43
0.0000001
 44
0.0000000001
 40
0.0
 40
0.0
 40
0.0
 40
0.0
 40
0.2662190788
 40
0.5190070102
 40
0.7620668354
 40
1.0
 40
1.0
 40
1.0
 40
1.0
 10
152.5052743433
 20
254.8174248957
 30
0.0
 10
152.2968687769
 20
255.0864965624
 30
0.0
 10
151.9245884869
 20
255.6389678495
 30
0.0
 10
151.508049226
 20
256.5242391374
 30
0.0
 10
151.255147166
 20
257.4323326633
 30
0.0
 10
151.1983797951
 20
258.0486479599
 30
0.0
 10
151.1983803268
 20
258.3528281387
 30
0.0
  0
SPLINE
  5
419
100
AcDbEntity
  8
0
100
AcDbSpline
 62
7
  6
CONTINUOUS
 70
0
 71
3
 72
16
 73
12
 74
0
 42
0.0000001
 43
0.0000001
 44
0.0000000001
 40
0.0
 40
0.0
 40
0.0
 40
0.0
 40
0.1199855515
 40
0.2508353277
 40
0.3882009291
 40
0.5268938361
 40
0.6615648394
 40
0.7873594309
 40
0.845790301
 40
0.9007886285
 40
1.0
 40
1.0
 40
1.0
 40
1.0
 10
176.4514713413
 20
251.7262253626
 30
0.0
 10
175.5785132652
 20
251.2222257909
 30
0.0
 10
173.6366494114
 20
250.3664596842
 30
0.0
 10
170.46434811
 20
249.561221817
 30
0.0
 10
167.0524697628
 20
249.2086622565
 30
0.0
 10
163.5929642282
 20
249.329238007
 30
0.0
 10
160.2798467972
 20
249.915956882
 30
0.0
 10
157.7315730769
 20
250.7873728522
 30
0.0
 10
155.9377556182
 20
251.7018795208
 30
0.0
 10
154.4385103707
 20
252.675002793
 30
0.0
 10
153.4720938328
 20
253.5692194739
 30
0.0
 10
152.9617196272
 20
254.2281619932
 30
0.0
  0
SPLINE
  5
41A
100
AcDbEntity
  8
0
100
AcDbSpline
 62
7
  6
CONTINUOUS
 70
0
 71
3
 72
9
 73
5
 74
0
 42
0.0000001
 43
0.0000001
 44
0.0000000001
 40
0.0
 40
0.0
 40
0.0
 40
0.0
 40
0.2461198255
 40
1.0
 40
1.0
 40
1.0
 40
1.0
 10
180.2195180999
 20
246.9483730842
 30
0.0
 10
180.1964265064
 20
247.0218492168
 30
0.0
 10
180.0959977171
 20
247.3182861097
 30
0.0
 10
179.969588725
 20
247.6057963574
 30
0.0
 10
179.8619353518
 20
247.8157165518
 30
0.0
  0
SPLINE
  5
41B
100
AcDbEntity
  8
0
100
AcDbSpline
 62
7
  6
CONTINUOUS
 70
0
 71
3
 72
12
 73
8
 74
0
 42
0.0000001
 43
0.0000001
 44
0.0000000001
 40
0.0
 40
0.0
 40
0.0
 40
0.0
 40
0.1026676326
 40
0.2304496366
 40
0.5062706185
 40
0.7645584178
 40
1.0
 40
1.0
 40
1.0
 40
1.0
 10
152.2890329113
 20
272.9219491983
 30
0.0
 10
152.272696144
 20
272.8867482741
 30
0.0
 10
152.2257635118
 20
272.8127433252
 30
0.0
 10
152.1085726513
 20
272.661553839
 30
0.0
 10
151.9455304687
 20
272.4716542823
 30
0.0
 10
151.7735361797
 20
272.2363436222
 30
0.0
 10
151.6877467288
 20
272.0692412756
 30
0.0
 10
151.6553079109
 20
271.9863698132
 30
0.0
  0
SPLINE
  5
41C
100
AcDbEntity
  8
0
100
AcDbSpline
 62
7
  6
CONTINUOUS
 70
0
 71
3
 72
12
 73
8
 74
0
 42
0.0000001
 43
0.0000001
 44
0.0000000001
 40
0.0
 40
0.0
 40
0.0
 40
0.0
 40
0.0805897718
 40
0.1891170422
 40
0.4567101954
 40
0.7377858242
 40
1.0
 40
1.0
 40
1.0
 40
1.0
 10
153.3538931796
 20
274.5345325532
 30
0.0
 10
153.3417668934
 20
274.5163232033
 30
0.0
 10
153.3095163377
 20
274.4761833205
 30
0.0
 10
153.224624072
 20
274.3857914129
 30
0.0
 10
153.0939211452
 20
274.2642039835
 30
0.0
 10
152.934613618
 20
274.1123045317
 30
0.0
 10
152.8357986026
 20
274.0023649118
 30
0.0
 10
152.7917686259
 20
273.9464332627
 30
0.0
  0
SPLINE
  5
41D
100
AcDbEntity
  8
0
100
AcDbSpline
 62
7
  6
CONTINUOUS
 70
0
 71
3
 72
9
 73
5
 74
0
 42
0.0000001
 43
0.0000001
 44
0.0000000001
 40
0.0
 40
0.0
 40
0.0
 40
0.0
 40
0.2841075419
 40
1.0
 40
1.0
 40
1.0
 40
1.0
 10
151.8059106803
 20
271.1990978004
 30
0.0
 10
151.8091250063
 20
271.2081228489
 30
0.0
 10
151.8195295906
 20
271.2401375975
 30
0.0
 10
151.8263569539
 20
271.2737914874
 30
0.0
 10
151.8263543554
 20
271.2979320327
 30
0.0
  0
SPLINE
  5
41E
100
AcDbEntity
  8
0
100
AcDbSpline
 62
7
  6
CONTINUOUS
 70
0
 71
3
 72
9
 73
5
 74
0
 42
0.0000001
 43
0.0000001
 44
0.0000000001
 40
0.0
 40
0.0
 40
0.0
 40
0.0
 40
0.3003233027
 40
1.0
 40
1.0
 40
1.0
 40
1.0
 10
178.2823708863
 20
275.2950182687
 30
0.0
 10
178.2684078874
 20
275.3064172435
 30
0.0
 10
178.2221556972
 20
275.3446451845
 30
0.0
 10
178.1767472889
 20
275.3840401802
 30
0.0
 10
178.1468924855
 20
275.4135726174
 30
0.0
  0
SPLINE
  5
41F
100
AcDbEntity
  8
0
100
AcDbSpline
 62
7
  6
CONTINUOUS
 70
0
 71
3
 72
11
 73
7
 74
0
 42
0.0000001
 43
0.0000001
 44
0.0000000001
 40
0.0
 40
0.0
 40
0.0
 40
0.0
 40
0.421306923
 40
0.7258398591
 40
0.9163131845
 40
1.0
 40
1.0
 40
1.0
 40
1.0
 10
178.1468924855
 20
275.4135726174
 30
0.0
 10
178.1406681881
 20
275.4197297061
 30
0.0
 10
178.1302199695
 20
275.4304974225
 30
0.0
 10
178.1171706077
 20
275.4447209713
 30
0.0
 10
178.1104002406
 20
275.4541624957
 30
0.0
 10
178.1066335381
 20
275.4590960465
 30
0.0
 10
178.1066329819
 20
275.4608351247
 30
0.0
  0
SPLINE
  5
420
100
AcDbEntity
  8
0
100
AcDbSpline
 62
7
  6
CONTINUOUS
 70
0
 71
3
 72
9
 73
5
 74
0
 42
0.0000001
 43
0.0000001
 44
0.0000000001
 40
0.0
 40
0.0
 40
0.0
 40
0.0
 40
0.241697718
 40
1.0
 40
1.0
 40
1.0
 40
1.0
 10
178.2823708863
 20
275.2950182685
 30
0.0
 10
178.3095373536
 20
275.272840377
 30
0.0
 10
178.4228322551
 20
275.1822399124
 30
0.0
 10
178.5363181739
 20
275.0914382838
 30
0.0
 10
178.6167673214
 20
275.0163787024
 30
0.0
  0
SPLINE
  5
421
100
AcDbEntity
  8
0
100
AcDbSpline
 62
7
  6
CONTINUOUS
 70
0
 71
3
 72
15
 73
11
 74
0
 42
0.0000001
 43
0.0000001
 44
0.0000000001
 40
0.0
 40
0.0
 40
0.0
 40
0.0
 40
0.0995046455
 40
0.212999361
 40
0.3389100511
 40
0.4735833464
 40
0.6121882931
 40
0.7494180087
 40
0.8801227002
 40
1.0
 40
1.0
 40
1.0
 40
1.0
 10
172.5692454818
 20
273.6491142872
 30
0.0
 10
172.3200426964
 20
273.9651475864
 30
0.0
 10
171.6742124674
 20
274.5543779498
 30
0.0
 10
170.46918839
 20
275.2247891346
 30
0.0
 10
169.029382222
 20
275.7127163787
 30
0.0
 10
167.433338083
 20
275.9915246554
 30
0.0
 10
165.7686619982
 20
276.0468352615
 30
0.0
 10
164.1277222078
 20
275.875204569
 30
0.0
 10
162.6022935708
 20
275.4866697995
 30
0.0
 10
161.6685204271
 20
275.0747336227
 30
0.0
 10
161.2486122507
 20
274.8323009711
 30
0.0
  0
SPLINE
  5
422
100
AcDbEntity
  8
0
100
AcDbSpline
 62
7
  6
CONTINUOUS
 70
0
 71
3
 72
16
 73
12
 74
0
 42
0.0000001
 43
0.0000001
 44
0.0000000001
 40
0.0
 40
0.0
 40
0.0
 40
0.0
 40
0.1536320465
 40
0.3047291566
 40
0.4491693352
 40
0.5834178075
 40
0.7050574985
 40
0.8133586291
 40
0.9100073605
 40
0.9554705256
 40
1.0
 40
1.0
 40
1.0
 40
1.0
 10
166.9856870004
 20
266.6105775233
 30
0.0
 10
166.3657246512
 20
266.579140751
 30
0.0
 10
165.1310513824
 20
266.5903971477
 30
0.0
 10
163.3268636265
 20
266.823616666
 30
0.0
 10
161.6415352413
 20
267.2634832048
 30
0.0
 10
160.1443693377
 20
267.8923710643
 30
0.0
 10
158.8956331041
 20
268.6871423478
 30
0.0
 10
157.9458025236
 20
269.6200270302
 30
0.0
 10
157.4317576281
 20
270.5118106639
 30
0.0
 10
157.2314831565
 20
271.2423580153
 30
0.0
 10
157.1984036664
 20
271.606812177
 30
0.0
 10
157.1984039179
 20
271.7867360091
 30
0.0
  0
SPLINE
  5
423
100
AcDbEntity
  8
0
100
AcDbSpline
 62
7
  6
CONTINUOUS
 70
0
 71
3
 72
11
 73
7
 74
0
 42
0.0000001
 43
0.0000001
 44
0.0000000001
 40
0.0
 40
0.0
 40
0.0
 40
0.0
 40
0.2897586582
 40
0.5489877032
 40
0.7821799552
 40
1.0
 40
1.0
 40
1.0
 40
1.0
 10
161.2486122507
 20
274.8323009711
 30
0.0
 10
160.9413994354
 20
274.6549326283
 30
0.0
 10
160.3841153271
 20
274.2713347495
 30
0.0
 10
159.7183507947
 20
273.5712705064
 30
0.0
 10
159.2968294438
 20
272.7971688972
 30
0.0
 10
159.1983741533
 20
272.2412828087
 30
0.0
 10
159.1983823723
 20
271.9746156895
 30
0.0
  0
SPLINE
  5
424
100
AcDbEntity
  8
0
100
AcDbSpline
 62
7
  6
CONTINUOUS
 70
0
 71
3
 72
9
 73
5
 74
0
 42
0.0000001
 43
0.0000001
 44
0.0000000001
 40
0.0
 40
0.0
 40
0.0
 40
0.0
 40
0.2653239124
 40
1.0
 40
1.0
 40
1.0
 40
1.0
 10
174.8748271278
 20
270.9964820822
 30
0.0
 10
174.8910089566
 20
271.0044415311
 30
0.0
 10
174.9509768891
 20
271.0363885596
 30
0.0
 10
175.0068231994
 20
271.0766896077
 30
0.0
 10
175.0427579719
 20
271.1113610972
 30
0.0
  0
SPLINE
  5
425
100
AcDbEntity
  8
0
100
AcDbSpline
 62
7
  6
CONTINUOUS
 70
0
 71
3
 72
11
 73
7
 74
0
 42
0.0000001
 43
0.0000001
 44
0.0000000001
 40
0.0
 40
0.0
 40
0.0
 40
0.0
 40
0.2459562589
 40
0.511135017
 40
0.7702881333
 40
1.0
 40
1.0
 40
1.0
 40
1.0
 10
173.4736842413
 20
271.1200993245
 30
0.0
 10
173.5734924284
 20
271.0544295624
 30
0.0
 10
173.8028549718
 20
270.9507336255
 30
0.0
 10
174.1724566507
 20
270.8769346208
 30
0.0
 10
174.5413704565
 20
270.8835479324
 30
0.0
 10
174.7747002425
 20
270.9472320961
 30
0.0
 10
174.8748271278
 20
270.9964820811
 30
0.0
  0
SPLINE
  5
426
100
AcDbEntity
  8
0
100
AcDbSpline
 62
7
  6
CONTINUOUS
 70
0
 71
3
 72
9
 73
5
 74
0
 42
0.0000001
 43
0.0000001
 44
0.0000000001
 40
0.0
 40
0.0
 40
0.0
 40
0.0
 40
0.2649994319
 40
1.0
 40
1.0
 40
1.0
 40
1.0
 10
166.9856870004
 20
266.6105768956
 30
0.0
 10
167.0431905247
 20
266.6134927585
 30
0.0
 10
167.258972647
 20
266.6370512816
 30
0.0
 10
167.4722068099
 20
266.7112278712
 30
0.0
 10
167.6053182062
 20
266.7994563267
 30
0.0
  0
SPLINE
  5
427
100
AcDbEntity
  8
0
100
AcDbSpline
 62
7
  6
CONTINUOUS
 70
0
 71
3
 72
15
 73
11
 74
0
 42
0.0000001
 43
0.0000001
 44
0.0000000001
 40
0.0
 40
0.0
 40
0.0
 40
0.0
 40
0.084833671
 40
0.1868810825
 40
0.3088663966
 40
0.446855393
 40
0.593456928
 40
0.7399741184
 40
0.8778312558
 40
1.0
 40
1.0
 40
1.0
 40
1.0
 10
177.1039163396
 20
273.133697288
 30
0.0
 10
177.1039222891
 20
273.1902359842
 30
0.0
 10
177.0660168704
 20
273.3150184097
 30
0.0
 10
176.9300677249
 20
273.4739574989
 30
0.0
 10
176.7296607929
 20
273.6118045344
 30
0.0
 10
176.479419141
 20
273.7193790083
 30
0.0
 10
176.1994588358
 20
273.7888906025
 30
0.0
 10
175.9121906553
 20
273.8149051027
 30
0.0
 10
175.640775399
 20
273.7956674499
 30
0.0
 10
175.4716688189
 20
273.7501160044
 30
0.0
 10
175.3968060233
 20
273.7181007273
 30
0.0
  0
SPLINE
  5
428
100
AcDbEntity
  8
0
100
AcDbSpline
 62
7
  6
CONTINUOUS
 70
0
 71
3
 72
12
 73
8
 74
0
 42
0.0000001
 43
0.0000001
 44
0.0000000001
 40
0.0
 40
0.0
 40
0.0
 40
0.0
 40
0.1081619653
 40
0.2183630217
 40
0.4513680708
 40
0.7104088237
 40
1.0
 40
1.0
 40
1.0
 40
1.0
 10
157.1984039179
 20
271.7867360091
 30
0.0
 10
157.198404156
 20
271.9571161668
 30
0.0
 10
157.2279993118
 20
272.3018049044
 30
0.0
 10
157.4070794915
 20
272.9928267554
 30
0.0
 10
157.8667222381
 20
273.8401042032
 30
0.0
 10
158.7227614966
 20
274.7393171697
 30
0.0
 10
159.4393346275
 20
275.2328172188
 30
0.0
 10
159.8343928004
 20
275.4609027998
 30
0.0
  0
SPLINE
  5
429
100
AcDbEntity
  8
0
100
AcDbSpline
 62
7
  6
CONTINUOUS
 70
0
 71
3
 72
16
 73
12
 74
0
 42
0.0000001
 43
0.0000001
 44
0.0000000001
 40
0.0
 40
0.0
 40
0.0
 40
0.0
 40
0.044507546
 40
0.0899530175
 40
0.1865787718
 40
0.2948713983
 40
0.4165149696
 40
0.5507761655
 40
0.6952321497
 40
0.8463471332
 40
1.0
 40
1.0
 40
1.0
 40
1.0
 10
159.1983823723
 20
271.9746156895
 30
0.0
 10
159.1983866833
 20
271.8347438245
 30
0.0
 10
159.2241068528
 20
271.5514071718
 30
0.0
 10
159.3797379244
 20
270.9833736488
 30
0.0
 10
159.7793676833
 20
270.2898383577
 30
0.0
 10
160.5179639076
 20
269.5642197934
 30
0.0
 10
161.489160964
 20
268.9459451881
 30
0.0
 10
162.6536837579
 20
268.4566836568
 30
0.0
 10
163.9646233464
 20
268.1144729251
 30
0.0
 10
165.3680474878
 20
267.9330210443
 30
0.0
 10
166.3284714091
 20
267.9242644327
 30
0.0
 10
166.8107299618
 20
267.948714645
 30
0.0
  0
SPLINE
  5
42A
100
AcDbEntity
  8
0
100
AcDbSpline
 62
7
  6
CONTINUOUS
 70
0
 71
3
 72
11
 73
7
 74
0
 42
0.0000001
 43
0.0000001
 44
0.0000000001
 40
0.0
 40
0.0
 40
0.0
 40
0.0
 40
0.1531881328
 40
0.3222048546
 40
0.6029758077
 40
1.0
 40
1.0
 40
1.0
 40
1.0
 10
153.374336974
 20
274.5793640253
 30
0.0
 10
153.3743368008
 20
274.5820151048
 30
0.0
 10
153.3720082611
 20
274.5886753826
 30
0.0
 10
153.3597821322
 20
274.5871669185
 30
0.0
 10
153.3474113213
 20
274.580381948
 30
0.0
 10
153.3377554697
 20
274.5733181298
 30
0.0
 10
153.3324539009
 20
274.5689474496
 30
0.0
  0
SPLINE
  5
42B
100
AcDbEntity
  8
0
100
AcDbSpline
 62
7
  6
CONTINUOUS
 70
0
 71
3
 72
9
 73
5
 74
0
 42
0.0000001
 43
0.0000001
 44
0.0000000001
 40
0.0
 40
0.0
 40
0.0
 40
0.0
 40
0.2253141304
 40
1.0
 40
1.0
 40
1.0
 40
1.0
 10
153.3324539009
 20
274.5689474496
 30
0.0
 10
153.3302004121
 20
274.5670896451
 30
0.0
 10
153.3203744922
 20
274.5586313847
 30
0.0
 10
153.3111787448
 20
274.549459952
 30
0.0
 10
153.3043136051
 20
274.5421316826
 30
0.0
  0
SPLINE
  5
42C
100
AcDbEntity
  8
0
100
AcDbSpline
 62
7
  6
CONTINUOUS
 70
0
 71
3
 72
15
 73
11
 74
0
 42
0.0000001
 43
0.0000001
 44
0.0000000001
 40
0.0
 40
0.0
 40
0.0
 40
0.0
 40
0.0966935576
 40
0.1985844121
 40
0.3084253487
 40
0.4278292668
 40
0.5573456351
 40
0.6966354653
 40
0.8447034793
 40
1.0
 40
1.0
 40
1.0
 40
1.0
 10
152.7195899478
 20
254.1882007868
 30
0.0
 10
152.7567446034
 20
253.8055294084
 30
0.0
 10
152.9351741795
 20
253.0266452496
 30
0.0
 10
153.4857107654
 20
251.9202495471
 30
0.0
 10
154.3047263364
 20
250.8792150426
 30
0.0
 10
155.3714207131
 20
249.9231445509
 30
0.0
 10
156.6626550602
 20
249.0688407129
 30
0.0
 10
158.1517917977
 20
248.3322681513
 30
0.0
 10
159.8080854542
 20
247.7279806443
 30
0.0
 10
160.9783739678
 20
247.4271900574
 30
0.0
 10
161.5826728704
 20
247.300254244
 30
0.0
  0
SPLINE
  5
42D
100
AcDbEntity
  8
0
100
AcDbSpline
 62
7
  6
CONTINUOUS
 70
0
 71
3
 72
12
 73
8
 74
0
 42
0.0000001
 43
0.0000001
 44
0.0000000001
 40
0.0
 40
0.0
 40
0.0
 40
0.0
 40
0.1925956413
 40
0.3752685893
 40
0.4985201842
 40
0.6449779594
 40
1.0
 40
1.0
 40
1.0
 40
1.0
 10
152.3094767637
 20
272.9942966121
 30
0.0
 10
152.3094766567
 20
273.005410758
 30
0.0
 10
152.3027470793
 20
273.0310164093
 30
0.0
 10
152.2692112124
 20
273.0337300219
 30
0.0
 10
152.2447555439
 20
273.0258214351
 30
0.0
 10
152.2122209091
 20
273.0096051689
 30
0.0
 10
152.1892261191
 20
272.9917041427
 30
0.0
 10
152.1738635835
 20
272.9781497192
 30
0.0
  0
SPLINE
  5
42E
100
AcDbEntity
  8
0
100
AcDbSpline
 62
7
  6
CONTINUOUS
 70
0
 71
3
 72
9
 73
5
 74
0
 42
0.0000001
 43
0.0000001
 44
0.0000000001
 40
0.0
 40
0.0
 40
0.0
 40
0.0
 40
0.4644409725
 40
1.0
 40
1.0
 40
1.0
 40
1.0
 10
152.1738635835
 20
272.9781497192
 30
0.0
 10
152.1439179292
 20
272.9517285548
 30
0.0
 10
152.0868880627
 20
272.8864570672
 30
0.0
 10
152.0411758149
 20
272.8133063552
 30
0.0
 10
152.0193954372
 20
272.7727323817
 30
0.0
  0
SPLINE
  5
42F
100
AcDbEntity
  8
0
100
AcDbSpline
 62
7
  6
CONTINUOUS
 70
0
 71
3
 72
10
 73
6
 74
0
 42
0.0000001
 43
0.0000001
 44
0.0000000001
 40
0.0
 40
0.0
 40
0.0
 40
0.0
 40
0.2523328515
 40
0.6225483655
 40
1.0
 40
1.0
 40
1.0
 40
1.0
 10
171.9819784314
 20
273.6343405033
 30
0.0
 10
171.9976592041
 20
273.6250459555
 30
0.0
 10
172.0352122172
 20
273.6002217888
 30
0.0
 10
172.0995754801
 20
273.5671709512
 30
0.0
 10
172.1447936242
 20
273.5375405114
 30
0.0
 10
172.168206293
 20
273.5235643413
 30
0.0
  0
SPLINE
  5
430
100
AcDbEntity
  8
0
100
AcDbSpline
 62
7
  6
CONTINUOUS
 70
0
 71
3
 72
11
 73
7
 74
0
 42
0.0000001
 43
0.0000001
 44
0.0000000001
 40
0.0
 40
0.0
 40
0.0
 40
0.0
 40
0.2312729348
 40
0.4921250458
 40
0.7573053375
 40
1.0
 40
1.0
 40
1.0
 40
1.0
 10
170.5808355449
 20
273.7107152424
 30
0.0
 10
170.6809976324
 20
273.7601482385
 30
0.0
 10
170.9131803423
 20
273.8267143991
 30
0.0
 10
171.2809089331
 20
273.8440440992
 30
0.0
 10
171.650004612
 20
273.7855726945
 30
0.0
 10
171.8811477531
 20
273.694106407
 30
0.0
 10
171.9819784314
 20
273.6343405033
 30
0.0
  0
SPLINE
  5
431
100
AcDbEntity
  8
0
100
AcDbSpline
 62
7
  6
CONTINUOUS
 70
0
 71
3
 72
16
 73
12
 74
0
 42
0.0000001
 43
0.0000001
 44
0.0000000001
 40
0.0
 40
0.0
 40
0.0
 40
0.0
 40
0.1212839876
 40
0.2537899192
 40
0.3927637119
 40
0.5325566811
 40
0.6674058474
 40
0.7921933268
 40
0.8496850374
 40
0.9035004393
 40
1.0
 40
1.0
 40
1.0
 40
1.0
 10
159.8343928004
 20
275.4609027998
 30
0.0
 10
160.3963512632
 20
275.7853477329
 30
0.0
 10
161.6502868295
 20
276.3321425689
 30
0.0
 10
163.6990285421
 20
276.8336646215
 30
0.0
 10
165.8982990371
 20
277.0331634764
 30
0.0
 10
168.1158885884
 20
276.9179447375
 30
0.0
 10
170.2187010856
 20
276.4949064788
 30
0.0
 10
171.8150511742
 20
275.8902771693
 30
0.0
 10
172.9158805609
 20
275.265028985
 30
0.0
 10
173.8143165009
 20
274.6089434855
 30
0.0
 10
174.373712911
 20
274.0086257402
 30
0.0
 10
174.6501348391
 20
273.5725665445
 30
0.0
  0
SPLINE
  5
432
100
AcDbEntity
  8
0
100
AcDbSpline
 62
7
  6
CONTINUOUS
 70
0
 71
3
 72
15
 73
11
 74
0
 42
0.0000001
 43
0.0000001
 44
0.0000000001
 40
0.0
 40
0.0
 40
0.0
 40
0.0
 40
0.1519102254
 40
0.2932268646
 40
0.4243161441
 40
0.5464109401
 40
0.6617076319
 40
0.7732987859
 40
0.8848411595
 40
1.0
 40
1.0
 40
1.0
 40
1.0
 10
175.6611722226
 20
265.7436996097
 30
0.0
 10
176.0592457066
 20
265.973526071
 30
0.0
 10
176.8045224966
 20
266.4595428241
 30
0.0
 10
177.7837785349
 20
267.2960371659
 30
0.0
 10
178.5688267026
 20
268.2021882332
 30
0.0
 10
179.1446955206
 20
269.1645314515
 30
0.0
 10
179.4984008184
 20
270.1678492868
 30
0.0
 10
179.619696542
 20
271.1936369761
 30
0.0
 10
179.5046057838
 20
272.2193374371
 30
0.0
 10
179.2781235625
 20
272.8731732161
 30
0.0
 10
179.1325310456
 20
273.1897505601
 30
0.0
  0
SPLINE
  5
433
100
AcDbEntity
  8
0
100
AcDbSpline
 62
7
  6
CONTINUOUS
 70
0
 71
3
 72
9
 73
5
 74
0
 42
0.0000001
 43
0.0000001
 44
0.0000000001
 40
0.0
 40
0.0
 40
0.0
 40
0.0
 40
0.2411669346
 40
1.0
 40
1.0
 40
1.0
 40
1.0
 10
179.1325310456
 20
273.1897505601
 30
0.0
 10
179.0771453534
 20
273.3101815802
 30
0.0
 10
178.8290567122
 20
273.8010203931
 30
0.0
 10
178.5106541549
 20
274.2550170859
 30
0.0
 10
178.2426080023
 20
274.574571331
 30
0.0
  0
SPLINE
  5
434
100
AcDbEntity
  8
0
100
AcDbSpline
 62
7
  6
CONTINUOUS
 70
0
 71
3
 72
9
 73
5
 74
0
 42
0.0000001
 43
0.0000001
 44
0.0000000001
 40
0.0
 40
0.0
 40
0.0
 40
0.0
 40
0.2374740337
 40
1.0
 40
1.0
 40
1.0
 40
1.0
 10
178.2426080023
 20
274.574571331
 30
0.0
 10
178.1236765926
 20
274.7163567529
 30
0.0
 10
177.5999341668
 20
275.2941302122
 30
0.0
 10
176.993665719
 20
275.7942830238
 30
0.0
 10
176.5062382279
 20
276.1341712931
 30
0.0
  0
SPLINE
  5
435
100
AcDbEntity
  8
0
100
AcDbSpline
 62
7
  6
CONTINUOUS
 70
0
 71
3
 72
9
 73
5
 74
0
 42
0.0000001
 43
0.0000001
 44
0.0000000001
 40
0.0
 40
0.0
 40
0.0
 40
0.0
 40
0.2378473071
 40
1.0
 40
1.0
 40
1.0
 40
1.0
 10
176.5062382279
 20
276.1341712931
 30
0.0
 10
176.3089139351
 20
276.271767579
 30
0.0
 10
175.460163938
 20
276.8227457013
 30
0.0
 10
174.5445268303
 20
277.2672931273
 30
0.0
 10
173.8289941462
 20
277.5540341643
 30
0.0
  0
SPLINE
  5
436
100
AcDbEntity
  8
0
100
AcDbSpline
 62
7
  6
CONTINUOUS
 70
0
 71
3
 72
15
 73
11
 74
0
 42
0.0000001
 43
0.0000001
 44
0.0000000001
 40
0.0
 40
0.0
 40
0.0
 40
0.0
 40
0.1206142665
 40
0.2474138977
 40
0.3780752655
 40
0.5100269742
 40
0.6406176456
 40
0.7672805981
 40
0.8877004104
 40
1.0
 40
1.0
 40
1.0
 40
1.0
 10
173.8289941462
 20
277.5540341643
 30
0.0
 10
173.1711726113
 20
277.8176481589
 30
0.0
 10
171.7852597728
 20
278.270043214
 30
0.0
 10
169.6055018985
 20
278.7183736208
 30
0.0
 10
167.3246312019
 20
278.9444196799
 30
0.0
 10
165.0105257187
 20
278.9413379752
 30
0.0
 10
162.7315887106
 20
278.709295155
 30
0.0
 10
160.555012573
 20
278.2550318606
 30
0.0
 10
158.545382083
 20
277.5920933162
 30
0.0
 10
157.3070123605
 20
277.0000531077
 30
0.0
 10
156.7355884308
 20
276.6701433173
 30
0.0
  0
SPLINE
  5
437
100
AcDbEntity
  8
0
100
AcDbSpline
 62
7
  6
CONTINUOUS
 70
0
 71
3
 72
13
 73
9
 74
0
 42
0.0000001
 43
0.0000001
 44
0.0000000001
 40
0.0
 40
0.0
 40
0.0
 40
0.0
 40
0.2916860304
 40
0.5626754493
 40
0.6849480431
 40
0.7972656932
 40
0.9011453288
 40
1.0
 40
1.0
 40
1.0
 40
1.0
 10
166.8107299618
 20
267.948714645
 30
0.0
 10
166.9477619764
 20
267.9556620839
 30
0.0
 10
167.2151222351
 20
267.9328981815
 30
0.0
 10
167.5213941763
 20
267.814685334
 30
0.0
 10
167.7125032059
 20
267.6706765409
 30
0.0
 10
167.8171875593
 20
267.5487368019
 30
0.0
 10
167.882966384
 20
267.4139341056
 30
0.0
 10
167.8982160342
 20
267.3180067076
 30
0.0
 10
167.8982032297
 20
267.271505842
 30
0.0
  0
SPLINE
  5
438
100
AcDbEntity
  8
0
100
AcDbSpline
 62
7
  6
CONTINUOUS
 70
0
 71
3
 72
11
 73
7
 74
0
 42
0.0000001
 43
0.0000001
 44
0.0000000001
 40
0.0
 40
0.0
 40
0.0
 40
0.0
 40
0.2376147161
 40
0.4805003367
 40
0.7333721746
 40
1.0
 40
1.0
 40
1.0
 40
1.0
 10
151.9483803268
 20
245.4798302879
 30
0.0
 10
151.948379814
 20
245.1864973145
 30
0.0
 10
152.0039835387
 20
244.5919339415
 30
0.0
 10
152.2516237597
 20
243.7164129791
 30
0.0
 10
152.6593108652
 20
242.8636190409
 30
0.0
 10
153.023268916
 20
242.3323804451
 30
0.0
 10
153.2269413472
 20
242.073813539
 30
0.0
  0
SPLINE
  5
439
100
AcDbEntity
  8
0
100
AcDbSpline
 62
7
  6
CONTINUOUS
 70
0
 71
3
 72
9
 73
5
 74
0
 42
0.0000001
 43
0.0000001
 44
0.0000000001
 40
0.0
 40
0.0
 40
0.0
 40
0.0
 40
0.4926671585
 40
1.0
 40
1.0
 40
1.0
 40
1.0
 10
160.2990099387
 20
237.9908452031
 30
0.0
 10
161.4221821367
 20
237.6959536145
 30
0.0
 10
163.7544626582
 20
237.2876619468
 30
0.0
 10
166.1197340861
 20
237.2238095744
 30
0.0
 10
167.3143132567
 20
237.277986167
 30
0.0
  0
SPLINE
  5
43A
100
AcDbEntity
  8
0
100
AcDbSpline
 62
7
  6
CONTINUOUS
 70
0
 71
3
 72
12
 73
8
 74
0
 42
0.0000001
 43
0.0000001
 44
0.0000000001
 40
0.0
 40
0.0
 40
0.0
 40
0.0
 40
0.2806132755
 40
0.4129658467
 40
0.5398719131
 40
0.7785647825
 40
1.0
 40
1.0
 40
1.0
 40
1.0
 10
156.7355884308
 20
276.6701433173
 30
0.0
 10
156.3002188965
 20
276.4187840999
 30
0.0
 10
155.6803434861
 20
276.0096454608
 30
0.0
 10
154.9348867339
 20
275.3921094705
 30
0.0
 10
154.2955886151
 20
274.7688436846
 30
0.0
 10
153.633496377
 20
273.9442599949
 30
0.0
 10
153.2541530304
 20
273.2038530322
 30
0.0
 10
153.115575339
 20
272.832141702
 30
0.0
  0
SPLINE
  5
43B
100
AcDbEntity
  8
0
100
AcDbSpline
 62
7
  6
CONTINUOUS
 70
0
 71
3
 72
23
 73
19
 74
0
 42
0.0000001
 43
0.0000001
 44
0.0000000001
 40
0.0
 40
0.0
 40
0.0
 40
0.0
 40
0.0444316416
 40
0.088166798
 40
0.1333973725
 40
0.1819759995
 40
0.235106651
 40
0.2933090511
 40
0.356524948
 40
0.4242514076
 40
0.4956591167
 40
0.5696897377
 40
0.6451374887
 40
0.720721359
 40
0.795153231
 40
0.867205554
 40
0.9357827791
 40
1.0
 40
1.0
 40
1.0
 40
1.0
 10
153.1129330136
 20
272.8250379643
 30
0.0
 10
152.9668986261
 20
272.4315368195
 30
0.0
 10
152.7746379178
 20
271.6088224658
 30
0.0
 10
152.8419535884
 20
270.3342229897
 30
0.0
 10
153.2669147942
 20
269.0903567582
 30
0.0
 10
154.0273844999
 20
267.9152453033
 30
0.0
 10
155.095470728
 20
266.834706333
 30
0.0
 10
156.4414693245
 20
265.8709671727
 30
0.0
 10
158.0315569561
 20
265.044853723
 30
0.0
 10
159.8264728956
 20
264.3754439667
 30
0.0
 10
161.781643242
 20
263.8788844975
 30
0.0
 10
163.8481317724
 20
263.5674580382
 30
0.0
 10
165.973930052
 20
263.4489648088
 30
0.0
 10
168.105404975
 20
263.5263964772
 30
0.0
 10
170.1887164652
 20
263.797779956
 30
0.0
 10
172.1715299457
 20
264.2563813332
 30
0.0
 10
174.0036675117
 20
264.8905556174
 30
0.0
 10
175.1358141496
 20
265.4403857954
 30
0.0
 10
175.6611722226
 20
265.7436996097
 30
0.0
  0
SPLINE
  5
43C
100
AcDbEntity
  8
0
100
AcDbSpline
 62
7
  6
CONTINUOUS
 70
0
 71
3
 72
11
 73
7
 74
0
 42
0.0000001
 43
0.0000001
 44
0.0000000001
 40
0.0
 40
0.0
 40
0.0
 40
0.0
 40
0.2118216167
 40
0.4775229436
 40
0.7557955896
 40
1.0
 40
1.0
 40
1.0
 40
1.0
 10
174.6501348391
 20
273.160873702
 30
0.0
 10
174.6669855613
 20
273.1342914679
 30
0.0
 10
174.725649195
 20
273.0887381186
 30
0.0
 10
174.8324293847
 20
273.0514763376
 30
0.0
 10
174.950148827
 20
273.0408202325
 30
0.0
 10
175.028430774
 20
273.0549434551
 30
0.0
 10
175.061683229
 20
273.0694643657
 30
0.0
  0
SPLINE
  5
43D
100
AcDbEntity
  8
0
100
AcDbSpline
 62
7
  6
CONTINUOUS
 70
0
 71
3
 72
11
 73
7
 74
0
 42
0.0000001
 43
0.0000001
 44
0.0000000001
 40
0.0
 40
0.0
 40
0.0
 40
0.0
 40
0.2442557474
 40
0.5225227368
 40
0.7881973474
 40
1.0
 40
1.0
 40
1.0
 40
1.0
 10
175.061683229
 20
273.4814351264
 30
0.0
 10
175.0284385093
 20
273.4668833289
 30
0.0
 10
174.9501656669
 20
273.4526934226
 30
0.0
 10
174.8324429184
 20
273.4632619996
 30
0.0
 10
174.7256493086
 20
273.5004490005
 30
0.0
 10
174.6669829651
 20
273.5459884059
 30
0.0
 10
174.6501348391
 20
273.5725665445
 30
0.0
  0
SPLINE
  5
43E
100
AcDbEntity
  8
0
100
AcDbSpline
 62
7
  6
CONTINUOUS
 70
0
 71
3
 72
9
 73
5
 74
0
 42
0.0000001
 43
0.0000001
 44
0.0000000001
 40
0.0
 40
0.0
 40
0.0
 40
0.0
 40
0.2333731888
 40
1.0
 40
1.0
 40
1.0
 40
1.0
 10
175.10366594
 20
273.5072641728
 30
0.0
 10
175.1007723541
 20
273.5047357918
 30
0.0
 10
175.0878641657
 20
273.494484636
 30
0.0
 10
175.0732468333
 20
273.4865106422
 30
0.0
 10
175.061683229
 20
273.4814490496
 30
0.0
  0
SPLINE
  5
43F
100
AcDbEntity
  8
0
100
AcDbSpline
 62
7
  6
CONTINUOUS
 70
0
 71
3
 72
9
 73
5
 74
0
 42
0.0000001
 43
0.0000001
 44
0.0000000001
 40
0.0
 40
0.0
 40
0.0
 40
0.0
 40
0.267572028
 40
1.0
 40
1.0
 40
1.0
 40
1.0
 10
175.061683229
 20
273.0694746808
 30
0.0
 10
175.0657178564
 20
273.0712365496
 30
0.0
 10
175.0805787324
 20
273.0782831171
 30
0.0
 10
175.0945854884
 20
273.0873184216
 30
0.0
 10
175.10366594
 20
273.0952415064
 30
0.0
  0
SPLINE
  5
440
100
AcDbEntity
  8
0
100
AcDbSpline
 62
7
  6
CONTINUOUS
 70
0
 71
3
 72
9
 73
5
 74
0
 42
0.0000001
 43
0.0000001
 44
0.0000000001
 40
0.0
 40
0.0
 40
0.0
 40
0.0
 40
0.2335017824
 40
1.0
 40
1.0
 40
1.0
 40
1.0
 10
175.2288751792
 20
273.20409102
 30
0.0
 10
175.2404506677
 20
273.2141169852
 30
0.0
 10
175.2920697051
 20
273.254692875
 30
0.0
 10
175.3505674749
 20
273.2859968737
 30
0.0
 10
175.3968060233
 20
273.3057201022
 30
0.0
  0
SPLINE
  5
441
100
AcDbEntity
  8
0
100
AcDbSpline
 62
7
  6
CONTINUOUS
 70
0
 71
3
 72
9
 73
5
 74
0
 42
0.0000001
 43
0.0000001
 44
0.0000000001
 40
0.0
 40
0.0
 40
0.0
 40
0.0
 40
0.2674663324
 40
1.0
 40
1.0
 40
1.0
 40
1.0
 10
175.3968060233
 20
273.7181007276
 30
0.0
 10
175.3806726556
 20
273.7112012493
 30
0.0
 10
175.321219253
 20
273.6835331664
 30
0.0
 10
175.2651774771
 20
273.6477622709
 30
0.0
 10
175.2288751792
 20
273.6162725605
 30
0.0
  0
SPLINE
  5
442
100
AcDbEntity
  8
0
100
AcDbSpline
 62
7
  6
CONTINUOUS
 70
0
 71
3
 72
12
 73
8
 74
0
 42
0.0000001
 43
0.0000001
 44
0.0000000001
 40
0.0
 40
0.0
 40
0.0
 40
0.0
 40
0.2510012744
 40
0.3546890783
 40
0.4585995648
 40
0.6986303878
 40
1.0
 40
1.0
 40
1.0
 40
1.0
 10
151.8263543554
 20
271.2979320327
 30
0.0
 10
151.8263522662
 20
271.3173405413
 30
0.0
 10
151.8214419576
 20
271.3467750389
 30
0.0
 10
151.7959604181
 20
271.3728486191
 30
0.0
 10
151.763084479
 20
271.3861345059
 30
0.0
 10
151.7111972712
 20
271.3798741269
 30
0.0
 10
151.67344353
 20
271.3611792345
 30
0.0
 10
151.6535732345
 20
271.3490050473
 30
0.0
  0
SPLINE
  5
443
100
AcDbEntity
  8
0
100
AcDbSpline
 62
7
  6
CONTINUOUS
 70
0
 71
3
 72
10
 73
6
 74
0
 42
0.0000001
 43
0.0000001
 44
0.0000000001
 40
0.0
 40
0.0
 40
0.0
 40
0.0
 40
0.2165585438
 40
0.4656776752
 40
1.0
 40
1.0
 40
1.0
 40
1.0
 10
151.6535732345
 20
271.3490050473
 30
0.0
 10
151.6073666369
 20
271.3206950623
 30
0.0
 10
151.5212272051
 20
271.2388606255
 30
0.0
 10
151.3816870427
 20
271.0302680271
 30
0.0
 10
151.3181733995
 20
270.8396063455
 30
0.0
 10
151.2950155427
 20
270.7079234385
 30
0.0
  0
SPLINE
  5
444
100
AcDbEntity
  8
0
100
AcDbSpline
 62
7
  6
CONTINUOUS
 70
0
 71
3
 72
11
 73
7
 74
0
 42
0.0000001
 43
0.0000001
 44
0.0000000001
 40
0.0
 40
0.0
 40
0.0
 40
0.0
 40
0.2314917284
 40
0.4968059127
 40
0.7640645266
 40
1.0
 40
1.0
 40
1.0
 40
1.0
 10
175.3968060233
 20
273.3057201051
 30
0.0
 10
175.5097171989
 20
273.3538827958
 30
0.0
 10
175.7731738189
 20
273.4066951814
 30
0.0
 10
176.1807118262
 20
273.3867676348
 30
0.0
 10
176.5767748183
 20
273.2792297504
 30
0.0
 10
176.8143197168
 20
273.1468404438
 30
0.0
 10
176.9093133313
 20
273.0654226268
 30
0.0
  0
SPLINE
  5
445
100
AcDbEntity
  8
0
100
AcDbSpline
 62
7
  6
CONTINUOUS
 70
0
 71
3
 72
9
 73
5
 74
0
 42
0.0000001
 43
0.0000001
 44
0.0000000001
 40
0.0
 40
0.0
 40
0.0
 40
0.0
 40
0.2620771151
 40
1.0
 40
1.0
 40
1.0
 40
1.0
 10
176.9475569554
 20
273.0305316938
 30
0.0
 10
176.9560686966
 20
273.0222482863
 30
0.0
 10
176.9878063124
 20
272.9899035533
 30
0.0
 10
177.0164949802
 20
272.9544615661
 30
0.0
 10
177.0349942348
 20
272.9266023151
 30
0.0
  0
SPLINE
  5
446
100
AcDbEntity
  8
0
100
AcDbSpline
 62
7
  6
CONTINUOUS
 70
0
 71
3
 72
9
 73
5
 74
0
 42
0.0000001
 43
0.0000001
 44
0.0000000001
 40
0.0
 40
0.0
 40
0.0
 40
0.0
 40
0.5230989982
 40
1.0
 40
1.0
 40
1.0
 40
1.0
 10
178.1066329819
 20
275.4608351247
 30
0.0
 10
178.1066326615
 20
275.4618368437
 30
0.0
 10
178.1101224331
 20
275.4601540102
 30
0.0
 10
178.1110602972
 20
275.4591953555
 30
0.0
 10
178.1117650707
 20
275.458614561
 30
0.0
  0
SPLINE
  5
447
100
AcDbEntity
  8
0
100
AcDbSpline
 62
7
  6
CONTINUOUS
 70
0
 71
3
 72
9
 73
5
 74
0
 42
0.0000001
 43
0.0000001
 44
0.0000000001
 40
0.0
 40
0.0
 40
0.0
 40
0.0
 40
0.2349733396
 40
1.0
 40
1.0
 40
1.0
 40
1.0
 10
179.4287541656
 20
254.2721474788
 30
0.0
 10
179.2514765892
 20
254.0805634162
 30
0.0
 10
178.4602165983
 20
253.2993238914
 30
0.0
 10
177.5410030759
 20
252.6541307296
 30
0.0
 10
176.8050262039
 20
252.2292168208
 30
0.0
  0
SPLINE
  5
448
100
AcDbEntity
  8
0
100
AcDbSpline
 62
7
  6
CONTINUOUS
 70
0
 71
3
 72
11
 73
7
 74
0
 42
0.0000001
 43
0.0000001
 44
0.0000000001
 40
0.0
 40
0.0
 40
0.0
 40
0.0
 40
0.2277081168
 40
0.4756920265
 40
0.7362162593
 40
1.0
 40
1.0
 40
1.0
 40
1.0
 10
176.8050262039
 20
252.2292168208
 30
0.0
 10
175.9276195448
 20
251.7226488738
 30
0.0
 10
173.9805173945
 20
250.8576195894
 30
0.0
 10
170.7999496229
 20
250.0280609798
 30
0.0
 10
167.3750101998
 20
249.6406905559
 30
0.0
 10
165.0344056572
 20
249.6918292449
 30
0.0
 10
163.8655724663
 20
249.79806865
 30
0.0
  0
SPLINE
  5
449
100
AcDbEntity
  8
0
100
AcDbSpline
 62
7
  6
CONTINUOUS
 70
0
 71
3
 72
12
 73
8
 74
0
 42
0.0000001
 43
0.0000001
 44
0.0000000001
 40
0.0
 40
0.0
 40
0.0
 40
0.0
 40
0.2807949626
 40
0.5453512914
 40
0.6692508774
 40
0.7865809107
 40
1.0
 40
1.0
 40
1.0
 40
1.0
 10
163.8286930494
 20
249.8014479707
 30
0.0
 10
162.7124865461
 20
249.9045519133
 30
0.0
 10
160.5547961936
 20
250.2480059036
 30
0.0
 10
157.9931723978
 20
251.0469691032
 30
0.0
 10
156.1568070479
 20
251.8938699574
 30
0.0
 10
154.5868670645
 20
252.8064410696
 30
0.0
 10
153.5466797708
 20
253.6468234817
 30
0.0
 10
152.9680147839
 20
254.2721474563
 30
0.0
  0
SPLINE
  5
44A
100
AcDbEntity
  8
0
100
AcDbSpline
 62
7
  6
CONTINUOUS
 70
0
 71
3
 72
11
 73
7
 74
0
 42
0.0000001
 43
0.0000001
 44
0.0000000001
 40
0.0
 40
0.0
 40
0.0
 40
0.0
 40
0.2922515342
 40
0.5510949027
 40
0.7823742721
 40
1.0
 40
1.0
 40
1.0
 40
1.0
 10
170.5808355449
 20
273.7107152423
 30
0.0
 10
170.537255551
 20
273.6892072075
 30
0.0
 10
170.4580779606
 20
273.6417988712
 30
0.0
 10
170.3625195425
 20
273.5515967269
 30
0.0
 10
170.3018492288
 20
273.4485330139
 30
0.0
 10
170.2879498305
 20
273.3732600327
 30
0.0
 10
170.2879456129
 20
273.3370710775
 30
0.0
  0
SPLINE
  5
44B
100
AcDbEntity
  8
0
100
AcDbSpline
 62
7
  6
CONTINUOUS
 70
0
 71
3
 72
11
 73
7
 74
0
 42
0.0000001
 43
0.0000001
 44
0.0000000001
 40
0.0
 40
0.0
 40
0.0
 40
0.0
 40
0.2313147238
 40
0.4921938691
 40
0.7573277864
 40
1.0
 40
1.0
 40
1.0
 40
1.0
 10
170.5808355449
 20
273.301324838
 30
0.0
 10
170.6810400891
 20
273.3507180263
 30
0.0
 10
170.9132924237
 20
273.4171745915
 30
0.0
 10
171.2810425521
 20
273.4342863299
 30
0.0
 10
171.650087876
 20
273.3756497405
 30
0.0
 10
171.8811684294
 20
273.2841267261
 30
0.0
 10
171.9819784314
 20
273.2243466194
 30
0.0
  0
SPLINE
  5
44C
100
AcDbEntity
  8
0
100
AcDbSpline
 62
7
  6
CONTINUOUS
 70
0
 71
3
 72
9
 73
5
 74
0
 42
0.0000001
 43
0.0000001
 44
0.0000000001
 40
0.0
 40
0.0
 40
0.0
 40
0.0
 40
0.5095199028
 40
1.0
 40
1.0
 40
1.0
 40
1.0
 10
172.168206293
 20
273.113518727
 30
0.0
 10
172.2206409269
 20
273.0822025538
 30
0.0
 10
172.3408148239
 20
273.0521371416
 30
0.0
 10
172.4653205057
 20
273.0647807976
 30
0.0
 10
172.5184920147
 20
273.0898670401
 30
0.0
  0
SPLINE
  5
44D
100
AcDbEntity
  8
0
100
AcDbSpline
 62
7
  6
CONTINUOUS
 70
0
 71
3
 72
9
 73
5
 74
0
 42
0.0000001
 43
0.0000001
 44
0.0000000001
 40
0.0
 40
0.0
 40
0.0
 40
0.0
 40
0.4905447729
 40
1.0
 40
1.0
 40
1.0
 40
1.0
 10
172.5184920147
 20
273.5000963781
 30
0.0
 10
172.4653292475
 20
273.4749750128
 30
0.0
 10
172.3408330218
 20
273.4622467377
 30
0.0
 10
172.2206404462
 20
273.492263824
 30
0.0
 10
172.168206293
 20
273.5235643413
 30
0.0
  0
SPLINE
  5
44E
100
AcDbEntity
  8
0
100
AcDbSpline
 62
7
  6
CONTINUOUS
 70
0
 71
3
 72
9
 73
5
 74
0
 42
0.0000001
 43
0.0000001
 44
0.0000000001
 40
0.0
 40
0.0
 40
0.0
 40
0.0
 40
0.5544205651
 40
1.0
 40
1.0
 40
1.0
 40
1.0
 10
172.5184920147
 20
273.0898627275
 30
0.0
 10
172.5388222817
 20
273.0994545186
 30
0.0
 10
172.5743613952
 20
273.122017968
 30
0.0
 10
172.5917481978
 20
273.1627148921
 30
0.0
 10
172.5917192628
 20
273.1807812016
 30
0.0
  0
SPLINE
  5
44F
100
AcDbEntity
  8
0
100
AcDbSpline
 62
7
  6
CONTINUOUS
 70
0
 71
3
 72
16
 73
12
 74
0
 42
0.0000001
 43
0.0000001
 44
0.0000000001
 40
0.0
 40
0.0
 40
0.0
 40
0.0
 40
0.0964597709
 40
0.1502487305
 40
0.2077115721
 40
0.3324422587
 40
0.4672543771
 40
0.6070495326
 40
0.7460666708
 40
0.8786412246
 40
1.0
 40
1.0
 40
1.0
 40
1.0
 10
174.6501348391
 20
273.160873702
 30
0.0
 10
174.3738268947
 20
273.5967530869
 30
0.0
 10
173.8147305393
 20
274.196841714
 30
0.0
 10
172.9167852631
 20
274.8527360925
 30
0.0
 10
171.8165767004
 20
275.4778570459
 30
0.0
 10
170.2209555353
 20
276.0825350123
 30
0.0
 10
168.1187105995
 20
276.5059001953
 30
0.0
 10
165.9010957147
 20
276.6215196364
 30
0.0
 10
163.7011753046
 20
276.4223720481
 30
0.0
 10
161.6513882956
 20
275.9208781205
 30
0.0
 10
160.3966977734
 20
275.3738549469
 30
0.0
 10
159.8343928004
 20
275.0492099573
 30
0.0
  0
SPLINE
  5
450
100
AcDbEntity
  8
0
100
AcDbSpline
 62
7
  6
CONTINUOUS
 70
0
 71
3
 72
10
 73
6
 74
0
 42
0.0000001
 43
0.0000001
 44
0.0000000001
 40
0.0
 40
0.0
 40
0.0
 40
0.0
 40
0.2526552144
 40
0.6229198214
 40
1.0
 40
1.0
 40
1.0
 40
1.0
 10
172.168206293
 20
273.113518727
 30
0.0
 10
172.1525346334
 20
273.1228785027
 30
0.0
 10
172.1150155272
 20
273.1478148472
 30
0.0
 10
172.0506547004
 20
273.1808928022
 30
0.0
 10
172.0054115726
 20
273.2104508188
 30
0.0
 10
171.9819784314
 20
273.2243466194
 30
0.0
  0
SPLINE
  5
451
100
AcDbEntity
  8
0
100
AcDbSpline
 62
7
  6
CONTINUOUS
 70
0
 71
3
 72
16
 73
12
 74
0
 42
0.0000001
 43
0.0000001
 44
0.0000000001
 40
0.0
 40
0.0
 40
0.0
 40
0.0
 40
0.1536302665
 40
0.3047273149
 40
0.4491653442
 40
0.5834136519
 40
0.7050554621
 40
0.8133580073
 40
0.910007547
 40
0.9554702944
 40
1.0
 40
1.0
 40
1.0
 40
1.0
 10
166.8107299618
 20
267.5383918328
 30
0.0
 10
166.3285429542
 20
267.5139452479
 30
0.0
 10
165.3682487841
 20
267.5226930946
 30
0.0
 10
163.9650051594
 20
267.7040816914
 30
0.0
 10
162.6542010178
 20
268.0461923102
 30
0.0
 10
161.4897439076
 20
268.5353333139
 30
0.0
 10
160.5184948404
 20
269.1534940039
 30
0.0
 10
159.7797355351
 20
269.8790789072
 30
0.0
 10
159.379884901
 20
270.5726783893
 30
0.0
 10
159.2241486276
 20
271.1408923116
 30
0.0
 10
159.1984025886
 20
271.4243515509
 30
0.0
 10
159.1983891153
 20
271.5642928776
 30
0.0
  0
SPLINE
  5
452
100
AcDbEntity
  8
0
100
AcDbSpline
 62
7
  6
CONTINUOUS
 70
0
 71
3
 72
11
 73
7
 74
0
 42
0.0000001
 43
0.0000001
 44
0.0000000001
 40
0.0
 40
0.0
 40
0.0
 40
0.0
 40
0.2868486921
 40
0.5464968497
 40
0.7817917104
 40
1.0
 40
1.0
 40
1.0
 40
1.0
 10
159.8343928004
 20
275.0492099573
 30
0.0
 10
159.4770096912
 20
274.8428759546
 30
0.0
 10
158.8227229294
 20
274.3995150072
 30
0.0
 10
158.0166818848
 20
273.6042742089
 30
0.0
 10
157.4599811351
 20
272.7305132951
 30
0.0
 10
157.2688706725
 20
272.0952009775
 30
0.0
 10
157.2263235374
 20
271.7841761015
 30
0.0
  0
SPLINE
  5
453
100
AcDbEntity
  8
0
100
AcDbSpline
 62
7
  6
CONTINUOUS
 70
0
 71
3
 72
9
 73
5
 74
0
 42
0.0000001
 43
0.0000001
 44
0.0000000001
 40
0.0
 40
0.0
 40
0.0
 40
0.0
 40
0.5324705446
 40
1.0
 40
1.0
 40
1.0
 40
1.0
 10
166.8107299618
 20
267.5383918328
 30
0.0
 10
166.988016322
 20
267.5473801423
 30
0.0
 10
167.3259773411
 20
267.506807239
 30
0.0
 10
167.6310412527
 20
267.3386087934
 30
0.0
 10
167.7385657719
 20
267.2257721753
 30
0.0
  0
SPLINE
  5
454
100
AcDbEntity
  8
0
100
AcDbSpline
 62
7
  6
CONTINUOUS
 70
0
 71
3
 72
9
 73
5
 74
0
 42
0.0000001
 43
0.0000001
 44
0.0000000001
 40
0.0
 40
0.0
 40
0.0
 40
0.0
 40
0.2562663944
 40
1.0
 40
1.0
 40
1.0
 40
1.0
 10
167.7752808247
 20
267.1840412807
 30
0.0
 10
167.7819272954
 20
267.1758339687
 30
0.0
 10
167.8070927943
 20
267.143196254
 30
0.0
 10
167.8290671512
 20
267.1080596079
 30
0.0
 10
167.8430789898
 20
267.0807997631
 30
0.0
  0
SPLINE
  5
455
100
AcDbEntity
  8
0
100
AcDbSpline
 62
7
  6
CONTINUOUS
 70
0
 71
3
 72
12
 73
8
 74
0
 42
0.0000001
 43
0.0000001
 44
0.0000000001
 40
0.0
 40
0.0
 40
0.0
 40
0.0
 40
0.1078322005
 40
0.2184032002
 40
0.4528861302
 40
0.7123007517
 40
1.0
 40
1.0
 40
1.0
 40
1.0
 10
179.627674227
 20
254.207006543
 30
0.0
 10
179.6054745947
 20
253.9691326469
 30
0.0
 10
179.5219346097
 20
253.4901236587
 30
0.0
 10
179.2000813614
 20
252.536321382
 30
0.0
 10
178.4970775961
 20
251.3759473888
 30
0.0
 10
177.2677416422
 20
250.1395213617
 30
0.0
 10
176.2601510096
 20
249.4530264368
 30
0.0
 10
175.7081353462
 20
249.1343219473
 30
0.0
  0
SPLINE
  5
456
100
AcDbEntity
  8
0
100
AcDbSpline
 62
7
  6
CONTINUOUS
 70
0
 71
3
 72
12
 73
8
 74
0
 42
0.0000001
 43
0.0000001
 44
0.0000000001
 40
0.0
 40
0.0
 40
0.0
 40
0.0
 40
0.1233842779
 40
0.2465357996
 40
0.4950161986
 40
0.7486190004
 40
1.0
 40
1.0
 40
1.0
 40
1.0
 10
169.9254324862
 20
262.7397995072
 30
0.0
 10
169.8814019314
 20
262.7329879406
 30
0.0
 10
169.7950559342
 20
262.7043018891
 30
0.0
 10
169.6502299146
 20
262.5948962908
 30
0.0
 10
169.5373214113
 20
262.3896804011
 30
0.0
 10
169.4869922212
 20
262.1208195494
 30
0.0
 10
169.4807146663
 20
261.9381725866
 30
0.0
 10
169.4807217165
 20
261.8473983891
 30
0.0
  0
SPLINE
  5
457
100
AcDbEntity
  8
0
100
AcDbSpline
 62
7
  6
CONTINUOUS
 70
0
 71
3
 72
11
 73
7
 74
0
 42
0.0000001
 43
0.0000001
 44
0.0000000001
 40
0.0
 40
0.0
 40
0.0
 40
0.0
 40
0.1965312376
 40
0.4386570166
 40
0.7147191725
 40
1.0
 40
1.0
 40
1.0
 40
1.0
 10
170.6570593761
 20
260.3997965688
 30
0.0
 10
170.6332980904
 20
260.4471815079
 30
0.0
 10
170.5466294005
 20
260.535350111
 30
0.0
 10
170.3692843835
 20
260.6162714079
 30
0.0
 10
170.1542355246
 20
260.6556332608
 30
0.0
 10
170.0014744282
 20
260.6498299381
 30
0.0
 10
169.9254324862
 20
260.638066181
 30
0.0
  0
SPLINE
  5
458
100
AcDbEntity
  8
0
100
AcDbSpline
 62
7
  6
CONTINUOUS
 70
0
 71
3
 72
9
 73
5
 74
0
 42
0.0000001
 43
0.0000001
 44
0.0000000001
 40
0.0
 40
0.0
 40
0.0
 40
0.0
 40
0.3066510477
 40
1.0
 40
1.0
 40
1.0
 40
1.0
 10
169.9254324862
 20
260.638066181
 30
0.0
 10
169.8716305345
 20
260.6297429705
 30
0.0
 10
169.7031477206
 20
260.5908377372
 30
0.0
 10
169.5199873252
 20
260.4756533603
 30
0.0
 10
169.4878847826
 20
260.3568179608
 30
0.0
  0
SPLINE
  5
459
100
AcDbEntity
  8
0
100
AcDbSpline
 62
7
  6
CONTINUOUS
 70
0
 71
3
 72
10
 73
6
 74
0
 42
0.0000001
 43
0.0000001
 44
0.0000000001
 40
0.0
 40
0.0
 40
0.0
 40
0.0
 40
0.209977206
 40
0.45669146
 40
1.0
 40
1.0
 40
1.0
 40
1.0
 10
173.422901094
 20
261.0790027086
 30
0.0
 10
173.3885684831
 20
261.1168436472
 30
0.0
 10
173.295867867
 20
261.1827702226
 30
0.0
 10
173.0657901939
 20
261.2658437517
 30
0.0
 10
172.8667610428
 20
261.273080167
 30
0.0
 10
172.7361095728
 20
261.2528682666
 30
0.0
  0
SPLINE
  5
45A
100
AcDbEntity
  8
0
100
AcDbSpline
 62
7
  6
CONTINUOUS
 70
0
 71
3
 72
9
 73
5
 74
0
 42
0.0000001
 43
0.0000001
 44
0.0000000001
 40
0.0
 40
0.0
 40
0.0
 40
0.0
 40
0.5510612663
 40
1.0
 40
1.0
 40
1.0
 40
1.0
 10
172.7361095728
 20
261.2528682666
 30
0.0
 10
172.6546246209
 20
261.2402624709
 30
0.0
 10
172.5088756414
 20
261.1997076174
 30
0.0
 10
172.3814056384
 20
261.1098349415
 30
0.0
 10
172.341034336
 20
261.0561461709
 30
0.0
  0
SPLINE
  5
45B
100
AcDbEntity
  8
0
100
AcDbSpline
 62
7
  6
CONTINUOUS
 70
0
 71
3
 72
15
 73
11
 74
0
 42
0.0000001
 43
0.0000001
 44
0.0000000001
 40
0.0
 40
0.0
 40
0.0
 40
0.0
 40
0.1553305085
 40
0.3034191035
 40
0.4427151341
 40
0.5722236942
 40
0.6916091825
 40
0.8014277325
 40
0.9033027135
 40
1.0
 40
1.0
 40
1.0
 40
1.0
 10
161.5959830481
 20
247.3289337588
 30
0.0
 10
160.9936059421
 20
247.4555969768
 30
0.0
 10
159.8271038624
 20
247.7557221942
 30
0.0
 10
158.1763450635
 20
248.3586470641
 30
0.0
 10
156.692483248
 20
249.093505349
 30
0.0
 10
155.4062004182
 20
249.9457610041
 30
0.0
 10
154.3440745141
 20
250.8994690658
 30
0.0
 10
153.529194284
 20
251.9378515421
 30
0.0
 10
152.9823199344
 20
253.0413230081
 30
0.0
 10
152.8060471681
 20
253.8179257249
 30
0.0
 10
152.7698240374
 20
254.1994056918
 30
0.0
  0
SPLINE
  5
45C
100
AcDbEntity
  8
0
100
AcDbSpline
 62
7
  6
CONTINUOUS
 70
0
 71
3
 72
13
 73
9
 74
0
 42
0.0000001
 43
0.0000001
 44
0.0000000001
 40
0.0
 40
0.0
 40
0.0
 40
0.0
 40
0.1218591277
 40
0.2423381432
 40
0.3632688996
 40
0.4864277642
 40
0.7401723004
 40
1.0
 40
1.0
 40
1.0
 40
1.0
 10
172.7361095728
 20
263.3444696904
 30
0.0
 10
172.6987901464
 20
263.3452265782
 30
0.0
 10
172.6238139943
 20
263.3360423915
 30
0.0
 10
172.5211006472
 20
263.2889625559
 30
0.0
 10
172.4367755682
 20
263.2134287968
 30
0.0
 10
172.3526543215
 20
263.0845679659
 30
0.0
 10
172.2996220844
 20
262.8930275041
 30
0.0
 10
172.2914027109
 20
262.7355746565
 30
0.0
 10
172.2914033771
 20
262.6559859136
 30
0.0
  0
SPLINE
  5
45D
100
AcDbEntity
  8
0
100
AcDbSpline
 62
7
  6
CONTINUOUS
 70
0
 71
3
 72
13
 73
9
 74
0
 42
0.0000001
 43
0.0000001
 44
0.0000000001
 40
0.0
 40
0.0
 40
0.0
 40
0.0
 40
0.231694772
 40
0.4827161361
 40
0.6122916682
 40
0.7427813744
 40
0.8727273422
 40
1.0
 40
1.0
 40
1.0
 40
1.0
 10
173.422901094
 20
262.0145400605
 30
0.0
 10
173.422901094
 20
262.1405237321
 30
0.0
 10
173.4070337299
 20
262.4030018551
 30
0.0
 10
173.3405670798
 20
262.7318490703
 30
0.0
 10
173.2316249284
 20
262.9888146951
 30
0.0
 10
173.1108970933
 20
263.1655738191
 30
0.0
 10
172.9454507448
 20
263.3021096945
 30
0.0
 10
172.8052996537
 20
263.3430665807
 30
0.0
 10
172.7361095728
 20
263.3444698479
 30
0.0
  0
SPLINE
  5
45E
100
AcDbEntity
  8
0
100
AcDbSpline
 62
7
  6
CONTINUOUS
 70
0
 71
3
 72
12
 73
8
 74
0
 42
0.0000001
 43
0.0000001
 44
0.0000000001
 40
0.0
 40
0.0
 40
0.0
 40
0.0
 40
0.2876758112
 40
0.5470931043
 40
0.7815927179
 40
0.8921692273
 40
1.0
 40
1.0
 40
1.0
 40
1.0
 10
175.7443616162
 20
249.1134071738
 30
0.0
 10
176.2980389028
 20
249.4330709961
 30
0.0
 10
177.3087359536
 20
250.1215968461
 30
0.0
 10
178.5421525511
 20
251.3615165984
 30
0.0
 10
179.2479581931
 20
252.5251126128
 30
0.0
 10
179.5715905761
 20
253.4816391627
 30
0.0
 10
179.6558622526
 20
253.9620505547
 30
0.0
 10
179.6783825809
 20
254.2006330685
 30
0.0
  0
SPLINE
  5
45F
100
AcDbEntity
  8
0
100
AcDbSpline
 62
7
  6
CONTINUOUS
 70
0
 71
3
 72
11
 73
7
 74
0
 42
0.0000001
 43
0.0000001
 44
0.0000000001
 40
0.0
 40
0.0
 40
0.0
 40
0.0
 40
0.2634247608
 40
0.5240650883
 40
0.7722846731
 40
1.0
 40
1.0
 40
1.0
 40
1.0
 10
163.8653091574
 20
246.9478150611
 30
0.0
 10
164.9352286561
 20
246.839434219
 30
0.0
 10
167.0816279216
 20
246.7738531798
 30
0.0
 10
170.2265939485
 20
247.109128092
 30
0.0
 10
173.1498735885
 20
247.8578899986
 30
0.0
 10
174.9392892659
 20
248.6486012101
 30
0.0
 10
175.7443616162
 20
249.1134071738
 30
0.0
  0
SPLINE
  5
460
100
AcDbEntity
  8
0
100
AcDbSpline
 62
7
  6
CONTINUOUS
 70
0
 71
3
 72
15
 73
11
 74
0
 42
0.0000001
 43
0.0000001
 44
0.0000000001
 40
0.0
 40
0.0
 40
0.0
 40
0.0
 40
0.0648852124
 40
0.1299085217
 40
0.2590364682
 40
0.3888655722
 40
0.5186033631
 40
0.6465034976
 40
0.7706473885
 40
1.0
 40
1.0
 40
1.0
 40
1.0
 10
166.9588769142
 20
262.4507147448
 30
0.0
 10
166.9980002574
 20
262.463613165
 30
0.0
 10
167.0805861066
 20
262.4781912279
 30
0.0
 10
167.2460569154
 20
262.4586479373
 30
0.0
 10
167.4305197046
 20
262.3468320238
 30
0.0
 10
167.570231409
 20
262.1377612682
 30
0.0
 10
167.6490521149
 20
261.9030312377
 30
0.0
 10
167.6887227905
 20
261.6633244528
 30
0.0
 10
167.7107017167
 20
261.3582881599
 30
0.0
 10
167.7121990603
 20
261.1337338642
 30
0.0
 10
167.7121990603
 20
260.9881210657
 30
0.0
  0
SPLINE
  5
461
100
AcDbEntity
  8
0
100
AcDbSpline
 62
7
  6
CONTINUOUS
 70
0
 71
3
 72
11
 73
7
 74
0
 42
0.0000001
 43
0.0000001
 44
0.0000000001
 40
0.0
 40
0.0
 40
0.0
 40
0.0
 40
0.2277160823
 40
0.4759445782
 40
0.7365895164
 40
1.0
 40
1.0
 40
1.0
 40
1.0
 10
175.7081353462
 20
249.1343219473
 30
0.0
 10
174.905571803
 20
248.6709644355
 30
0.0
 10
173.1216320131
 20
247.8828238891
 30
0.0
 10
170.2072890971
 20
247.1368343056
 30
0.0
 10
167.0720504209
 20
246.8033218502
 30
0.0
 10
164.9323953095
 20
246.8693546827
 30
0.0
 10
163.8659112722
 20
246.9777855086
 30
0.0
  0
SPLINE
  5
462
100
AcDbEntity
  8
0
100
AcDbSpline
 62
7
  6
CONTINUOUS
 70
0
 71
3
 72
9
 73
5
 74
0
 42
0.0000001
 43
0.0000001
 44
0.0000000001
 40
0.0
 40
0.0
 40
0.0
 40
0.0
 40
0.2610561187
 40
1.0
 40
1.0
 40
1.0
 40
1.0
 10
173.422901094
 20
262.0145400605
 30
0.0
 10
173.7289650886
 20
262.1116524555
 30
0.0
 10
174.8920755558
 20
262.511511504
 30
0.0
 10
176.0178883462
 20
263.0259734273
 30
0.0
 10
176.8050262039
 20
263.4804249686
 30
0.0
  0
SPLINE
  5
463
100
AcDbEntity
  8
0
100
AcDbSpline
 62
7
  6
CONTINUOUS
 70
0
 71
3
 72
14
 73
10
 74
0
 42
0.0000001
 43
0.0000001
 44
0.0000000001
 40
0.0
 40
0.0
 40
0.0
 40
0.0
 40
0.1283222413
 40
0.2583970561
 40
0.3888915999
 40
0.5185839679
 40
0.6461202499
 40
0.7699802186
 40
1.0
 40
1.0
 40
1.0
 40
1.0
 10
169.9254324862
 20
262.7397995072
 30
0.0
 10
170.0003365069
 20
262.7513872269
 30
0.0
 10
170.1603960728
 20
262.7297503219
 30
0.0
 10
170.3516428897
 20
262.5911424915
 30
0.0
 10
170.4829915702
 20
262.3980233279
 30
0.0
 10
170.5657439092
 20
262.183155479
 30
0.0
 10
170.6147660253
 20
261.9629258082
 30
0.0
 10
170.6495159382
 20
261.6804682121
 30
0.0
 10
170.6570593761
 20
261.4711978018
 30
0.0
 10
170.6570593761
 20
261.3353339207
 30
0.0
  0
SPLINE
  5
464
100
AcDbEntity
  8
0
100
AcDbSpline
 62
7
  6
CONTINUOUS
 70
0
 71
3
 72
13
 73
9
 74
0
 42
0.0000001
 43
0.0000001
 44
0.0000000001
 40
0.0
 40
0.0
 40
0.0
 40
0.0
 40
0.1268130486
 40
0.2540512128
 40
0.3819511597
 40
0.5098528212
 40
0.7611756716
 40
1.0
 40
1.0
 40
1.0
 40
1.0
 10
166.9588769142
 20
262.4507147445
 30
0.0
 10
166.9028563536
 20
262.4322455475
 30
0.0
 10
166.7975518836
 20
262.3712386793
 30
0.0
 10
166.6821445164
 20
262.2328690883
 30
0.0
 10
166.6054740682
 20
262.0705637312
 30
0.0
 10
166.5432568518
 20
261.8422255959
 30
0.0
 10
166.5158428484
 20
261.554638082
 30
0.0
 10
166.5141532958
 20
261.3267581762
 30
0.0
 10
166.5141641258
 20
261.2156700347
 30
0.0
  0
SPLINE
  5
465
100
AcDbEntity
  8
0
100
AcDbSpline
 62
7
  6
CONTINUOUS
 70
0
 71
3
 72
13
 73
9
 74
0
 42
0.0000001
 43
0.0000001
 44
0.0000000001
 40
0.0
 40
0.0
 40
0.0
 40
0.0
 40
0.0887786243
 40
0.1873778331
 40
0.2989811768
 40
0.4240653193
 40
0.7045770186
 40
1.0
 40
1.0
 40
1.0
 40
1.0
 10
167.7121990603
 20
260.0525837138
 30
0.0
 10
167.7085614634
 20
260.0784251224
 30
0.0
 10
167.6898781895
 20
260.131702045
 30
0.0
 10
167.6351541054
 20
260.2018912272
 30
0.0
 10
167.5564929331
 20
260.262623287
 30
0.0
 10
167.4197135963
 20
260.3306363565
 30
0.0
 10
167.2158438216
 20
260.3764200033
 30
0.0
 10
167.044694667
 20
260.3724012408
 30
0.0
 10
166.9588769142
 20
260.359125157
 30
0.0
  0
LINE
  5
466
100
AcDbEntity
  8
0
100
AcDbLine
 62
7
  6
CONTINUOUS
 10
161.9205515742
 20
242.6393674326
 11
161.5826728704
 21
240.8498851487
  0
SPLINE
  5
467
100
AcDbEntity
  8
0
100
AcDbSpline
 62
7
  6
CONTINUOUS
 70
0
 71
3
 72
11
 73
7
 74
0
 42
0.0000001
 43
0.0000001
 44
0.0000000001
 40
0.0
 40
0.0
 40
0.0
 40
0.0
 40
0.3078924907
 40
0.579244054
 40
0.8061317962
 40
1.0
 40
1.0
 40
1.0
 40
1.0
 10
166.9588769142
 20
260.359125157
 30
0.0
 10
166.8982582224
 20
260.3497473906
 30
0.0
 10
166.7853578084
 20
260.3214130505
 30
0.0
 10
166.6411060424
 20
260.2471369896
 30
0.0
 10
166.5408504076
 20
260.1476608773
 30
0.0
 10
166.5142147025
 20
260.0631461713
 30
0.0
 10
166.5141784509
 20
260.0245228609
 30
0.0
  0
SPLINE
  5
468
100
AcDbEntity
  8
0
100
AcDbSpline
 62
7
  6
CONTINUOUS
 70
0
 71
3
 72
18
 73
14
 74
0
 42
0.0000001
 43
0.0000001
 44
0.0000000001
 40
0.0
 40
0.0
 40
0.0
 40
0.0
 40
0.0449301102
 40
0.0907323912
 40
0.1381843708
 40
0.1879468728
 40
0.2404962982
 40
0.2961381005
 40
0.4170121036
 40
0.5503469585
 40
0.6941273238
 40
0.8452546051
 40
1.0
 40
1.0
 40
1.0
 40
1.0
 10
151.1983892933
 20
269.6040353607
 30
0.0
 10
151.1984132314
 20
269.3162204729
 30
0.0
 10
151.2490941589
 20
268.7338087475
 30
0.0
 10
151.4752289706
 20
267.8739905835
 30
0.0
 10
151.8484402878
 20
267.0332809345
 30
0.0
 10
152.3637393179
 20
266.2203866319
 30
0.0
 10
153.0152899962
 20
265.4427663639
 30
0.0
 10
154.085809492
 20
264.4350618776
 30
0.0
 10
155.7416046681
 20
263.3164807826
 30
0.0
 10
158.0711283537
 20
262.2582881591
 30
0.0
 10
160.7112995492
 20
261.4836461995
 30
0.0
 10
163.5609728263
 20
261.021570878
 30
0.0
 10
165.523477143
 20
260.9337619332
 30
0.0
 10
166.5146771834
 20
260.9458315829
 30
0.0
  0
SPLINE
  5
469
100
AcDbEntity
  8
0
100
AcDbSpline
 62
7
  6
CONTINUOUS
 70
0
 71
3
 72
18
 73
14
 74
0
 42
0.0000001
 43
0.0000001
 44
0.0000000001
 40
0.0
 40
0.0
 40
0.0
 40
0.0
 40
0.1510795036
 40
0.3016333823
 40
0.4468592754
 40
0.5825057742
 40
0.7054385356
 40
0.7617246636
 40
0.8145477082
 40
0.864178158
 40
0.911112167
 40
0.9560775912
 40
1.0
 40
1.0
 40
1.0
 40
1.0
 10
168.8454527815
 20
238.449395373
 30
0.0
 10
167.8619177339
 20
238.3358345283
 30
0.0
 10
165.8812520667
 20
238.2378506156
 30
0.0
 10
162.9539923914
 20
238.4623290351
 30
0.0
 10
160.1783520969
 20
239.0463698792
 30
0.0
 10
157.6853427835
 20
239.9628179203
 30
0.0
 10
155.8852325399
 20
241.0009400731
 30
0.0
 10
154.7090048637
 20
241.9696861252
 30
0.0
 10
153.9912015286
 20
242.7267844378
 30
0.0
 10
153.4211348519
 20
243.5270716338
 30
0.0
 10
153.0068373178
 20
244.3617794009
 30
0.0
 10
152.7549862972
 20
245.2203957745
 30
0.0
 10
152.6983798236
 20
245.8043703769
 30
0.0
 10
152.6983803267
 20
246.0922071008
 30
0.0
  0
SPLINE
  5
46A
100
AcDbEntity
  8
0
100
AcDbSpline
 62
7
  6
CONTINUOUS
 70
0
 71
3
 72
9
 73
5
 74
0
 42
0.0000001
 43
0.0000001
 44
0.0000000001
 40
0.0
 40
0.0
 40
0.0
 40
0.0
 40
0.4454994495
 40
1.0
 40
1.0
 40
1.0
 40
1.0
 10
172.5917208801
 20
273.5910890862
 30
0.0
 10
172.5917457051
 20
273.5730156951
 30
0.0
 10
172.5743578573
 20
273.5323049273
 30
0.0
 10
172.538831032
 20
273.5096817402
 30
0.0
 10
172.5184920147
 20
273.5000708055
 30
0.0
  0
SPLINE
  5
46B
100
AcDbEntity
  8
0
100
AcDbSpline
 62
7
  6
CONTINUOUS
 70
0
 71
3
 72
13
 73
9
 74
0
 42
0.0000001
 43
0.0000001
 44
0.0000000001
 40
0.0
 40
0.0
 40
0.0
 40
0.0
 40
0.2894109678
 40
0.548294135
 40
0.6677461917
 40
0.7817716077
 40
0.8919048304
 40
1.0
 40
1.0
 40
1.0
 40
1.0
 10
176.8050262039
 20
263.4804249686
 30
0.0
 10
177.463453426
 20
263.8605658333
 30
0.0
 10
178.6573876527
 20
264.6820450666
 30
0.0
 10
179.8781847181
 20
265.9666451192
 30
0.0
 10
180.5656061306
 20
267.066934939
 30
0.0
 10
180.9289662641
 20
267.8971585678
 30
0.0
 10
181.1490297663
 20
268.745628763
 30
0.0
 10
181.1983779921
 20
269.3200681874
 30
0.0
 10
181.198368881
 20
269.6040351393
 30
0.0
  0
SPLINE
  5
46C
100
AcDbEntity
  8
0
100
AcDbSpline
 62
7
  6
CONTINUOUS
 70
0
 71
3
 72
8
 73
4
 74
0
 42
0.0000001
 43
0.0000001
 44
0.0000000001
 40
0.0
 40
0.0
 40
0.0
 40
0.0
 40
1.0
 40
1.0
 40
1.0
 40
1.0
 10
170.3624365134
 20
273.1328718947
 30
0.0
 10
170.3758163407
 20
273.1501483472
 30
0.0
 10
170.3905479427
 20
273.1664327178
 30
0.0
 10
170.4062083897
 20
273.1816723369
 30
0.0
  0
SPLINE
  5
46D
100
AcDbEntity
  8
0
100
AcDbSpline
 62
7
  6
CONTINUOUS
 70
0
 71
3
 72
9
 73
5
 74
0
 42
0.0000001
 43
0.0000001
 44
0.0000000001
 40
0.0
 40
0.0
 40
0.0
 40
0.0
 40
0.2336782088
 40
1.0
 40
1.0
 40
1.0
 40
1.0
 10
170.4062083897
 20
273.1816723369
 30
0.0
 10
170.4180536346
 20
273.193199276
 30
0.0
 10
170.4711364366
 20
273.2400654947
 30
0.0
 10
170.5322187235
 20
273.2773604577
 30
0.0
 10
170.5808355449
 20
273.301324838
 30
0.0
  0
SPLINE
  5
46E
100
AcDbEntity
  8
0
100
AcDbSpline
 62
7
  6
CONTINUOUS
 70
0
 71
3
 72
11
 73
7
 74
0
 42
0.0000001
 43
0.0000001
 44
0.0000000001
 40
0.0
 40
0.0
 40
0.0
 40
0.0
 40
0.236569222
 40
0.4790877356
 40
0.7322544872
 40
1.0
 40
1.0
 40
1.0
 40
1.0
 10
241.8049678488
 20
257.5932467136
 30
0.0
 10
242.1433287376
 20
257.8643345746
 30
0.0
 10
242.7518654865
 20
258.515445873
 30
0.0
 10
243.3898861528
 20
259.710114282
 30
0.0
 10
243.7645012543
 20
261.0678860669
 30
0.0
 10
243.8464236169
 20
262.0241825712
 30
0.0
 10
243.8518848462
 20
262.5148521061
 30
0.0
  0
SPLINE
  5
46F
100
AcDbEntity
  8
0
100
AcDbSpline
 62
7
  6
CONTINUOUS
 70
0
 71
3
 72
17
 73
13
 74
0
 42
0.0000001
 43
0.0000001
 44
0.0000000001
 40
0.0
 40
0.0
 40
0.0
 40
0.0
 40
0.1254778264
 40
0.2604196043
 40
0.3999256007
 40
0.5377230759
 40
0.668039827
 40
0.7874355271
 40
0.843174454
 40
0.8967528613
 40
0.9487959218
 40
1.0
 40
1.0
 40
1.0
 40
1.0
 10
243.8524965874
 20
262.6250809761
 30
0.0
 10
243.8524965874
 20
263.4778195433
 30
0.0
 10
243.6284461008
 20
265.2502108411
 30
0.0
 10
242.7758425159
 20
267.8443135995
 30
0.0
 10
241.4620904715
 20
270.3334348415
 30
0.0
 10
239.7769337285
 20
272.5490337769
 30
0.0
 10
237.8263279749
 20
274.3403406916
 30
0.0
 10
236.0131603676
 20
275.3995642118
 30
0.0
 10
234.5288293383
 20
275.8796744058
 30
0.0
 10
233.4382834516
 20
276.0415359122
 30
0.0
 10
232.3666079884
 20
275.9960633725
 30
0.0
 10
231.6812867125
 20
275.8160333614
 30
0.0
 10
231.3570745521
 20
275.6896367558
 30
0.0
  0
SPLINE
  5
470
100
AcDbEntity
  8
0
100
AcDbSpline
 62
7
  6
CONTINUOUS
 70
0
 71
3
 72
18
 73
14
 74
0
 42
0.0000001
 43
0.0000001
 44
0.0000000001
 40
0.0
 40
0.0
 40
0.0
 40
0.0
 40
0.1265569714
 40
0.2627621812
 40
0.4031900031
 40
0.5410179405
 40
0.6070795488
 40
0.6704483003
 40
0.7881426264
 40
0.8431902286
 40
0.8963848408
 40
0.9484316885
 40
1.0
 40
1.0
 40
1.0
 40
1.0
 10
249.6152964306
 20
266.238095031
 30
0.0
 10
249.6152964306
 20
267.0976163293
 30
0.0
 10
249.3799863854
 20
268.884851814
 30
0.0
 10
248.4908081125
 20
271.4893228131
 30
0.0
 10
247.1276805168
 20
273.967655398
 30
0.0
 10
245.6583609811
 20
275.8046120918
 30
0.0
 10
244.3285749148
 20
277.0449115227
 30
0.0
 10
242.9860495801
 20
278.0544362548
 30
0.0
 10
241.5359614609
 20
278.7947135827
 30
0.0
 10
240.0350692696
 20
279.1460149889
 30
0.0
 10
238.9400751019
 20
279.1937984522
 30
0.0
 10
237.8818090698
 20
279.0137438873
 30
0.0
 10
237.2271286535
 20
278.7346627947
 30
0.0
 10
236.9238200283
 20
278.5595485235
 30
0.0
  0
SPLINE
  5
471
100
AcDbEntity
  8
0
100
AcDbSpline
 62
7
  6
CONTINUOUS
 70
0
 71
3
 72
11
 73
7
 74
0
 42
0.0000001
 43
0.0000001
 44
0.0000000001
 40
0.0
 40
0.0
 40
0.0
 40
0.0
 40
0.2452557397
 40
0.4920565621
 40
0.7428701631
 40
1.0
 40
1.0
 40
1.0
 40
1.0
 10
236.9238200283
 20
278.5595485235
 30
0.0
 10
236.6617314361
 20
278.4082325075
 30
0.0
 10
236.1660919331
 20
278.0486999196
 30
0.0
 10
235.5446537
 20
277.3671191671
 30
0.0
 10
235.0546362635
 20
276.5693431175
 30
0.0
 10
234.8209330258
 20
275.9844311018
 30
0.0
 10
234.7251292068
 20
275.6819551957
 30
0.0
  0
SPLINE
  5
472
100
AcDbEntity
  8
0
100
AcDbSpline
 62
7
  6
CONTINUOUS
 70
0
 71
3
 72
11
 73
7
 74
0
 42
0.0000001
 43
0.0000001
 44
0.0000000001
 40
0.0
 40
0.0
 40
0.0
 40
0.0
 40
0.2419515907
 40
0.4862420451
 40
0.7371337118
 40
1.0
 40
1.0
 40
1.0
 40
1.0
 10
263.6049291522
 20
273.9875126039
 30
0.0
 10
263.9213684118
 20
274.1702078051
 30
0.0
 10
264.5004426416
 20
274.6459749415
 30
0.0
 10
265.1107925744
 20
275.5948752512
 30
0.0
 10
265.4576901137
 20
276.6973866601
 30
0.0
 10
265.5251151041
 20
277.4760660853
 30
0.0
 10
265.5251151041
 20
277.8730432183
 30
0.0
  0
SPLINE
  5
473
100
AcDbEntity
  8
0
100
AcDbSpline
 62
7
  6
CONTINUOUS
 70
0
 71
3
 72
11
 73
7
 74
0
 42
0.0000001
 43
0.0000001
 44
0.0000000001
 40
0.0
 40
0.0
 40
0.0
 40
0.0
 40
0.2562358177
 40
0.5065172205
 40
0.7537077676
 40
1.0
 40
1.0
 40
1.0
 40
1.0
 10
260.3725655198
 20
273.7691449321
 30
0.0
 10
260.642602372
 20
273.6785939777
 30
0.0
 10
261.1923056067
 20
273.5421062688
 30
0.0
 10
262.0346235325
 20
273.4979164334
 30
0.0
 10
262.8570875
 20
273.6337388982
 30
0.0
 10
263.367843943
 20
273.8506322117
 30
0.0
 10
263.6049291522
 20
273.9875126039
 30
0.0
  0
SPLINE
  5
474
100
AcDbEntity
  8
0
100
AcDbSpline
 62
7
  6
CONTINUOUS
 70
0
 71
3
 72
11
 73
7
 74
0
 42
0.0000001
 43
0.0000001
 44
0.0000000001
 40
0.0
 40
0.0
 40
0.0
 40
0.0
 40
0.2462407584
 40
0.4935296905
 40
0.7437921771
 40
1.0
 40
1.0
 40
1.0
 40
1.0
 10
256.4549611619
 20
286.3716943588
 30
0.0
 10
256.2183350368
 20
286.2350790173
 30
0.0
 10
255.775854228
 20
285.9017996965
 30
0.0
 10
255.2472903677
 20
285.2590240347
 30
0.0
 10
254.864638796
 20
284.5089159808
 30
0.0
 10
254.7075931105
 20
283.9658204294
 30
0.0
 10
254.6508094164
 20
283.6872575769
 30
0.0
  0
SPLINE
  5
475
100
AcDbEntity
  8
0
100
AcDbSpline
 62
7
  6
CONTINUOUS
 70
0
 71
3
 72
18
 73
14
 74
0
 42
0.0000001
 43
0.0000001
 44
0.0000000001
 40
0.0
 40
0.0
 40
0.0
 40
0.0
 40
0.1259094025
 40
0.2602282318
 40
0.398242544
 40
0.5337251435
 40
0.6614561314
 40
0.7217644239
 40
0.7798083342
 40
0.836061105
 40
0.8911665056
 40
0.9456597603
 40
1.0
 40
1.0
 40
1.0
 40
1.0
 10
265.5251151041
 20
277.8730432183
 30
0.0
 10
265.5251151041
 20
278.4772923395
 30
0.0
 10
265.36088362
 20
279.7282464754
 30
0.0
 10
264.7368064251
 20
281.5449989458
 30
0.0
 10
263.7814308464
 20
283.2648827878
 30
0.0
 10
262.5621231097
 20
284.7677518168
 30
0.0
 10
261.3598885585
 20
285.7716804984
 30
0.0
 10
260.3278001667
 20
286.3519506732
 30
0.0
 10
259.5446564317
 20
286.6586811817
 30
0.0
 10
258.7461501187
 20
286.8314489779
 30
0.0
 10
257.945288065
 20
286.8533898962
 30
0.0
 10
257.1654131358
 20
286.7112688248
 30
0.0
 10
256.6808062731
 20
286.5020853162
 30
0.0
 10
256.4549611619
 20
286.3716943588
 30
0.0
  0
SPLINE
  5
476
100
AcDbEntity
  8
0
100
AcDbSpline
 62
7
  6
CONTINUOUS
 70
0
 71
3
 72
11
 73
7
 74
0
 42
0.0000001
 43
0.0000001
 44
0.0000000001
 40
0.0
 40
0.0
 40
0.0
 40
0.0
 40
0.2570143739
 40
0.5078415047
 40
0.754609332
 40
1.0
 40
1.0
 40
1.0
 40
1.0
 10
243.5115003258
 20
260.5075691715
 30
0.0
 10
243.8190337073
 20
260.4412777436
 30
0.0
 10
244.4376629815
 20
260.3545618771
 30
0.0
 10
245.3657256414
 20
260.383342574
 30
0.0
 10
246.2591112567
 20
260.5810496158
 30
0.0
 10
246.8136468752
 20
260.8290226833
 30
0.0
 10
247.0737745879
 20
260.9792065918
 30
0.0
  0
SPLINE
  5
477
100
AcDbEntity
  8
0
100
AcDbSpline
 62
7
  6
CONTINUOUS
 70
0
 71
3
 72
13
 73
9
 74
0
 42
0.0000001
 43
0.0000001
 44
0.0000000001
 40
0.0
 40
0.0
 40
0.0
 40
0.0
 40
0.118560153
 40
0.2374096813
 40
0.3575546556
 40
0.4794967986
 40
0.7316334546
 40
1.0
 40
1.0
 40
1.0
 40
1.0
 10
247.0737745879
 20
260.9792065918
 30
0.0
 10
247.2830040059
 20
261.1000045315
 30
0.0
 10
247.6827016335
 20
261.3771895297
 30
0.0
 10
248.2077193312
 20
261.8866291797
 30
0.0
 10
248.6518674931
 20
262.4764670464
 30
0.0
 10
249.1360834669
 20
263.3629996561
 30
0.0
 10
249.5260059733
 20
264.6271706285
 30
0.0
 10
249.6152964306
 20
265.6912288189
 30
0.0
 10
249.6152964306
 20
266.238095031
 30
0.0
  0
SPLINE
  5
478
100
AcDbEntity
  8
0
100
AcDbSpline
 62
7
  6
CONTINUOUS
 70
0
 71
3
 72
13
 73
9
 74
0
 42
0.0000001
 43
0.0000001
 44
0.0000000001
 40
0.0
 40
0.0
 40
0.0
 40
0.0
 40
0.1202230986
 40
0.2405083768
 40
0.36169939
 40
0.4841244968
 40
0.7352494503
 40
1.0
 40
1.0
 40
1.0
 40
1.0
 10
258.0945442974
 20
269.6514105999
 30
0.0
 10
258.2702377512
 20
269.7528466572
 30
0.0
 10
258.6057168368
 20
269.9850676287
 30
0.0
 10
259.0464516171
 20
270.4108128701
 30
0.0
 10
259.4188775877
 20
270.9020364749
 30
0.0
 10
259.8228479663
 20
271.6355246311
 30
0.0
 10
260.1473418866
 20
272.6746009616
 30
0.0
 10
260.221842213
 20
273.5479682141
 30
0.0
 10
260.221842213
 20
273.9947271559
 30
0.0
  0
SPLINE
  5
479
100
AcDbEntity
  8
0
100
AcDbSpline
 62
7
  6
CONTINUOUS
 70
0
 71
3
 72
11
 73
7
 74
0
 42
0.0000001
 43
0.0000001
 44
0.0000000001
 40
0.0
 40
0.0
 40
0.0
 40
0.0
 40
0.2563794298
 40
0.506912415
 40
0.7539450726
 40
1.0
 40
1.0
 40
1.0
 40
1.0
 10
254.7985065422
 20
269.3268785852
 30
0.0
 10
255.0782164823
 20
269.2491660957
 30
0.0
 10
255.6445239887
 20
269.1377953583
 30
0.0
 10
256.5033316185
 20
269.1271863316
 30
0.0
 10
257.336245137
 20
269.2869275082
 30
0.0
 10
257.8532570341
 20
269.512104165
 30
0.0
 10
258.0945442974
 20
269.6514105999
 30
0.0
  0
SPLINE
  5
47A
100
AcDbEntity
  8
0
100
AcDbSpline
 62
7
  6
CONTINUOUS
 70
0
 71
3
 72
11
 73
7
 74
0
 42
0.0000001
 43
0.0000001
 44
0.0000000001
 40
0.0
 40
0.0
 40
0.0
 40
0.0
 40
0.2460786695
 40
0.4933354741
 40
0.7438104967
 40
1.0
 40
1.0
 40
1.0
 40
1.0
 10
249.944580784
 20
283.767645747
 30
0.0
 10
249.706033857
 20
283.6299214366
 30
0.0
 10
249.2572366558
 20
283.2990225906
 30
0.0
 10
248.7061578779
 20
282.667039427
 30
0.0
 10
248.2872170215
 20
281.9286800217
 30
0.0
 10
248.0989637446
 20
281.3904402862
 30
0.0
 10
248.0253669651
 20
281.11327769
 30
0.0
  0
SPLINE
  5
47B
100
AcDbEntity
  8
0
100
AcDbSpline
 62
7
  6
CONTINUOUS
 70
0
 71
3
 72
18
 73
14
 74
0
 42
0.0000001
 43
0.0000001
 44
0.0000000001
 40
0.0
 40
0.0
 40
0.0
 40
0.0
 40
0.1261576759
 40
0.2612260864
 40
0.4002080281
 40
0.5366306813
 40
0.6649574894
 40
0.7253012925
 40
0.7831299636
 40
0.8388873011
 40
0.8932277578
 40
0.9467432381
 40
1.0
 40
1.0
 40
1.0
 40
1.0
 10
260.221842213
 20
273.9947271559
 30
0.0
 10
260.221842213
 20
274.6839845254
 30
0.0
 10
260.0339654354
 20
276.1134819146
 30
0.0
 10
259.3217719846
 20
278.1924183734
 30
0.0
 10
258.23070471
 20
280.165039099
 30
0.0
 10
256.8392531777
 20
281.8907069826
 30
0.0
 10
255.4695197747
 20
283.0454528622
 30
0.0
 10
254.2965785793
 20
283.7141734361
 30
0.0
 10
253.4108839487
 20
284.0680307332
 30
0.0
 10
252.5112112036
 20
284.2696088813
 30
0.0
 10
251.6119096867
 20
284.3003786026
 30
0.0
 10
250.7384251721
 20
284.1458201506
 30
0.0
 10
250.196565254
 20
283.9131281802
 30
0.0
 10
249.944580784
 20
283.767645747
 30
0.0
  0
SPLINE
  5
47C
100
AcDbEntity
  8
0
100
AcDbSpline
 62
7
  6
CONTINUOUS
 70
0
 71
3
 72
18
 73
14
 74
0
 42
0.0000001
 43
0.0000001
 44
0.0000000001
 40
0.0
 40
0.0
 40
0.0
 40
0.0
 40
0.1263772509
 40
0.2620747121
 40
0.4018543656
 40
0.539052155
 40
0.6048650305
 40
0.6680710062
 40
0.7858523789
 40
0.8412198169
 40
0.8949317265
 40
0.9476605787
 40
1.0
 40
1.0
 40
1.0
 40
1.0
 10
254.9185693218
 20
270.1164110935
 30
0.0
 10
254.9185693218
 20
270.8907564577
 30
0.0
 10
254.7070001541
 20
272.4990209484
 30
0.0
 10
253.9063641875
 20
274.8406715404
 30
0.0
 10
252.6795953767
 20
277.0657823897
 30
0.0
 10
251.3570390163
 20
278.7135714173
 30
0.0
 10
250.1594110549
 20
279.8254301071
 30
0.0
 10
248.9472446915
 20
280.7316748958
 30
0.0
 10
247.6349287234
 20
281.3951766968
 30
0.0
 10
246.2739864296
 20
281.7077036339
 30
0.0
 10
245.2766062244
 20
281.7472762483
 30
0.0
 10
244.3104552901
 20
281.5798809678
 30
0.0
 10
243.7119324529
 20
281.3239448501
 30
0.0
 10
243.4342004061
 20
281.1635971353
 30
0.0
  0
SPLINE
  5
47D
100
AcDbEntity
  8
0
100
AcDbSpline
 62
7
  6
CONTINUOUS
 70
0
 71
3
 72
11
 73
7
 74
0
 42
0.0000001
 43
0.0000001
 44
0.0000000001
 40
0.0
 40
0.0
 40
0.0
 40
0.0
 40
0.2464703393
 40
0.4939420958
 40
0.7445204932
 40
1.0
 40
1.0
 40
1.0
 40
1.0
 10
243.4342004061
 20
281.1635971353
 30
0.0
 10
243.2048865083
 20
281.0312034849
 30
0.0
 10
242.7703169241
 20
280.7196963386
 30
0.0
 10
242.2189876218
 20
280.1340132337
 30
0.0
 10
241.7765399724
 20
279.4513553816
 30
0.0
 10
241.558962868
 20
278.95034269
 30
0.0
 10
241.4680039913
 20
278.6913856582
 30
0.0
  0
SPLINE
  5
47E
100
AcDbEntity
  8
0
100
AcDbSpline
 62
7
  6
CONTINUOUS
 70
0
 71
3
 72
11
 73
7
 74
0
 42
0.0000001
 43
0.0000001
 44
0.0000000001
 40
0.0
 40
0.0
 40
0.0
 40
0.0
 40
0.2556919567
 40
0.5063061338
 40
0.7536276633
 40
1.0
 40
1.0
 40
1.0
 40
1.0
 10
249.4058471284
 20
264.8591298842
 30
0.0
 10
249.6799080266
 20
264.8048469636
 30
0.0
 10
250.2315766032
 20
264.7366098268
 30
0.0
 10
251.0583566873
 20
264.7733279485
 30
0.0
 10
251.855409311
 20
264.9571966796
 30
0.0
 10
252.3510234467
 20
265.1807082693
 30
0.0
 10
252.5841594427
 20
265.3153085958
 30
0.0
  0
SPLINE
  5
47F
100
AcDbEntity
  8
0
100
AcDbSpline
 62
7
  6
CONTINUOUS
 70
0
 71
3
 72
13
 73
9
 74
0
 42
0.0000001
 43
0.0000001
 44
0.0000000001
 40
0.0
 40
0.0
 40
0.0
 40
0.0
 40
0.1193390353
 40
0.2388579265
 40
0.359488429
 40
0.4816510328
 40
0.733309523
 40
1.0
 40
1.0
 40
1.0
 40
1.0
 10
252.5841594427
 20
265.3153085958
 30
0.0
 10
252.7766622041
 20
265.4264494535
 30
0.0
 10
253.1443167007
 20
265.6812055146
 30
0.0
 10
253.6272482263
 20
266.148894001
 30
0.0
 10
254.0355422529
 20
266.6894971194
 30
0.0
 10
254.4795801184
 20
267.4995261804
 30
0.0
 10
254.8367019887
 20
268.6510656124
 30
0.0
 10
254.9185693218
 20
269.6196693363
 30
0.0
 10
254.9185693218
 20
270.1164110935
 30
0.0
  0
SPLINE
  5
480
100
AcDbEntity
  8
0
100
AcDbSpline
 62
7
  6
CONTINUOUS
 70
0
 71
3
 72
18
 73
14
 74
0
 42
0.0000001
 43
0.0000001
 44
0.0000000001
 40
0.0
 40
0.0
 40
0.0
 40
0.0
 40
0.1305176615
 40
0.2737371065
 40
0.4219172658
 40
0.566370759
 40
0.6991086759
 40
0.7593327812
 40
0.8149002532
 40
0.8659020144
 40
0.9129163031
 40
0.9570731872
 40
1.0
 40
1.0
 40
1.0
 40
1.0
 10
252.4892695367
 20
269.544947958
 30
0.0
 10
252.4793219229
 20
270.2287763862
 30
0.0
 10
252.2680060608
 20
271.6618974608
 30
0.0
 10
251.5266980504
 20
273.7558154012
 30
0.0
 10
250.4031827364
 20
275.7573896437
 30
0.0
 10
248.9922036069
 20
277.4964982828
 30
0.0
 10
247.6287988244
 20
278.6461264727
 30
0.0
 10
246.4930431139
 20
279.2902943299
 30
0.0
 10
245.6765628706
 20
279.611586344
 30
0.0
 10
244.8848793646
 20
279.7788419653
 30
0.0
 10
244.1340721731
 20
279.785799493
 30
0.0
 10
243.442180793
 20
279.6287147941
 30
0.0
 10
243.0323913417
 20
279.4144580714
 30
0.0
 10
242.8482552914
 20
279.2852736977
 30
0.0
  0
SPLINE
  5
481
100
AcDbEntity
  8
0
100
AcDbSpline
 62
7
  6
CONTINUOUS
 70
0
 71
3
 72
19
 73
15
 74
0
 42
0.0000001
 43
0.0000001
 44
0.0000000001
 40
0.0
 40
0.0
 40
0.0
 40
0.0
 40
0.130371425
 40
0.2734858756
 40
0.4216115149
 40
0.5660597025
 40
0.6344204164
 40
0.6990235508
 40
0.7592731561
 40
0.8148675985
 40
0.8658935374
 40
0.9129242979
 40
0.9570850984
 40
1.0
 40
1.0
 40
1.0
 40
1.0
 10
247.1860902468
 20
265.6662968458
 30
0.0
 10
247.1761637995
 20
266.4371361677
 30
0.0
 10
246.9401354894
 20
268.0532431437
 30
0.0
 10
246.106629028
 20
270.4155956194
 30
0.0
 10
244.841942364
 20
272.6739811191
 30
0.0
 10
243.4910222439
 20
274.3427942749
 30
0.0
 10
242.2827549035
 20
275.4559548374
 30
0.0
 10
241.3628613346
 20
276.1377011015
 30
0.0
 10
240.4327241618
 20
276.6665754021
 30
0.0
 10
239.5115365379
 20
277.0307226464
 30
0.0
 10
238.6180724108
 20
277.2210895992
 30
0.0
 10
237.7705729162
 20
277.2306376245
 30
0.0
 10
236.9893558451
 20
277.0550963218
 30
0.0
 10
236.5264069635
 20
276.8143892566
 30
0.0
 10
236.3183517286
 20
276.669103774
 30
0.0
  0
SPLINE
  5
482
100
AcDbEntity
  8
0
100
AcDbSpline
 62
7
  6
CONTINUOUS
 70
0
 71
3
 72
17
 73
13
 74
0
 42
0.0000001
 43
0.0000001
 44
0.0000000001
 40
0.0
 40
0.0
 40
0.0
 40
0.0
 40
0.1307771978
 40
0.2740881428
 40
0.4222413328
 40
0.5666153631
 40
0.6992938627
 40
0.8148051603
 40
0.8658390738
 40
0.9128925283
 40
0.9570770603
 40
1.0
 40
1.0
 40
1.0
 40
1.0
 10
263.0955257518
 20
277.3026067956
 30
0.0
 10
263.0855464521
 20
277.8107314846
 30
0.0
 10
262.9246757576
 20
278.8741841679
 30
0.0
 10
262.3706068964
 20
280.4269539322
 30
0.0
 10
261.5351588756
 20
281.9097029147
 30
0.0
 10
260.4868887515
 20
283.19853649
 30
0.0
 10
259.3128707006
 20
284.1875832172
 30
0.0
 10
258.2578367157
 20
284.7173427025
 30
0.0
 10
257.4417693748
 20
284.8915813313
 30
0.0
 10
256.8845889467
 20
284.8984030984
 30
0.0
 10
256.3707695089
 20
284.7841156702
 30
0.0
 10
256.0658757148
 20
284.6269712477
 30
0.0
 10
255.9287310334
 20
284.5320209856
 30
0.0
  0
SPLINE
  5
483
100
AcDbEntity
  8
0
100
AcDbSpline
 62
7
  6
CONTINUOUS
 70
0
 71
3
 72
9
 73
5
 74
0
 42
0.0000001
 43
0.0000001
 44
0.0000000001
 40
0.0
 40
0.0
 40
0.0
 40
0.0
 40
0.2469564221
 40
1.0
 40
1.0
 40
1.0
 40
1.0
 10
255.9287310334
 20
284.5320209856
 30
0.0
 10
255.8913558434
 20
284.5061447791
 30
0.0
 10
255.743669656
 20
284.3961402326
 30
0.0
 10
255.6115853589
 20
284.2654898109
 30
0.0
 10
255.5227879825
 20
284.1590490881
 30
0.0
  0
SPLINE
  5
484
100
AcDbEntity
  8
0
100
AcDbSpline
 62
7
  6
CONTINUOUS
 70
0
 71
3
 72
11
 73
7
 74
0
 42
0.0000001
 43
0.0000001
 44
0.0000000001
 40
0.0
 40
0.0
 40
0.0
 40
0.0
 40
0.2857637007
 40
0.5451893205
 40
0.781013739
 40
1.0
 40
1.0
 40
1.0
 40
1.0
 10
237.0044191861
 20
257.1366809841
 30
0.0
 10
236.9989846919
 20
256.6156497135
 30
0.0
 10
236.9180950169
 20
255.6198188808
 30
0.0
 10
236.5501495762
 20
254.2346695038
 30
0.0
 10
235.9462029022
 20
253.0674269378
 30
0.0
 10
235.3769635011
 20
252.4466499942
 30
0.0
 10
235.0660310232
 20
252.1961306373
 30
0.0
  0
SPLINE
  5
485
100
AcDbEntity
  8
0
100
AcDbSpline
 62
7
  6
CONTINUOUS
 70
0
 71
3
 72
19
 73
15
 74
0
 42
0.0000001
 43
0.0000001
 44
0.0000000001
 40
0.0
 40
0.0
 40
0.0
 40
0.0
 40
0.1267838667
 40
0.2660658564
 40
0.411216438
 40
0.5545912287
 40
0.6233420912
 40
0.6889987509
 40
0.7509146717
 40
0.8086478602
 40
0.8620281116
 40
0.9112336538
 40
0.9568679191
 40
1.0
 40
1.0
 40
1.0
 40
1.0
 10
237.0214022789
 20
257.2623828269
 30
0.0
 10
237.0214022789
 20
258.2311221499
 30
0.0
 10
236.7608776365
 20
260.2663995434
 30
0.0
 10
235.7812152246
 20
263.2667447926
 30
0.0
 10
234.2641141126
 20
266.1780713084
 30
0.0
 10
232.6234389253
 20
268.3774678666
 30
0.0
 10
231.1384279925
 20
269.8975981278
 30
0.0
 10
229.9906999555
 20
270.8674919297
 30
0.0
 10
228.8163251886
 20
271.663736336
 30
0.0
 10
227.6375837426
 20
272.2705897196
 30
0.0
 10
226.4766036107
 20
272.6756438184
 30
0.0
 10
225.3545202031
 20
272.8693005626
 30
0.0
 10
224.2933152709
 20
272.8447882821
 30
0.0
 10
223.6285703125
 20
272.6766301245
 30
0.0
 10
223.3215169905
 20
272.556911792
 30
0.0
  0
SPLINE
  5
486
100
AcDbEntity
  8
0
100
AcDbSpline
 62
7
  6
CONTINUOUS
 70
0
 71
3
 72
19
 73
15
 74
0
 42
0.0000001
 43
0.0000001
 44
0.0000000001
 40
0.0
 40
0.0
 40
0.0
 40
0.0
 40
0.0431348825
 40
0.0887751112
 40
0.137987989
 40
0.1913754616
 40
0.2491147196
 40
0.3110349432
 40
0.3766938557
 40
0.4454448833
 40
0.5888145584
 40
0.7339550387
 40
0.8732255368
 40
1.0
 40
1.0
 40
1.0
 40
1.0
 10
223.3061984526
 20
272.5492947574
 30
0.0
 10
223.6133618475
 20
272.6687871875
 30
0.0
 10
224.278284683
 20
272.8364827555
 30
0.0
 10
225.339616096
 20
272.8603675003
 30
0.0
 10
226.4617531409
 20
272.6661575963
 30
0.0
 10
227.6227252013
 20
272.2606264337
 30
0.0
 10
228.8014045047
 20
271.6533736907
 30
0.0
 10
229.9756711819
 20
270.8568087748
 30
0.0
 10
231.1232544605
 20
269.8866728174
 30
0.0
 10
232.6080158962
 20
268.3663376434
 30
0.0
 10
234.2483692721
 20
266.1668628129
 30
0.0
 10
235.7651403173
 20
263.2556099243
 30
0.0
 10
236.7445654079
 20
260.2554499582
 30
0.0
 10
237.0050170597
 20
258.220337429
 30
0.0
 10
237.0050170597
 20
257.2516723653
 30
0.0
  0
SPLINE
  5
487
100
AcDbEntity
  8
0
100
AcDbSpline
 62
7
  6
CONTINUOUS
 70
0
 71
3
 72
11
 73
7
 74
0
 42
0.0000001
 43
0.0000001
 44
0.0000000001
 40
0.0
 40
0.0
 40
0.0
 40
0.0
 40
0.2189623418
 40
0.4547455172
 40
0.7141696409
 40
1.0
 40
1.0
 40
1.0
 40
1.0
 10
235.0741418542
 20
252.2006469081
 30
0.0
 10
235.3862981034
 20
252.4507547176
 30
0.0
 10
235.9579864957
 20
253.0713518517
 30
0.0
 10
236.5646116674
 20
254.2399059799
 30
0.0
 10
236.9341562152
 20
255.6274797228
 30
0.0
 10
237.0153586484
 20
256.6252878412
 30
0.0
 10
237.0208044829
 20
257.147406371
 30
0.0
  0
SPLINE
  5
488
100
AcDbEntity
  8
0
100
AcDbSpline
 62
7
  6
CONTINUOUS
 70
0
 71
3
 72
18
 73
14
 74
0
 42
0.0000001
 43
0.0000001
 44
0.0000000001
 40
0.0
 40
0.0
 40
0.0
 40
0.0
 40
0.0431387803
 40
0.0887801303
 40
0.1379933119
 40
0.1913818549
 40
0.2491240156
 40
0.3110495566
 40
0.4453226255
 40
0.588719688
 40
0.7338928152
 40
0.8731964459
 40
1.0
 40
1.0
 40
1.0
 40
1.0
 10
231.3570749891
 20
275.689635901
 30
0.0
 10
231.6300402059
 20
275.7960640519
 30
0.0
 10
232.2209881611
 20
275.945553027
 30
0.0
 10
233.1643810029
 20
275.9673443959
 30
0.0
 10
234.1618986011
 20
275.795187693
 30
0.0
 10
235.1939757425
 20
275.4350974525
 30
0.0
 10
236.2419220689
 20
274.8956305109
 30
0.0
 10
237.6720199562
 20
273.9256633898
 30
0.0
 10
239.3600450821
 20
272.3308102148
 30
0.0
 10
241.0845546015
 20
270.0194624719
 30
0.0
 10
242.4336248994
 20
267.4306956973
 30
0.0
 10
243.3044276848
 20
264.7636040067
 30
0.0
 10
243.5360503195
 20
262.9542417823
 30
0.0
 10
243.5360503195
 20
262.0930483069
 30
0.0
  0
SPLINE
  5
489
100
AcDbEntity
  8
0
100
AcDbSpline
 62
7
  6
CONTINUOUS
 70
0
 71
3
 72
18
 73
14
 74
0
 42
0.0000001
 43
0.0000001
 44
0.0000000001
 40
0.0
 40
0.0
 40
0.0
 40
0.0
 40
0.0428366921
 40
0.08742065
 40
0.1351723119
 40
0.1870138159
 40
0.2433617497
 40
0.304201392
 40
0.4374984635
 40
0.5815773857
 40
0.7287110399
 40
0.8706240133
 40
1.0
 40
1.0
 40
1.0
 40
1.0
 10
236.4800967339
 20
276.5712978999
 30
0.0
 10
236.6919968845
 20
276.6936139574
 30
0.0
 10
237.158695156
 20
276.8881157053
 30
0.0
 10
237.9289413524
 20
277.0028177467
 30
0.0
 10
238.7560531138
 20
276.9446869647
 30
0.0
 10
239.6218555977
 20
276.7182429405
 30
0.0
 10
240.5096273457
 20
276.3303930684
 30
0.0
 10
241.7360276188
 20
275.5871112315
 30
0.0
 10
243.1995536206
 20
274.3027626605
 30
0.0
 10
244.7083428688
 20
272.3907322711
 30
0.0
 10
245.9039841333
 20
270.2113179948
 30
0.0
 10
246.689534817
 20
267.9425835157
 30
0.0
 10
246.9113664722
 20
266.3939824366
 30
0.0
 10
246.9208815111
 20
265.6550910772
 30
0.0
  0
SPLINE
  5
48A
100
AcDbEntity
  8
0
100
AcDbSpline
 62
7
  6
CONTINUOUS
 70
0
 71
3
 72
11
 73
7
 74
0
 42
0.0000001
 43
0.0000001
 44
0.0000000001
 40
0.0
 40
0.0
 40
0.0
 40
0.0
 40
0.285786621
 40
0.5451950063
 40
0.7809950127
 40
1.0
 40
1.0
 40
1.0
 40
1.0
 10
243.5354456702
 20
261.9840441365
 30
0.0
 10
243.5302875528
 20
261.5206079876
 30
0.0
 10
243.4576072776
 20
260.6349532161
 30
0.0
 10
243.1288283523
 20
259.4034071603
 30
0.0
 10
242.5898047353
 20
258.3662182741
 30
0.0
 10
242.082137598
 20
257.815324279
 30
0.0
 10
241.8049673867
 20
257.5932474273
 30
0.0
  0
SPLINE
  5
48B
100
AcDbEntity
  8
0
100
AcDbSpline
 62
7
  6
CONTINUOUS
 70
0
 71
3
 72
12
 73
8
 74
0
 42
0.0000001
 43
0.0000001
 44
0.0000000001
 40
0.0
 40
0.0
 40
0.0
 40
0.0
 40
0.2895861037
 40
0.5486300944
 40
0.7816361698
 40
0.8918381297
 40
1.0
 40
1.0
 40
1.0
 40
1.0
 10
246.921567762
 20
265.5488995769
 30
0.0
 10
246.921567762
 20
265.1104582197
 30
0.0
 10
246.8551513775
 20
264.2768381921
 30
0.0
 10
246.5180560412
 20
263.132161698
 30
0.0
 10
246.0337039779
 20
262.3423581925
 30
0.0
 10
245.5445284703
 20
261.8612596374
 30
0.0
 10
245.2718680307
 20
261.6709340112
 30
0.0
 10
245.1300405451
 20
261.5890663069
 30
0.0
  0
SPLINE
  5
48C
100
AcDbEntity
  8
0
100
AcDbSpline
 62
7
  6
CONTINUOUS
 70
0
 71
3
 72
11
 73
7
 74
0
 42
0.0000001
 43
0.0000001
 44
0.0000000001
 40
0.0
 40
0.0
 40
0.0
 40
0.0
 40
0.2331426131
 40
0.4728005586
 40
0.726607355
 40
1.0
 40
1.0
 40
1.0
 40
1.0
 10
245.2005282132
 20
261.432327271
 30
0.0
 10
245.4114002847
 20
261.5374907237
 30
0.0
 10
245.8147391118
 20
261.8038422493
 30
0.0
 10
246.3186102566
 20
262.3465653746
 30
0.0
 10
246.7141083264
 20
263.0191991073
 30
0.0
 10
246.8945432669
 20
263.5238506482
 30
0.0
 10
246.9673492264
 20
263.7904081962
 30
0.0
  0
SPLINE
  5
48D
100
AcDbEntity
  8
0
100
AcDbSpline
 62
7
  6
CONTINUOUS
 70
0
 71
3
 72
9
 73
5
 74
0
 42
0.0000001
 43
0.0000001
 44
0.0000000001
 40
0.0
 40
0.0
 40
0.0
 40
0.0
 40
0.2364991742
 40
1.0
 40
1.0
 40
1.0
 40
1.0
 10
246.9673492264
 20
263.7904081962
 30
0.0
 10
247.0044082252
 20
263.9260887905
 30
0.0
 10
247.1385267581
 20
264.5059310465
 30
0.0
 10
247.186790498
 20
265.1038702876
 30
0.0
 10
247.186790498
 20
265.5579389095
 30
0.0
  0
SPLINE
  5
48E
100
AcDbEntity
  8
0
100
AcDbSpline
 62
7
  6
CONTINUOUS
 70
0
 71
3
 72
11
 73
7
 74
0
 42
0.0000001
 43
0.0000001
 44
0.0000000001
 40
0.0
 40
0.0
 40
0.0
 40
0.0
 40
0.2897995091
 40
0.5490478412
 40
0.7822275653
 40
1.0
 40
1.0
 40
1.0
 40
1.0
 10
252.2248406531
 20
269.4272156393
 30
0.0
 10
252.2248406532
 20
269.0394685653
 30
0.0
 10
252.166284886
 20
268.3023137081
 30
0.0
 10
251.8674234965
 20
267.2895857372
 30
0.0
 10
251.3650622276
 20
266.4677020016
 30
0.0
 10
250.8927778959
 20
266.0708329827
 30
0.0
 10
250.6404339363
 20
265.9251535243
 30
0.0
  0
SPLINE
  5
48F
100
AcDbEntity
  8
0
100
AcDbSpline
 62
7
  6
CONTINUOUS
 70
0
 71
3
 72
9
 73
5
 74
0
 42
0.0000001
 43
0.0000001
 44
0.0000000001
 40
0.0
 40
0.0
 40
0.0
 40
0.0
 40
0.2577744139
 40
1.0
 40
1.0
 40
1.0
 40
1.0
 10
249.4951018543
 20
265.4873748019
 30
0.0
 10
249.5754583855
 20
265.4888989684
 30
0.0
 10
249.8868104757
 20
265.5059063668
 30
0.0
 10
250.1961340401
 20
265.5700512383
 30
0.0
 10
250.4147457024
 20
265.6459643755
 30
0.0
  0
SPLINE
  5
490
100
AcDbEntity
  8
0
100
AcDbSpline
 62
7
  6
CONTINUOUS
 70
0
 71
3
 72
12
 73
8
 74
0
 42
0.0000001
 43
0.0000001
 44
0.0000000001
 40
0.0
 40
0.0
 40
0.0
 40
0.0
 40
0.1086720598
 40
0.2187434866
 40
0.4506441866
 40
0.7092167366
 40
1.0
 40
1.0
 40
1.0
 40
1.0
 10
250.7089908403
 20
265.7682642531
 30
0.0
 10
250.8486175964
 20
265.8364329749
 30
0.0
 10
251.1180033167
 20
265.9992511888
 30
0.0
 10
251.603683225
 20
266.4271537251
 30
0.0
 10
252.0880144885
 20
267.1554242873
 30
0.0
 10
252.4243025158
 20
268.231873967
 30
0.0
 10
252.4900633892
 20
269.0204941346
 30
0.0
 10
252.4900633892
 20
269.4362549713
 30
0.0
  0
SPLINE
  5
491
100
AcDbEntity
  8
0
100
AcDbSpline
 62
7
  6
CONTINUOUS
 70
0
 71
3
 72
11
 73
7
 74
0
 42
0.0000001
 43
0.0000001
 44
0.0000000001
 40
0.0
 40
0.0
 40
0.0
 40
0.0
 40
0.2897898116
 40
0.5490531683
 40
0.7822257386
 40
1.0
 40
1.0
 40
1.0
 40
1.0
 10
262.8313864355
 20
277.1838477641
 30
0.0
 10
262.8313864355
 20
276.8974826769
 30
0.0
 10
262.7881260215
 20
276.353046371
 30
0.0
 10
262.5674261459
 20
275.6050804015
 30
0.0
 10
262.1963769829
 20
274.9980625852
 30
0.0
 10
261.8475557806
 20
274.7049873914
 30
0.0
 10
261.6611982647
 20
274.597366852
 30
0.0
  0
SPLINE
  5
492
100
AcDbEntity
  8
0
100
AcDbSpline
 62
7
  6
CONTINUOUS
 70
0
 71
3
 72
9
 73
5
 74
0
 42
0.0000001
 43
0.0000001
 44
0.0000000001
 40
0.0
 40
0.0
 40
0.0
 40
0.0
 40
0.2545608114
 40
1.0
 40
1.0
 40
1.0
 40
1.0
 10
261.2011910932
 20
274.2829402164
 30
0.0
 10
261.2484119438
 20
274.2906615644
 30
0.0
 10
261.4328686632
 20
274.3269630768
 30
0.0
 10
261.6125691328
 20
274.3881111946
 30
0.0
 10
261.739546952
 20
274.4473463565
 30
0.0
  0
SPLINE
  5
493
100
AcDbEntity
  8
0
100
AcDbSpline
 62
7
  6
CONTINUOUS
 70
0
 71
3
 72
11
 73
7
 74
0
 42
0.0000001
 43
0.0000001
 44
0.0000000001
 40
0.0
 40
0.0
 40
0.0
 40
0.0
 40
0.2182095254
 40
0.4500288493
 40
0.7086964053
 40
1.0
 40
1.0
 40
1.0
 40
1.0
 10
261.739546952
 20
274.4473463565
 30
0.0
 10
261.9521019951
 20
274.5465032996
 30
0.0
 10
262.3557178136
 20
274.8354273539
 30
0.0
 10
262.7895567337
 20
275.4770025522
 30
0.0
 10
263.0467254666
 20
276.286258089
 30
0.0
 10
263.0966091715
 20
276.8797749953
 30
0.0
 10
263.0966091715
 20
277.1928870964
 30
0.0
  0
SPLINE
  5
494
100
AcDbEntity
  8
0
100
AcDbSpline
 62
7
  6
CONTINUOUS
 70
0
 71
3
 72
18
 73
14
 74
0
 42
0.0000001
 43
0.0000001
 44
0.0000000001
 40
0.0
 40
0.0
 40
0.0
 40
0.0
 40
0.1306554025
 40
0.2739478428
 40
0.4221406263
 40
0.5665577662
 40
0.6992299101
 40
0.7594181295
 40
0.8149534888
 40
0.8659289611
 40
0.9129244747
 40
0.9570724748
 40
1.0
 40
1.0
 40
1.0
 40
1.0
 10
257.7924199622
 20
273.4237000326
 30
0.0
 10
257.7824494163
 20
274.0202436654
 30
0.0
 10
257.5960197817
 20
275.2697366317
 30
0.0
 10
256.9473176486
 20
277.0946337496
 30
0.0
 10
255.9661759803
 20
278.8380363383
 30
0.0
 10
254.7353379431
 20
280.3520932691
 30
0.0
 10
253.5466081723
 20
281.3523195575
 30
0.0
 10
252.556737353
 20
281.9122826064
 30
0.0
 10
251.8452817226
 20
282.1913079357
 30
0.0
 10
251.1555192192
 20
282.336149014
 30
0.0
 10
250.5014487931
 20
282.3413336479
 30
0.0
 10
249.8988060326
 20
282.2036478987
 30
0.0
 10
249.5419216184
 20
282.0165764113
 30
0.0
 10
249.381575358
 20
281.9038162368
 30
0.0
  0
SPLINE
  5
495
100
AcDbEntity
  8
0
100
AcDbSpline
 62
7
  6
CONTINUOUS
 70
0
 71
3
 72
11
 73
7
 74
0
 42
0.0000001
 43
0.0000001
 44
0.0000000001
 40
0.0
 40
0.0
 40
0.0
 40
0.0
 40
0.2897996123
 40
0.5490477972
 40
0.7822275837
 40
1.0
 40
1.0
 40
1.0
 40
1.0
 10
257.5281135443
 20
273.3055317018
 30
0.0
 10
257.5281135443
 20
272.9684704015
 30
0.0
 10
257.4772122635
 20
272.3276756992
 30
0.0
 10
257.2174174143
 20
271.4473304734
 30
0.0
 10
256.7807243917
 20
270.7328828554
 30
0.0
 10
256.3701769439
 20
270.3878913003
 30
0.0
 10
256.1508187769
 20
270.2612555528
 30
0.0
  0
SPLINE
  5
496
100
AcDbEntity
  8
0
100
AcDbSpline
 62
7
  6
CONTINUOUS
 70
0
 71
3
 72
17
 73
13
 74
0
 42
0.0000001
 43
0.0000001
 44
0.0000000001
 40
0.0
 40
0.0
 40
0.0
 40
0.0
 40
0.0428419884
 40
0.0874197163
 40
0.1351474242
 40
0.1869461447
 40
0.303738736
 40
0.4368923068
 40
0.5808878238
 40
0.7280680019
 40
0.870203772
 40
1.0
 40
1.0
 40
1.0
 40
1.0
 10
256.0112347121
 20
284.3834492023
 30
0.0
 10
256.1491528697
 20
284.463096253
 30
0.0
 10
256.4528625715
 20
284.5897321344
 30
0.0
 10
256.9539426089
 20
284.6650475851
 30
0.0
 10
257.4920904697
 20
284.6282327211
 30
0.0
 10
258.2740249058
 20
284.4251457625
 30
0.0
 10
259.2753039804
 20
283.8863790174
 30
0.0
 10
260.3848063036
 20
282.9174502167
 30
0.0
 10
261.3703802957
 20
281.6755375387
 30
0.0
 10
262.1530213629
 20
280.2590533812
 30
0.0
 10
262.6708664072
 20
278.7820067242
 30
0.0
 10
262.8208613252
 20
277.7726659115
 30
0.0
 10
262.8303358301
 20
277.2902443026
 30
0.0
  0
SPLINE
  5
497
100
AcDbEntity
  8
0
100
AcDbSpline
 62
7
  6
CONTINUOUS
 70
0
 71
3
 72
9
 73
5
 74
0
 42
0.0000001
 43
0.0000001
 44
0.0000000001
 40
0.0
 40
0.0
 40
0.0
 40
0.0
 40
0.2598095657
 40
1.0
 40
1.0
 40
1.0
 40
1.0
 10
254.9720236798
 20
269.8735639622
 30
0.0
 10
255.053120562
 20
269.8695285138
 30
0.0
 10
255.3656282878
 20
269.8659166681
 30
0.0
 10
255.6795819165
 20
269.9137811491
 30
0.0
 10
255.900732979
 20
269.9816425779
 30
0.0
  0
SPLINE
  5
498
100
AcDbEntity
  8
0
100
AcDbSpline
 62
7
  6
CONTINUOUS
 70
0
 71
3
 72
12
 73
8
 74
0
 42
0.0000001
 43
0.0000001
 44
0.0000000001
 40
0.0
 40
0.0
 40
0.0
 40
0.0
 40
0.108840732
 40
0.2188998196
 40
0.4505150894
 40
0.7089433709
 40
1.0
 40
1.0
 40
1.0
 40
1.0
 10
256.2029715505
 20
270.0976501321
 30
0.0
 10
256.3273254789
 20
270.155624157
 30
0.0
 10
256.5674198565
 20
270.2952877716
 30
0.0
 10
257.0009638191
 20
270.6662831985
 30
0.0
 10
257.4341058146
 20
271.30420689
 30
0.0
 10
257.7346752353
 20
272.2521294555
 30
0.0
 10
257.7933362804
 20
272.9476672158
 30
0.0
 10
257.7933362804
 20
273.3145710337
 30
0.0
  0
SPLINE
  5
499
100
AcDbEntity
  8
0
100
AcDbSpline
 62
7
  6
CONTINUOUS
 70
0
 71
3
 72
18
 73
14
 74
0
 42
0.0000001
 43
0.0000001
 44
0.0000000001
 40
0.0
 40
0.0
 40
0.0
 40
0.0
 40
0.0428353972
 40
0.0874150065
 40
0.1351569825
 40
0.1869840033
 40
0.2433142659
 40
0.3041327542
 40
0.4373846311
 40
0.5814343385
 40
0.7285699763
 40
0.8705279525
 40
1.0
 40
1.0
 40
1.0
 40
1.0
 10
242.9904685753
 20
279.1753612983
 30
0.0
 10
243.1777084363
 20
279.2834558276
 30
0.0
 10
243.5900891895
 20
279.4553143943
 30
0.0
 10
244.2706133708
 20
279.5568697526
 30
0.0
 10
245.0013881693
 20
279.5058574905
 30
0.0
 10
245.7663803183
 20
279.306223223
 30
0.0
 10
246.5508130095
 20
278.9640002144
 30
0.0
 10
247.6345475515
 20
278.3079962829
 30
0.0
 10
248.928188872
 20
277.1742001043
 30
0.0
 10
250.2622862925
 20
275.4857012241
 30
0.0
 10
251.3203709883
 20
273.5605640089
 30
0.0
 10
252.0166581022
 20
271.5557244228
 30
0.0
 10
252.2145595668
 20
270.1868688511
 30
0.0
 10
252.2240647004
 20
269.5334578258
 30
0.0
  0
SPLINE
  5
49A
100
AcDbEntity
  8
0
100
AcDbSpline
 62
7
  6
CONTINUOUS
 70
0
 71
3
 72
17
 73
13
 74
0
 42
0.0000001
 43
0.0000001
 44
0.0000000001
 40
0.0
 40
0.0
 40
0.0
 40
0.0
 40
0.0428447906
 40
0.0874305634
 40
0.1351734588
 40
0.1869957658
 40
0.3038603454
 40
0.4370900034
 40
0.5811386227
 40
0.7283153483
 40
0.8703712664
 40
1.0
 40
1.0
 40
1.0
 40
1.0
 10
249.5008489672
 20
281.7794098857
 30
0.0
 10
249.6634345291
 20
281.8732707364
 30
0.0
 10
250.0214706578
 20
282.0225454187
 30
0.0
 10
250.6122780228
 20
282.110941537
 30
0.0
 10
251.2467526603
 20
282.0670620341
 30
0.0
 10
252.1686873922
 20
281.8268005069
 30
0.0
 10
253.3488654209
 20
281.1901074733
 30
0.0
 10
254.6561426041
 20
280.0461720191
 30
0.0
 10
255.8164337725
 20
278.5805232406
 30
0.0
 10
256.7366888302
 20
276.9098373978
 30
0.0
 10
257.343780519
 20
275.1688523377
 30
0.0
 10
257.5177288325
 20
273.9797564344
 30
0.0
 10
257.5272209138
 20
273.4118396148
 30
0.0
  0
SPLINE
  5
49B
100
AcDbEntity
  8
0
100
AcDbSpline
 62
7
  6
CONTINUOUS
 70
0
 71
3
 72
9
 73
5
 74
0
 42
0.0000001
 43
0.0000001
 44
0.0000000001
 40
0.0
 40
0.0
 40
0.0
 40
0.0
 40
0.2366187396
 40
1.0
 40
1.0
 40
1.0
 40
1.0
 10
213.6481357082
 20
214.0471695282
 30
0.0
 10
213.7941405422
 20
214.3108950672
 30
0.0
 10
214.3520760529
 20
215.4581714439
 30
0.0
 10
214.6769012769
 20
216.7104233961
 30
0.0
 10
214.8210354683
 20
217.6722047586
 30
0.0
  0
SPLINE
  5
49C
100
AcDbEntity
  8
0
100
AcDbSpline
 62
7
  6
CONTINUOUS
 70
0
 71
3
 72
9
 73
5
 74
0
 42
0.0000001
 43
0.0000001
 44
0.0000000001
 40
0.0
 40
0.0
 40
0.0
 40
0.0
 40
0.5100667943
 40
1.0
 40
1.0
 40
1.0
 40
1.0
 10
213.6480902292
 20
214.0466612887
 30
0.0
 10
213.4166845207
 20
213.6302427837
 30
0.0
 10
212.8854884719
 20
212.8533976008
 30
0.0
 10
212.1983857044
 20
212.2075468566
 30
0.0
 10
211.8308140461
 20
211.9350016733
 30
0.0
  0
SPLINE
  5
49D
100
AcDbEntity
  8
0
100
AcDbSpline
 62
7
  6
CONTINUOUS
 70
0
 71
3
 72
9
 73
5
 74
0
 42
0.0000001
 43
0.0000001
 44
0.0000000001
 40
0.0
 40
0.0
 40
0.0
 40
0.0
 40
0.2597075873
 40
1.0
 40
1.0
 40
1.0
 40
1.0
 10
218.3211216453
 20
221.5463277143
 30
0.0
 10
218.567659051
 20
221.6886653021
 30
0.0
 10
219.5060253655
 20
222.2550055209
 30
0.0
 10
220.4000093334
 20
222.8981543625
 30
0.0
 10
221.0165742897
 20
223.4257189021
 30
0.0
  0
SPLINE
  5
49E
100
AcDbEntity
  8
0
100
AcDbSpline
 62
7
  6
CONTINUOUS
 70
0
 71
3
 72
11
 73
7
 74
0
 42
0.0000001
 43
0.0000001
 44
0.0000000001
 40
0.0
 40
0.0
 40
0.0
 40
0.0
 40
0.2887691516
 40
0.5773371721
 40
0.8184531826
 40
1.0
 40
1.0
 40
1.0
 40
1.0
 10
219.3352916924
 20
235.9698929894
 30
0.0
 10
219.3522027208
 20
236.0525337463
 30
0.0
 10
219.4163712833
 20
236.2123271762
 30
0.0
 10
219.5665301287
 20
236.4016282602
 30
0.0
 10
219.7426597372
 20
236.5221070428
 30
0.0
 10
219.8808575582
 20
236.5209140129
 30
0.0
 10
219.9267941688
 20
236.4944141077
 30
0.0
  0
SPLINE
  5
49F
100
AcDbEntity
  8
0
100
AcDbSpline
 62
7
  6
CONTINUOUS
 70
0
 71
3
 72
10
 73
6
 74
0
 42
0.0000001
 43
0.0000001
 44
0.0000000001
 40
0.0
 40
0.0
 40
0.0
 40
0.0
 40
0.4868777432
 40
0.7418388601
 40
1.0
 40
1.0
 40
1.0
 40
1.0
 10
129.1087475665
 20
185.9179141323
 30
0.0
 10
129.0560915654
 20
185.9027953584
 30
0.0
 10
128.979081676
 20
185.8691126213
 30
0.0
 10
128.8687014236
 20
185.8460283303
 30
0.0
 10
128.8110071244
 20
185.8398032933
 30
0.0
 10
128.7830553482
 20
185.8318974777
 30
0.0
  0
SPLINE
  5
4A0
100
AcDbEntity
  8
0
100
AcDbSpline
 62
7
  6
CONTINUOUS
 70
0
 71
3
 72
9
 73
5
 74
0
 42
0.0000001
 43
0.0000001
 44
0.0000000001
 40
0.0
 40
0.0
 40
0.0
 40
0.0
 40
0.491569315
 40
1.0
 40
1.0
 40
1.0
 40
1.0
 10
122.1786336632
 20
200.7283676191
 30
0.0
 10
122.4146300322
 20
200.6092394834
 30
0.0
 10
122.9458451724
 20
200.4601737348
 30
0.0
 10
123.4908677252
 20
200.4949790308
 30
0.0
 10
123.7596139774
 20
200.5453555741
 30
0.0
  0
SPLINE
  5
4A1
100
AcDbEntity
  8
0
100
AcDbSpline
 62
7
  6
CONTINUOUS
 70
0
 71
3
 72
9
 73
5
 74
0
 42
0.0000001
 43
0.0000001
 44
0.0000000001
 40
0.0
 40
0.0
 40
0.0
 40
0.0
 40
0.2513762135
 40
1.0
 40
1.0
 40
1.0
 40
1.0
 10
226.8771690843
 20
243.3729448419
 30
0.0
 10
226.7455713241
 20
245.0858683099
 30
0.0
 10
226.0874448469
 20
251.8890031609
 30
0.0
 10
224.8909904755
 20
258.6403508476
 30
0.0
 10
223.6963102393
 20
263.6152056567
 30
0.0
  0
SPLINE
  5
4A2
100
AcDbEntity
  8
0
100
AcDbSpline
 62
7
  6
CONTINUOUS
 70
0
 71
3
 72
11
 73
7
 74
0
 42
0.0000001
 43
0.0000001
 44
0.0000000001
 40
0.0
 40
0.0
 40
0.0
 40
0.0
 40
0.2670952528
 40
0.5234938628
 40
0.7672487345
 40
1.0
 40
1.0
 40
1.0
 40
1.0
 10
101.546918992
 20
214.4501491153
 30
0.0
 10
101.5524631776
 20
214.2053345077
 30
0.0
 10
101.5964697738
 20
213.7250966299
 30
0.0
 10
101.7865475299
 20
213.0428912919
 30
0.0
 10
102.1145654285
 20
212.4477116901
 30
0.0
 10
102.4380621566
 20
212.1401097567
 30
0.0
 10
102.6161340072
 20
212.0225265535
 30
0.0
  0
SPLINE
  5
4A3
100
AcDbEntity
  8
0
100
AcDbSpline
 62
7
  6
CONTINUOUS
 70
0
 71
3
 72
9
 73
5
 74
0
 42
0.0000001
 43
0.0000001
 44
0.0000000001
 40
0.0
 40
0.0
 40
0.0
 40
0.0
 40
0.5226621487
 40
1.0
 40
1.0
 40
1.0
 40
1.0
 10
197.3826550464
 20
280.0953181575
 30
0.0
 10
201.8981989902
 20
278.0395574751
 30
0.0
 10
210.3768553426
 20
273.7380046051
 30
0.0
 10
218.3746083875
 20
268.5780038846
 30
0.0
 10
222.0080807608
 20
265.8706205206
 30
0.0
  0
SPLINE
  5
4A4
100
AcDbEntity
  8
0
100
AcDbSpline
 62
7
  6
CONTINUOUS
 70
0
 71
3
 72
9
 73
5
 74
0
 42
0.0000001
 43
0.0000001
 44
0.0000000001
 40
0.0
 40
0.0
 40
0.0
 40
0.0
 40
0.2446016409
 40
1.0
 40
1.0
 40
1.0
 40
1.0
 10
105.1792432352
 20
228.6061721275
 30
0.0
 10
105.5679652106
 20
229.0078978173
 30
0.0
 10
107.1879390022
 20
230.6203397106
 30
0.0
 10
108.9255434177
 20
232.1135275195
 30
0.0
 10
110.2877565835
 20
233.1740576667
 30
0.0
  0
SPLINE
  5
4A5
100
AcDbEntity
  8
0
100
AcDbSpline
 62
7
  6
CONTINUOUS
 70
0
 71
3
 72
9
 73
5
 74
0
 42
0.0000001
 43
0.0000001
 44
0.0000000001
 40
0.0
 40
0.0
 40
0.0
 40
0.0
 40
0.4805008874
 40
1.0
 40
1.0
 40
1.0
 40
1.0
 10
34.245665559
 20
163.3832871987
 30
0.0
 10
34.3384152217
 20
160.2623683673
 30
0.0
 10
35.257151171
 20
153.7823860056
 30
0.0
 10
37.2536884287
 20
147.5695775905
 30
0.0
 10
38.5134482356
 20
144.4377402119
 30
0.0
  0
SPLINE
  5
4A6
100
AcDbEntity
  8
0
100
AcDbSpline
 62
7
  6
CONTINUOUS
 70
0
 71
3
 72
17
 73
13
 74
0
 42
0.0000001
 43
0.0000001
 44
0.0000000001
 40
0.0
 40
0.0
 40
0.0
 40
0.0
 40
0.1346982167
 40
0.2701930911
 40
0.4029089686
 40
0.5302080682
 40
0.6514716279
 40
0.7683782503
 40
0.8262495874
 40
0.8841103376
 40
0.9419396496
 40
1.0
 40
1.0
 40
1.0
 40
1.0
 10
38.5135692418
 20
144.4377245125
 30
0.0
 10
38.9406620447
 20
143.3755616096
 30
0.0
 10
39.9563829408
 20
141.3058171471
 30
0.0
 10
41.8790914504
 20
138.4597901934
 30
0.0
 10
44.1409546728
 20
135.9567991684
 30
0.0
 10
46.6710551807
 20
133.9078075953
 30
0.0
 10
49.4176630979
 20
132.4147102569
 30
0.0
 10
51.8719941994
 20
131.7356965591
 30
0.0
 10
53.8525807543
 20
131.6212125438
 30
0.0
 10
55.3271865874
 20
131.765016298
 30
0.0
 10
56.7602741755
 20
132.1482094534
 30
0.0
 10
57.6586539543
 20
132.566597457
 30
0.0
 10
58.0859552037
 20
132.8134114441
 30
0.0
  0
SPLINE
  5
4A7
100
AcDbEntity
  8
0
100
AcDbSpline
 62
7
  6
CONTINUOUS
 70
0
 71
3
 72
11
 73
7
 74
0
 42
0.0000001
 43
0.0000001
 44
0.0000000001
 40
0.0
 40
0.0
 40
0.0
 40
0.0
 40
0.1932828154
 40
0.4386278951
 40
0.7130189524
 40
1.0
 40
1.0
 40
1.0
 40
1.0
 10
151.899254676
 20
179.6761095042
 30
0.0
 10
151.3993108438
 20
179.62847756
 30
0.0
 10
150.2738903571
 20
179.4090367469
 30
0.0
 10
148.5406397355
 20
178.7223964983
 30
0.0
 10
146.7725361563
 20
177.5696452112
 30
0.0
 10
145.7347092284
 20
176.5261776807
 30
0.0
 10
145.2675351143
 20
175.9450032579
 30
0.0
  0
SPLINE
  5
4A8
100
AcDbEntity
  8
0
100
AcDbSpline
 62
7
  6
CONTINUOUS
 70
0
 71
3
 72
11
 73
7
 74
0
 42
0.0000001
 43
0.0000001
 44
0.0000000001
 40
0.0
 40
0.0
 40
0.0
 40
0.0
 40
0.228618651
 40
0.476861283
 40
0.7382400379
 40
1.0
 40
1.0
 40
1.0
 40
1.0
 10
59.9565259321
 20
134.6490360558
 30
0.0
 10
59.4762413808
 20
134.3645621283
 30
0.0
 10
58.3271538376
 20
134.0052221966
 30
0.0
 10
56.4958788696
 20
134.1424012453
 30
0.0
 10
54.7299999935
 20
134.8768830547
 30
0.0
 10
53.7340358815
 20
135.7157618982
 30
0.0
 10
53.3187348498
 20
136.2015730725
 30
0.0
  0
SPLINE
  5
4A9
100
AcDbEntity
  8
0
100
AcDbSpline
 62
7
  6
CONTINUOUS
 70
0
 71
3
 72
11
 73
7
 74
0
 42
0.0000001
 43
0.0000001
 44
0.0000000001
 40
0.0
 40
0.0
 40
0.0
 40
0.0
 40
0.2177835819
 40
0.4509164936
 40
0.7102933713
 40
1.0
 40
1.0
 40
1.0
 40
1.0
 10
34.2448720183
 20
165.5779164706
 30
0.0
 10
34.2448719953
 20
165.3874717981
 30
0.0
 10
34.3152590891
 20
164.9905221903
 30
0.0
 10
34.6161805301
 20
164.4374529378
 30
0.0
 10
35.0919215822
 20
163.9375164247
 30
0.0
 10
35.4899764652
 20
163.6634027643
 30
0.0
 10
35.7093528322
 20
163.5366957012
 30
0.0
  0
SPLINE
  5
4AA
100
AcDbEntity
  8
0
100
AcDbSpline
 62
7
  6
CONTINUOUS
 70
0
 71
3
 72
13
 73
9
 74
0
 42
0.0000001
 43
0.0000001
 44
0.0000000001
 40
0.0
 40
0.0
 40
0.0
 40
0.0
 40
0.2169475685
 40
0.4541729464
 40
0.5925577785
 40
0.7347254105
 40
0.8709363545
 40
1.0
 40
1.0
 40
1.0
 40
1.0
 10
35.9265401823
 20
171.0824231681
 30
0.0
 10
35.8779362152
 20
170.9310487321
 30
0.0
 10
35.8434308718
 20
170.5869917206
 30
0.0
 10
35.9878863258
 20
170.1699924708
 30
0.0
 10
36.151465352
 20
169.8278259555
 30
0.0
 10
36.3268000541
 20
169.5750516972
 30
0.0
 10
36.5650771782
 20
169.3828875378
 30
0.0
 10
36.7769240101
 20
169.3590204431
 30
0.0
 10
36.8672981842
 20
169.3869175784
 30
0.0
  0
SPLINE
  5
4AB
100
AcDbEntity
  8
0
100
AcDbSpline
 62
7
  6
CONTINUOUS
 70
0
 71
3
 72
9
 73
5
 74
0
 42
0.0000001
 43
0.0000001
 44
0.0000000001
 40
0.0
 40
0.0
 40
0.0
 40
0.0
 40
0.4846377055
 40
1.0
 40
1.0
 40
1.0
 40
1.0
 10
39.383348414
 20
174.9577419107
 30
0.0
 10
40.2593184215
 20
175.4633724078
 30
0.0
 10
42.290642726
 20
176.1279790509
 30
0.0
 10
44.4017316844
 20
176.1686784585
 30
0.0
 10
45.4720191007
 20
176.0624214018
 30
0.0
  0
SPLINE
  5
4AC
100
AcDbEntity
  8
0
100
AcDbSpline
 62
7
  6
CONTINUOUS
 70
0
 71
3
 72
9
 73
5
 74
0
 42
0.0000001
 43
0.0000001
 44
0.0000000001
 40
0.0
 40
0.0
 40
0.0
 40
0.0
 40
0.2340602538
 40
1.0
 40
1.0
 40
1.0
 40
1.0
 10
214.8210863782
 20
217.6721971138
 30
0.0
 10
214.8188136225
 20
217.6570386985
 30
0.0
 10
214.8004230121
 20
217.5933650786
 30
0.0
 10
214.748215327
 20
217.5439339237
 30
0.0
 10
214.7047763643
 20
217.5188545766
 30
0.0
  0
SPLINE
  5
4AD
100
AcDbEntity
  8
0
100
AcDbSpline
 62
7
  6
CONTINUOUS
 70
0
 71
3
 72
11
 73
7
 74
0
 42
0.0000001
 43
0.0000001
 44
0.0000000001
 40
0.0
 40
0.0
 40
0.0
 40
0.0
 40
0.226210684
 40
0.4665403488
 40
0.7255020179
 40
1.0
 40
1.0
 40
1.0
 40
1.0
 10
226.8858828696
 20
240.9439740408
 30
0.0
 10
226.8867667804
 20
240.568241482
 30
0.0
 10
226.7400619814
 20
239.7881685673
 30
0.0
 10
226.1413203138
 20
238.723389503
 30
0.0
 10
225.2345415051
 20
237.7969058345
 30
0.0
 10
224.4989375315
 20
237.2940904
 30
0.0
 10
224.1040827917
 20
237.0661222716
 30
0.0
  0
SPLINE
  5
4AE
100
AcDbEntity
  8
0
100
AcDbSpline
 62
7
  6
CONTINUOUS
 70
0
 71
3
 72
11
 73
7
 74
0
 42
0.0000001
 43
0.0000001
 44
0.0000000001
 40
0.0
 40
0.0
 40
0.0
 40
0.0
 40
0.2372441907
 40
0.5000120115
 40
0.7627713515
 40
1.0
 40
1.0
 40
1.0
 40
1.0
 10
143.9749535323
 20
246.1702107309
 30
0.0
 10
143.5483084429
 20
246.4165288156
 30
0.0
 10
142.5561194627
 20
246.7759110798
 30
0.0
 10
140.9697868559
 20
246.9480249937
 30
0.0
 10
139.3834959756
 20
246.7756794685
 30
0.0
 10
138.3914430945
 20
246.4161238319
 30
0.0
 10
137.9648302013
 20
246.1698145292
 30
0.0
  0
SPLINE
  5
4AF
100
AcDbEntity
  8
0
100
AcDbSpline
 62
7
  6
CONTINUOUS
 70
0
 71
3
 72
11
 73
7
 74
0
 42
0.0000001
 43
0.0000001
 44
0.0000000001
 40
0.0
 40
0.0
 40
0.0
 40
0.0
 40
0.2415539894
 40
0.4880036967
 40
0.741233532
 40
1.0
 40
1.0
 40
1.0
 40
1.0
 10
226.5567838874
 20
235.6163215951
 30
0.0
 10
226.5058964649
 20
235.2257508721
 30
0.0
 10
226.2895182383
 20
234.4481631434
 30
0.0
 10
225.6748396737
 20
233.3939620305
 30
0.0
 10
224.8146060141
 20
232.4925892588
 30
0.0
 10
224.1313859499
 20
232.0046907712
 30
0.0
 10
223.7694860941
 20
231.7877570853
 30
0.0
  0
SPLINE
  5
4B0
100
AcDbEntity
  8
0
100
AcDbSpline
 62
7
  6
CONTINUOUS
 70
0
 71
3
 72
12
 73
8
 74
0
 42
0.0000001
 43
0.0000001
 44
0.0000000001
 40
0.0
 40
0.0
 40
0.0
 40
0.0
 40
0.1068270965
 40
0.1929575774
 40
0.303906578
 40
0.6020493848
 40
1.0
 40
1.0
 40
1.0
 40
1.0
 10
224.1488764926
 20
227.2357382065
 30
0.0
 10
224.1833978813
 20
227.2847317327
 30
0.0
 10
224.1679140649
 20
227.4099897088
 30
0.0
 10
224.1102241336
 20
227.5650573927
 30
0.0
 10
223.9846469801
 20
227.8160578037
 30
0.0
 10
223.7363380691
 20
228.1938596039
 30
0.0
 10
223.5027179128
 20
228.5074732069
 30
0.0
 10
223.3664010636
 20
228.6842927958
 30
0.0
  0
SPLINE
  5
4B1
100
AcDbEntity
  8
0
100
AcDbSpline
 62
7
  6
CONTINUOUS
 70
0
 71
3
 72
9
 73
5
 74
0
 42
0.0000001
 43
0.0000001
 44
0.0000000001
 40
0.0
 40
0.0
 40
0.0
 40
0.0
 40
0.4604857314
 40
1.0
 40
1.0
 40
1.0
 40
1.0
 10
118.0738149024
 20
164.1441892788
 30
0.0
 10
118.9460348447
 20
164.3411747209
 30
0.0
 10
120.7803939932
 20
164.9993579613
 30
0.0
 10
122.5917225008
 20
165.6990633753
 30
0.0
 10
123.5960040017
 20
165.9973656974
 30
0.0
  0
SPLINE
  5
4B2
100
AcDbEntity
  8
0
100
AcDbSpline
 62
7
  6
CONTINUOUS
 70
0
 71
3
 72
9
 73
5
 74
0
 42
0.0000001
 43
0.0000001
 44
0.0000000001
 40
0.0
 40
0.0
 40
0.0
 40
0.0
 40
0.2544657674
 40
1.0
 40
1.0
 40
1.0
 40
1.0
 10
123.7327511912
 20
166.0372871174
 30
0.0
 10
123.7840057872
 20
166.0519758161
 30
0.0
 10
123.9857561724
 20
166.1085147223
 30
0.0
 10
124.1890702935
 20
166.1596879773
 30
0.0
 10
124.3416827341
 20
166.1930229425
 30
0.0
  0
SPLINE
  5
4B3
100
AcDbEntity
  8
0
100
AcDbSpline
 62
7
  6
CONTINUOUS
 70
0
 71
3
 72
11
 73
7
 74
0
 42
0.0000001
 43
0.0000001
 44
0.0000000001
 40
0.0
 40
0.0
 40
0.0
 40
0.0
 40
0.1643055537
 40
0.3742417513
 40
0.6514222543
 40
1.0
 40
1.0
 40
1.0
 40
1.0
 10
38.513512265
 20
144.4377648065
 30
0.0
 10
38.5381889655
 20
144.3763510134
 30
0.0
 10
38.6441802678
 20
144.2565920262
 30
0.0
 10
38.8918487782
 20
144.1572875749
 30
0.0
 10
39.2260094937
 20
144.1062022121
 30
0.0
 10
39.4788575704
 20
144.1051337048
 30
0.0
 10
39.6191618021
 20
144.1107131315
 30
0.0
  0
SPLINE
  5
4B4
100
AcDbEntity
  8
0
100
AcDbSpline
 62
7
  6
CONTINUOUS
 70
0
 71
3
 72
9
 73
5
 74
0
 42
0.0000001
 43
0.0000001
 44
0.0000000001
 40
0.0
 40
0.0
 40
0.0
 40
0.0
 40
0.5239943802
 40
1.0
 40
1.0
 40
1.0
 40
1.0
 10
151.415671326
 20
180.9792044285
 30
0.0
 10
151.2942061914
 20
180.6315647746
 30
0.0
 10
150.9593976999
 20
179.9947020144
 30
0.0
 10
150.3922701979
 20
179.5367727809
 30
0.0
 10
150.0896272567
 20
179.3942482365
 30
0.0
  0
SPLINE
  5
4B5
100
AcDbEntity
  8
0
100
AcDbSpline
 62
7
  6
CONTINUOUS
 70
0
 71
3
 72
9
 73
5
 74
0
 42
0.0000001
 43
0.0000001
 44
0.0000000001
 40
0.0
 40
0.0
 40
0.0
 40
0.0
 40
0.5150290825
 40
1.0
 40
1.0
 40
1.0
 40
1.0
 10
89.0780149506
 20
204.5587718804
 30
0.0
 10
89.3279538918
 20
204.8508907087
 30
0.0
 10
89.8379384842
 20
205.3985230072
 30
0.0
 10
90.4244220561
 20
205.8664353665
 30
0.0
 10
90.7257112297
 20
206.0671316262
 30
0.0
  0
SPLINE
  5
4B6
100
AcDbEntity
  8
0
100
AcDbSpline
 62
7
  6
CONTINUOUS
 70
0
 71
3
 72
9
 73
5
 74
0
 42
0.0000001
 43
0.0000001
 44
0.0000000001
 40
0.0
 40
0.0
 40
0.0
 40
0.0
 40
0.5838097477
 40
1.0
 40
1.0
 40
1.0
 40
1.0
 10
146.46522151
 20
178.120992209
 30
0.0
 10
146.5050454945
 20
177.9918493174
 30
0.0
 10
146.5573309982
 20
177.7657806857
 30
0.0
 10
146.5337394188
 20
177.5240841053
 30
0.0
 10
146.490946113
 20
177.4377675212
 30
0.0
  0
SPLINE
  5
4B7
100
AcDbEntity
  8
0
100
AcDbSpline
 62
7
  6
CONTINUOUS
 70
0
 71
3
 72
11
 73
7
 74
0
 42
0.0000001
 43
0.0000001
 44
0.0000000001
 40
0.0
 40
0.0
 40
0.0
 40
0.0
 40
0.1743467578
 40
0.4041802392
 40
0.685827809
 40
1.0
 40
1.0
 40
1.0
 40
1.0
 10
127.4817203285
 20
206.6362847463
 30
0.0
 10
127.4452021836
 20
206.5621918503
 30
0.0
 10
127.4268993839
 20
206.3619702502
 30
0.0
 10
127.4985798359
 20
206.0444745521
 30
0.0
 10
127.6323232601
 20
205.6784339758
 30
0.0
 10
127.7056864114
 20
205.3990821903
 30
0.0
 10
127.7026232781
 20
205.250262586
 30
0.0
  0
SPLINE
  5
4B8
100
AcDbEntity
  8
0
100
AcDbSpline
 62
7
  6
CONTINUOUS
 70
0
 71
3
 72
9
 73
5
 74
0
 42
0.0000001
 43
0.0000001
 44
0.0000000001
 40
0.0
 40
0.0
 40
0.0
 40
0.0
 40
0.7526929217
 40
1.0
 40
1.0
 40
1.0
 40
1.0
 10
146.4652455559
 20
178.1209764264
 30
0.0
 10
146.0349932507
 20
177.6741001371
 30
0.0
 10
145.5121806841
 20
177.0321643401
 30
0.0
 10
145.0422864086
 20
176.3552510378
 30
0.0
 10
144.9286118599
 20
176.1860755657
 30
0.0
  0
SPLINE
  5
4B9
100
AcDbEntity
  8
0
100
AcDbSpline
 62
7
  6
CONTINUOUS
 70
0
 71
3
 72
9
 73
5
 74
0
 42
0.0000001
 43
0.0000001
 44
0.0000000001
 40
0.0
 40
0.0
 40
0.0
 40
0.0
 40
0.2568261721
 40
1.0
 40
1.0
 40
1.0
 40
1.0
 10
144.883531213
 20
176.1186859964
 30
0.0
 10
144.8323528623
 20
176.0418425124
 30
0.0
 10
144.6351646651
 20
175.7412484637
 30
0.0
 10
144.4448289873
 20
175.4362136899
 30
0.0
 10
144.3054385168
 20
175.2082960775
 30
0.0
  0
SPLINE
  5
4BA
100
AcDbEntity
  8
0
100
AcDbSpline
 62
7
  6
CONTINUOUS
 70
0
 71
3
 72
11
 73
7
 74
0
 42
0.0000001
 43
0.0000001
 44
0.0000000001
 40
0.0
 40
0.0
 40
0.0
 40
0.0
 40
0.3171271624
 40
0.5808255271
 40
0.8039519354
 40
1.0
 40
1.0
 40
1.0
 40
1.0
 10
144.1253638714
 20
174.9114316384
 30
0.0
 10
143.8315934224
 20
174.4236239954
 30
0.0
 10
143.3062465875
 20
173.5227877176
 30
0.0
 10
142.5074098351
 20
172.3178306558
 30
0.0
 10
141.6976994072
 20
171.3902634801
 30
0.0
 10
141.0935825933
 20
170.9286013501
 30
0.0
 10
140.7887199136
 20
170.7525881243
 30
0.0
  0
SPLINE
  5
4BB
100
AcDbEntity
  8
0
100
AcDbSpline
 62
7
  6
CONTINUOUS
 70
0
 71
3
 72
9
 73
5
 74
0
 42
0.0000001
 43
0.0000001
 44
0.0000000001
 40
0.0
 40
0.0
 40
0.0
 40
0.0
 40
0.2464716293
 40
1.0
 40
1.0
 40
1.0
 40
1.0
 10
209.7501416977
 20
210.5672108383
 30
0.0
 10
209.9223070454
 20
210.6666090431
 30
0.0
 10
210.6102029957
 20
211.0881349081
 30
0.0
 10
211.2542137435
 20
211.5803764355
 30
0.0
 10
211.7103446037
 20
211.9820488361
 30
0.0
  0
SPLINE
  5
4BC
100
AcDbEntity
  8
0
100
AcDbSpline
 62
7
  6
CONTINUOUS
 70
0
 71
3
 72
9
 73
5
 74
0
 42
0.0000001
 43
0.0000001
 44
0.0000000001
 40
0.0
 40
0.0
 40
0.0
 40
0.0
 40
0.2457165616
 40
1.0
 40
1.0
 40
1.0
 40
1.0
 10
211.7103446037
 20
211.9820488361
 30
0.0
 10
211.8762593766
 20
212.1281546819
 30
0.0
 10
212.5364705507
 20
212.7396974561
 30
0.0
 10
213.1363711556
 20
213.4156075873
 30
0.0
 10
213.5527175084
 20
213.9515302666
 30
0.0
  0
SPLINE
  5
4BD
100
AcDbEntity
  8
0
100
AcDbSpline
 62
7
  6
CONTINUOUS
 70
0
 71
3
 72
11
 73
7
 74
0
 42
0.0000001
 43
0.0000001
 44
0.0000000001
 40
0.0
 40
0.0
 40
0.0
 40
0.0
 40
0.191284082
 40
0.4240955699
 40
0.6945036565
 40
1.0
 40
1.0
 40
1.0
 40
1.0
 10
159.560438195
 20
181.5932235907
 30
0.0
 10
159.2711850936
 20
181.4430527211
 30
0.0
 10
158.5740946885
 20
181.2216373294
 30
0.0
 10
157.399858379
 20
181.0595951757
 30
0.0
 10
156.0190007751
 20
181.0379128344
 30
0.0
 10
155.0396506567
 20
181.1180467784
 30
0.0
 10
154.5229780873
 20
181.1811200075
 30
0.0
  0
SPLINE
  5
4BE
100
AcDbEntity
  8
0
100
AcDbSpline
 62
7
  6
CONTINUOUS
 70
0
 71
3
 72
9
 73
5
 74
0
 42
0.0000001
 43
0.0000001
 44
0.0000000001
 40
0.0
 40
0.0
 40
0.0
 40
0.0
 40
0.2448817043
 40
1.0
 40
1.0
 40
1.0
 40
1.0
 10
146.4909276867
 20
177.4377898591
 30
0.0
 10
146.3981000363
 20
177.3509860312
 30
0.0
 10
146.0276334672
 20
176.9873101288
 30
0.0
 10
145.6926406169
 20
176.5884014884
 30
0.0
 10
145.4569501319
 20
176.2753008769
 30
0.0
  0
SPLINE
  5
4BF
100
AcDbEntity
  8
0
100
AcDbSpline
 62
7
  6
CONTINUOUS
 70
0
 71
3
 72
9
 73
5
 74
0
 42
0.0000001
 43
0.0000001
 44
0.0000000001
 40
0.0
 40
0.0
 40
0.0
 40
0.0
 40
0.4900815646
 40
1.0
 40
1.0
 40
1.0
 40
1.0
 10
217.0864154014
 20
219.3182334685
 30
0.0
 10
217.5540248052
 20
219.5488181968
 30
0.0
 10
218.4327326877
 20
220.180616576
 30
0.0
 10
219.1099190146
 20
221.0138273651
 30
0.0
 10
219.4093787207
 20
221.4661574252
 30
0.0
  0
SPLINE
  5
4C0
100
AcDbEntity
  8
0
100
AcDbSpline
 62
7
  6
CONTINUOUS
 70
0
 71
3
 72
9
 73
5
 74
0
 42
0.0000001
 43
0.0000001
 44
0.0000000001
 40
0.0
 40
0.0
 40
0.0
 40
0.0
 40
0.2454799147
 40
1.0
 40
1.0
 40
1.0
 40
1.0
 10
219.4093787207
 20
221.4661574252
 30
0.0
 10
219.4676741458
 20
221.5542119201
 30
0.0
 10
219.6982415096
 20
221.9174674883
 30
0.0
 10
219.901812916
 20
222.2976446773
 30
0.0
 10
220.0412791053
 20
222.5907410523
 30
0.0
  0
SPLINE
  5
4C1
100
AcDbEntity
  8
0
100
AcDbSpline
 62
7
  6
CONTINUOUS
 70
0
 71
3
 72
9
 73
5
 74
0
 42
0.0000001
 43
0.0000001
 44
0.0000000001
 40
0.0
 40
0.0
 40
0.0
 40
0.0
 40
0.265850529
 40
1.0
 40
1.0
 40
1.0
 40
1.0
 10
214.7047945513
 20
217.5189759389
 30
0.0
 10
214.6570354786
 20
217.200278494
 30
0.0
 10
214.4353252978
 20
216.0090068476
 30
0.0
 10
214.0314382254
 20
214.8453909576
 30
0.0
 10
213.6120027357
 20
214.0605208907
 30
0.0
  0
SPLINE
  5
4C2
100
AcDbEntity
  8
0
100
AcDbSpline
 62
7
  6
CONTINUOUS
 70
0
 71
3
 72
10
 73
6
 74
0
 42
0.0000001
 43
0.0000001
 44
0.0000000001
 40
0.0
 40
0.0
 40
0.0
 40
0.0
 40
0.4409156241
 40
0.7021124941
 40
1.0
 40
1.0
 40
1.0
 40
1.0
 10
150.0899383947
 20
179.3944002265
 30
0.0
 10
149.503968669
 20
179.2342879916
 30
0.0
 10
148.5891825338
 20
178.8958069769
 30
0.0
 10
147.3947229703
 20
178.2026039143
 30
0.0
 10
146.790679167
 20
177.7182535634
 30
0.0
 10
146.4909986805
 20
177.4378606518
 30
0.0
  0
SPLINE
  5
4C3
100
AcDbEntity
  8
0
100
AcDbSpline
 62
7
  6
CONTINUOUS
 70
0
 71
3
 72
9
 73
5
 74
0
 42
0.0000001
 43
0.0000001
 44
0.0000000001
 40
0.0
 40
0.0
 40
0.0
 40
0.0
 40
0.5184304307
 40
1.0
 40
1.0
 40
1.0
 40
1.0
 10
125.0120368807
 20
166.868015012
 30
0.0
 10
122.1711777963
 20
166.462362095
 30
0.0
 10
116.724601146
 20
165.4221749201
 30
0.0
 10
111.4095429999
 20
163.8306830051
 30
0.0
 10
108.9077309382
 20
162.9105931013
 30
0.0
  0
SPLINE
  5
4C4
100
AcDbEntity
  8
0
100
AcDbSpline
 62
7
  6
CONTINUOUS
 70
0
 71
3
 72
9
 73
5
 74
0
 42
0.0000001
 43
0.0000001
 44
0.0000000001
 40
0.0
 40
0.0
 40
0.0
 40
0.0
 40
0.2426876826
 40
1.0
 40
1.0
 40
1.0
 40
1.0
 10
212.0999768644
 20
212.1477431385
 30
0.0
 10
212.2438102197
 20
212.2687773479
 30
0.0
 10
212.8115075682
 20
212.7970191256
 30
0.0
 10
213.2708655535
 20
213.4370769991
 30
0.0
 10
213.5529268101
 20
213.9514155727
 30
0.0
  0
SPLINE
  5
4C5
100
AcDbEntity
  8
0
100
AcDbSpline
 62
7
  6
CONTINUOUS
 70
0
 71
3
 72
9
 73
5
 74
0
 42
0.0000001
 43
0.0000001
 44
0.0000000001
 40
0.0
 40
0.0
 40
0.0
 40
0.0
 40
0.2836324228
 40
1.0
 40
1.0
 40
1.0
 40
1.0
 10
151.4156795189
 20
180.9792064512
 30
0.0
 10
151.7029477205
 20
181.0475289542
 30
0.0
 10
152.72578241
 20
181.2425789819
 30
0.0
 10
153.7826840764
 20
181.271484041
 30
0.0
 10
154.5229780873
 20
181.1811200075
 30
0.0
  0
SPLINE
  5
4C6
100
AcDbEntity
  8
0
100
AcDbSpline
 62
7
  6
CONTINUOUS
 70
0
 71
3
 72
9
 73
5
 74
0
 42
0.0000001
 43
0.0000001
 44
0.0000000001
 40
0.0
 40
0.0
 40
0.0
 40
0.0
 40
0.2651341235
 40
1.0
 40
1.0
 40
1.0
 40
1.0
 10
145.4569488032
 20
176.2752504072
 30
0.0
 10
145.3775569824
 20
176.169828374
 30
0.0
 10
145.0850871862
 20
175.7669193977
 30
0.0
 10
144.8142846899
 20
175.3489575819
 30
0.0
 10
144.6165118374
 20
175.0412474364
 30
0.0
  0
SPLINE
  5
4C7
100
AcDbEntity
  8
0
100
AcDbSpline
 62
7
  6
CONTINUOUS
 70
0
 71
3
 72
9
 73
5
 74
0
 42
0.0000001
 43
0.0000001
 44
0.0000000001
 40
0.0
 40
0.0
 40
0.0
 40
0.0
 40
0.5324867659
 40
1.0
 40
1.0
 40
1.0
 40
1.0
 10
124.3417040339
 20
166.1930294622
 30
0.0
 10
124.2629992715
 20
166.0835008277
 30
0.0
 10
124.0916263843
 20
165.8921873394
 30
0.0
 10
123.8651890686
 20
165.7649507643
 30
0.0
 10
123.7523611917
 20
165.7290010407
 30
0.0
  0
SPLINE
  5
4C8
100
AcDbEntity
  8
0
100
AcDbSpline
 62
7
  6
CONTINUOUS
 70
0
 71
3
 72
9
 73
5
 74
0
 42
0.0000001
 43
0.0000001
 44
0.0000000001
 40
0.0
 40
0.0
 40
0.0
 40
0.0
 40
0.2581272757
 40
1.0
 40
1.0
 40
1.0
 40
1.0
 10
110.9169869833
 20
166.9387117672
 30
0.0
 10
110.7807297025
 20
166.5757215825
 30
0.0
 10
110.2185729054
 20
165.1828047015
 30
0.0
 10
109.5140076909
 20
163.8456705501
 30
0.0
 10
108.9077921862
 20
162.9106610641
 30
0.0
  0
SPLINE
  5
4C9
100
AcDbEntity
  8
0
100
AcDbSpline
 62
7
  6
CONTINUOUS
 70
0
 71
3
 72
9
 73
5
 74
0
 42
0.0000001
 43
0.0000001
 44
0.0000000001
 40
0.0
 40
0.0
 40
0.0
 40
0.0
 40
0.5222909334
 40
1.0
 40
1.0
 40
1.0
 40
1.0
 10
127.2578183581
 20
171.5540869595
 30
0.0
 10
124.3321790676
 20
171.0896255482
 30
0.0
 10
118.7729971773
 20
169.8991187951
 30
0.0
 10
113.397049057
 20
168.027202985
 30
0.0
 10
110.9164805533
 20
166.9373627595
 30
0.0
  0
SPLINE
  5
4CA
100
AcDbEntity
  8
0
100
AcDbSpline
 62
7
  6
CONTINUOUS
 70
0
 71
3
 72
9
 73
5
 74
0
 42
0.0000001
 43
0.0000001
 44
0.0000000001
 40
0.0
 40
0.0
 40
0.0
 40
0.0
 40
0.2657643076
 40
1.0
 40
1.0
 40
1.0
 40
1.0
 10
214.8989064196
 20
218.0203285865
 30
0.0
 10
214.998817332
 20
218.0900692431
 30
0.0
 10
215.3775903383
 20
218.3484301668
 30
0.0
 10
215.7664572108
 20
218.5917619645
 30
0.0
 10
216.0553490725
 20
218.7645509597
 30
0.0
  0
SPLINE
  5
4CB
100
AcDbEntity
  8
0
100
AcDbSpline
 62
7
  6
CONTINUOUS
 70
0
 71
3
 72
9
 73
5
 74
0
 42
0.0000001
 43
0.0000001
 44
0.0000000001
 40
0.0
 40
0.0
 40
0.0
 40
0.0
 40
0.2270348075
 40
1.0
 40
1.0
 40
1.0
 40
1.0
 10
151.589167193
 20
179.6799639007
 30
0.0
 10
151.4742685821
 20
179.6677109697
 30
0.0
 10
150.9692839907
 20
179.6038465029
 30
0.0
 10
150.4696426923
 20
179.498089701
 30
0.0
 10
150.0901306446
 20
179.3944720036
 30
0.0
  0
SPLINE
  5
4CC
100
AcDbEntity
  8
0
100
AcDbSpline
 62
7
  6
CONTINUOUS
 70
0
 71
3
 72
9
 73
5
 74
0
 42
0.0000001
 43
0.0000001
 44
0.0000000001
 40
0.0
 40
0.0
 40
0.0
 40
0.0
 40
0.4349931736
 40
1.0
 40
1.0
 40
1.0
 40
1.0
 10
217.2881166876
 20
219.0045111682
 30
0.0
 10
217.2187421824
 20
218.9749197796
 30
0.0
 10
217.0246492899
 20
218.9837055421
 30
0.0
 10
216.8938798568
 20
219.1223516731
 30
0.0
 10
216.8483618147
 20
219.2090993908
 30
0.0
  0
SPLINE
  5
4CD
100
AcDbEntity
  8
0
100
AcDbSpline
 62
7
  6
CONTINUOUS
 70
0
 71
3
 72
10
 73
6
 74
0
 42
0.0000001
 43
0.0000001
 44
0.0000000001
 40
0.0
 40
0.0
 40
0.0
 40
0.0
 40
0.4096501675
 40
0.6834818595
 40
1.0
 40
1.0
 40
1.0
 40
1.0
 10
216.4412681315
 20
218.6074828865
 30
0.0
 10
216.3870319036
 20
218.5797405572
 30
0.0
 10
216.2712954019
 20
218.5830427684
 30
0.0
 10
216.1439229824
 20
218.6613548382
 30
0.0
 10
216.0826208036
 20
218.7262801941
 30
0.0
 10
216.0553023792
 20
218.7646113292
 30
0.0
  0
SPLINE
  5
4CE
100
AcDbEntity
  8
0
100
AcDbSpline
 62
7
  6
CONTINUOUS
 70
0
 71
3
 72
11
 73
7
 74
0
 42
0.0000001
 43
0.0000001
 44
0.0000000001
 40
0.0
 40
0.0
 40
0.0
 40
0.0
 40
0.2586995354
 40
0.5118996866
 40
0.7583638499
 40
1.0
 40
1.0
 40
1.0
 40
1.0
 10
223.3663994534
 20
228.6843096875
 30
0.0
 10
223.7279321314
 20
228.900689785
 30
0.0
 10
224.4105681584
 20
229.3874415672
 30
0.0
 10
225.2704443179
 20
230.2869669755
 30
0.0
 10
225.8851873175
 20
231.3396413825
 30
0.0
 10
226.1017490778
 20
232.1163714425
 30
0.0
 10
226.1528290596
 20
232.5065902607
 30
0.0
  0
SPLINE
  5
4CF
100
AcDbEntity
  8
0
100
AcDbSpline
 62
7
  6
CONTINUOUS
 70
0
 71
3
 72
9
 73
5
 74
0
 42
0.0000001
 43
0.0000001
 44
0.0000000001
 40
0.0
 40
0.0
 40
0.0
 40
0.0
 40
0.2409338842
 40
1.0
 40
1.0
 40
1.0
 40
1.0
 10
223.7695147311
 20
231.7877772758
 30
0.0
 10
223.8259585936
 20
232.2089537592
 30
0.0
 10
224.0274818273
 20
233.9613888655
 30
0.0
 10
224.1040711766
 20
235.7273378958
 30
0.0
 10
224.1040707107
 20
237.0661239634
 30
0.0
  0
SPLINE
  5
4D0
100
AcDbEntity
  8
0
100
AcDbSpline
 62
7
  6
CONTINUOUS
 70
0
 71
3
 72
9
 73
5
 74
0
 42
0.0000001
 43
0.0000001
 44
0.0000000001
 40
0.0
 40
0.0
 40
0.0
 40
0.0
 40
0.517698783
 40
1.0
 40
1.0
 40
1.0
 40
1.0
 10
129.1004916202
 20
184.9103000269
 30
0.0
 10
131.8618750118
 20
185.64996136
 30
0.0
 10
137.1222920116
 20
187.3740663398
 30
0.0
 10
142.1305718649
 20
189.7480371186
 30
0.0
 10
144.4409504945
 20
191.0728503262
 30
0.0
  0
SPLINE
  5
4D1
100
AcDbEntity
  8
0
100
AcDbSpline
 62
7
  6
CONTINUOUS
 70
0
 71
3
 72
9
 73
5
 74
0
 42
0.0000001
 43
0.0000001
 44
0.0000000001
 40
0.0
 40
0.0
 40
0.0
 40
0.0
 40
0.5149857163
 40
1.0
 40
1.0
 40
1.0
 40
1.0
 10
126.4513344585
 20
185.1422739876
 30
0.0
 10
124.0025797106
 20
184.3711039015
 30
0.0
 10
119.3150491216
 20
182.6474296752
 30
0.0
 10
114.8354107892
 20
180.4306684994
 30
0.0
 10
112.7414451076
 20
179.221722747
 30
0.0
  0
SPLINE
  5
4D2
100
AcDbEntity
  8
0
100
AcDbSpline
 62
7
  6
CONTINUOUS
 70
0
 71
3
 72
9
 73
5
 74
0
 42
0.0000001
 43
0.0000001
 44
0.0000000001
 40
0.0
 40
0.0
 40
0.0
 40
0.0
 40
0.2612513193
 40
1.0
 40
1.0
 40
1.0
 40
1.0
 10
131.3949225988
 20
186.6045753237
 30
0.0
 10
132.5767370015
 20
186.9733716125
 30
0.0
 10
137.064257261
 20
188.4949759361
 30
0.0
 10
141.4074061294
 20
190.4672971653
 30
0.0
 10
144.4397824416
 20
192.2166497492
 30
0.0
  0
SPLINE
  5
4D3
100
AcDbEntity
  8
0
100
AcDbSpline
 62
7
  6
CONTINUOUS
 70
0
 71
3
 72
9
 73
5
 74
0
 42
0.0000001
 43
0.0000001
 44
0.0000000001
 40
0.0
 40
0.0
 40
0.0
 40
0.0
 40
0.4857775501
 40
1.0
 40
1.0
 40
1.0
 40
1.0
 10
144.4397824416
 20
192.2166497492
 30
0.0
 10
142.4368771289
 20
191.0808439349
 30
0.0
 10
138.1710994111
 20
188.9894973595
 30
0.0
 10
133.7171670936
 20
187.3447966827
 30
0.0
 10
131.3949225988
 20
186.6045753237
 30
0.0
  0
SPLINE
  5
4D4
100
AcDbEntity
  8
0
100
AcDbSpline
 62
7
  6
CONTINUOUS
 70
0
 71
3
 72
9
 73
5
 74
0
 42
0.0000001
 43
0.0000001
 44
0.0000000001
 40
0.0
 40
0.0
 40
0.0
 40
0.0
 40
0.2433995345
 40
1.0
 40
1.0
 40
1.0
 40
1.0
 10
112.1438706534
 20
186.8387015718
 30
0.0
 10
112.154588527
 20
186.8116792374
 30
0.0
 10
112.1954973271
 20
186.6994388843
 30
0.0
 10
112.2237678116
 20
186.5826380673
 30
0.0
 10
112.2380071666
 20
186.4934029878
 30
0.0
  0
SPLINE
  5
4D5
100
AcDbEntity
  8
0
100
AcDbSpline
 62
7
  6
CONTINUOUS
 70
0
 71
3
 72
14
 73
10
 74
0
 42
0.0000001
 43
0.0000001
 44
0.0000000001
 40
0.0
 40
0.0
 40
0.0
 40
0.0
 40
0.0628418592
 40
0.1262918938
 40
0.2528705981
 40
0.379281879
 40
0.505140155
 40
0.7542650434
 40
1.0
 40
1.0
 40
1.0
 40
1.0
 10
127.1737883901
 20
201.6353284802
 30
0.0
 10
127.1123000288
 20
201.5084028531
 30
0.0
 10
126.9640239897
 20
201.2654400176
 30
0.0
 10
126.6249936313
 20
200.8103025861
 30
0.0
 10
126.1618348894
 20
200.2701085414
 30
0.0
 10
125.5443905064
 20
199.6840730413
 30
0.0
 10
124.6808999752
 20
198.9619756259
 30
0.0
 10
123.5506466112
 20
198.144017929
 30
0.0
 10
122.6029461167
 20
197.5643417596
 30
0.0
 10
122.1340649837
 20
197.2739924782
 30
0.0
  0
SPLINE
  5
4D6
100
AcDbEntity
  8
0
100
AcDbSpline
 62
7
  6
CONTINUOUS
 70
0
 71
3
 72
9
 73
5
 74
0
 42
0.0000001
 43
0.0000001
 44
0.0000000001
 40
0.0
 40
0.0
 40
0.0
 40
0.0
 40
0.5328159486
 40
1.0
 40
1.0
 40
1.0
 40
1.0
 10
128.7495673
 20
186.8392674095
 30
0.0
 10
128.61443893
 20
189.5305201107
 30
0.0
 10
128.2932031061
 20
194.5785453113
 30
0.0
 10
127.8237892289
 20
199.6146962537
 30
0.0
 10
127.5772470867
 20
201.9645168402
 30
0.0
  0
SPLINE
  5
4D7
100
AcDbEntity
  8
0
100
AcDbSpline
 62
7
  6
CONTINUOUS
 70
0
 71
3
 72
9
 73
5
 74
0
 42
0.0000001
 43
0.0000001
 44
0.0000000001
 40
0.0
 40
0.0
 40
0.0
 40
0.0
 40
0.4867053011
 40
1.0
 40
1.0
 40
1.0
 40
1.0
 10
115.1415617634
 20
181.5574387561
 30
0.0
 10
117.2493595377
 20
182.643445896
 30
0.0
 10
121.7106143504
 20
184.6265514507
 30
0.0
 10
126.3430656059
 20
186.1598596724
 30
0.0
 10
128.7496553718
 20
186.8392922741
 30
0.0
  0
SPLINE
  5
4D8
100
AcDbEntity
  8
0
100
AcDbSpline
 62
7
  6
CONTINUOUS
 70
0
 71
3
 72
9
 73
5
 74
0
 42
0.0000001
 43
0.0000001
 44
0.0000000001
 40
0.0
 40
0.0
 40
0.0
 40
0.0
 40
0.2372812028
 40
1.0
 40
1.0
 40
1.0
 40
1.0
 10
110.8892153991
 20
185.8339159241
 30
0.0
 10
110.8950758475
 20
185.8279585543
 30
0.0
 10
110.9180650408
 20
185.8012226151
 30
0.0
 10
110.9342143969
 20
185.7686334869
 30
0.0
 10
110.9414316192
 20
185.7427592199
 30
0.0
  0
SPLINE
  5
4D9
100
AcDbEntity
  8
0
100
AcDbSpline
 62
7
  6
CONTINUOUS
 70
0
 71
3
 72
9
 73
5
 74
0
 42
0.0000001
 43
0.0000001
 44
0.0000000001
 40
0.0
 40
0.0
 40
0.0
 40
0.0
 40
0.5064075429
 40
1.0
 40
1.0
 40
1.0
 40
1.0
 10
112.6778054298
 20
180.2136069249
 30
0.0
 10
112.7065519349
 20
181.2768117069
 30
0.0
 10
112.6286895941
 20
183.3797265103
 30
0.0
 10
112.3955518899
 20
185.4687738232
 30
0.0
 10
112.2380332979
 20
186.4934149902
 30
0.0
  0
SPLINE
  5
4DA
100
AcDbEntity
  8
0
100
AcDbSpline
 62
7
  6
CONTINUOUS
 70
0
 71
3
 72
9
 73
5
 74
0
 42
0.0000001
 43
0.0000001
 44
0.0000000001
 40
0.0
 40
0.0
 40
0.0
 40
0.0
 40
0.4842407793
 40
1.0
 40
1.0
 40
1.0
 40
1.0
 10
112.67822923
 20
180.2139985893
 30
0.0
 10
112.310296565
 20
181.0753679254
 30
0.0
 10
111.6298839755
 20
182.8905141859
 30
0.0
 10
111.157851931
 20
184.7695203765
 30
0.0
 10
110.9417452865
 20
185.7434579862
 30
0.0
  0
SPLINE
  5
4DB
100
AcDbEntity
  8
0
100
AcDbSpline
 62
7
  6
CONTINUOUS
 70
0
 71
3
 72
20
 73
16
 74
0
 42
0.0000001
 43
0.0000001
 44
0.0000000001
 40
0.0
 40
0.0
 40
0.0
 40
0.0
 40
0.0271817831
 40
0.0549783545
 40
0.0832436765
 40
0.1123951157
 40
0.2346792362
 40
0.3649659327
 40
0.5001805136
 40
0.6361344056
 40
0.767177846
 40
0.8293832015
 40
0.8891134468
 40
0.9466162191
 40
1.0
 40
1.0
 40
1.0
 40
1.0
 10
110.8891562777
 20
185.8338203199
 30
0.0
 10
110.821071264
 20
185.9044855512
 30
0.0
 10
110.6733860492
 20
186.0374243169
 30
0.0
 10
110.4641633493
 20
186.2532350737
 30
0.0
 10
110.240905042
 20
186.4649493886
 30
0.0
 10
109.7644834757
 20
186.9052425575
 30
0.0
 10
109.0111092926
 20
187.5885412455
 30
0.0
 10
107.9632837183
 20
188.5169129023
 30
0.0
 10
106.879814031
 20
189.4794790762
 30
0.0
 10
105.7930452843
 20
190.4423908467
 30
0.0
 10
104.8987925543
 20
191.2253057993
 30
0.0
 10
104.1953461779
 20
191.8078997279
 30
0.0
 10
103.6839511586
 20
192.2056919709
 30
0.0
 10
103.1888512871
 20
192.5720878874
 30
0.0
 10
102.8657677256
 20
192.8085522103
 30
0.0
 10
102.707443552
 20
192.9184348198
 30
0.0
  0
SPLINE
  5
4DC
100
AcDbEntity
  8
0
100
AcDbSpline
 62
7
  6
CONTINUOUS
 70
0
 71
3
 72
11
 73
7
 74
0
 42
0.0000001
 43
0.0000001
 44
0.0000000001
 40
0.0
 40
0.0
 40
0.0
 40
0.0
 40
0.1965294827
 40
0.4393961176
 40
0.7156348957
 40
1.0
 40
1.0
 40
1.0
 40
1.0
 10
59.7510470029
 20
168.1176770411
 30
0.0
 10
60.0423529123
 20
167.4689804018
 30
0.0
 10
60.5835725339
 20
165.9698833006
 30
0.0
 10
61.259316646
 20
163.4684953163
 30
0.0
 10
61.8193144874
 20
160.6134357991
 30
0.0
 10
62.0693546597
 20
158.5978047614
 30
0.0
 10
62.147697935
 20
157.5718739167
 30
0.0
  0
SPLINE
  5
4DD
100
AcDbEntity
  8
0
100
AcDbSpline
 62
7
  6
CONTINUOUS
 70
0
 71
3
 72
8
 73
4
 74
0
 42
0.0000001
 43
0.0000001
 44
0.0000000001
 40
0.0
 40
0.0
 40
0.0
 40
0.0
 40
1.0
 40
1.0
 40
1.0
 40
1.0
 10
105.0461905814
 20
193.2486989947
 30
0.0
 10
106.9351774606
 20
193.5279134389
 30
0.0
 10
108.8220194165
 20
193.8214515766
 30
0.0
 10
110.7100127409
 20
194.1073070335
 30
0.0
  0
SPLINE
  5
4DE
100
AcDbEntity
  8
0
100
AcDbSpline
 62
7
  6
CONTINUOUS
 70
0
 71
3
 72
10
 73
6
 74
0
 42
0.0000001
 43
0.0000001
 44
0.0000000001
 40
0.0
 40
0.0
 40
0.0
 40
0.0
 40
0.2487129275
 40
0.6240019486
 40
1.0
 40
1.0
 40
1.0
 40
1.0
 10
89.0889833692
 20
200.7809807503
 30
0.0
 10
89.2494416107
 20
201.1684301981
 30
0.0
 10
89.6574557071
 20
202.1383498575
 30
0.0
 10
90.3575130159
 20
203.6724474194
 30
0.0
 10
90.8830416603
 20
204.8250184138
 30
0.0
 10
91.147557116
 20
205.4011801223
 30
0.0
  0
SPLINE
  5
4DF
100
AcDbEntity
  8
0
100
AcDbSpline
 62
7
  6
CONTINUOUS
 70
0
 71
3
 72
10
 73
6
 74
0
 42
0.0000001
 43
0.0000001
 44
0.0000000001
 40
0.0
 40
0.0
 40
0.0
 40
0.0
 40
0.2569367737
 40
0.5095348021
 40
1.0
 40
1.0
 40
1.0
 40
1.0
 10
89.0889630169
 20
200.7809822846
 30
0.0
 10
89.17787774
 20
201.1740254911
 30
0.0
 10
89.3675749926
 20
201.9506694808
 30
0.0
 10
89.8102835264
 20
203.455490787
 30
0.0
 10
90.164680558
 20
204.5660380599
 30
0.0
 10
90.4162998482
 20
205.2929580806
 30
0.0
  0
SPLINE
  5
4E0
100
AcDbEntity
  8
0
100
AcDbSpline
 62
7
  6
CONTINUOUS
 70
0
 71
3
 72
11
 73
7
 74
0
 42
0.0000001
 43
0.0000001
 44
0.0000000001
 40
0.0
 40
0.0
 40
0.0
 40
0.0
 40
0.289793653
 40
0.5490444721
 40
0.7822139082
 40
1.0
 40
1.0
 40
1.0
 40
1.0
 10
224.104804106
 20
239.2384345217
 30
0.0
 10
224.5212098929
 20
239.4799959635
 30
0.0
 10
225.2777620988
 20
239.9998461427
 30
0.0
 10
226.1813928383
 20
240.9498111368
 30
0.0
 10
226.7528046701
 20
242.000363807
 30
0.0
 10
226.8865166257
 20
242.7545057441
 30
0.0
 10
226.8864542353
 20
243.1162878786
 30
0.0
  0
SPLINE
  5
4E1
100
AcDbEntity
  8
0
100
AcDbSpline
 62
7
  6
CONTINUOUS
 70
0
 71
3
 72
9
 73
5
 74
0
 42
0.0000001
 43
0.0000001
 44
0.0000000001
 40
0.0
 40
0.0
 40
0.0
 40
0.0
 40
0.2555740605
 40
1.0
 40
1.0
 40
1.0
 40
1.0
 10
221.6104682888
 20
262.2950696229
 30
0.0
 10
221.9250021703
 20
260.3440581833
 30
0.0
 10
223.0596331494
 20
252.6952379623
 30
0.0
 10
223.8029567271
 20
244.9868323398
 30
0.0
 10
224.1050450892
 20
239.2385601312
 30
0.0
  0
SPLINE
  5
4E2
100
AcDbEntity
  8
0
100
AcDbSpline
 62
7
  6
CONTINUOUS
 70
0
 71
3
 72
9
 73
5
 74
0
 42
0.0000001
 43
0.0000001
 44
0.0000000001
 40
0.0
 40
0.0
 40
0.0
 40
0.0
 40
0.2399532517
 40
1.0
 40
1.0
 40
1.0
 40
1.0
 10
90.4162167298
 20
205.2929092892
 30
0.0
 10
90.4380295009
 20
205.3559230819
 30
0.0
 10
90.5335328116
 20
205.6169500208
 30
0.0
 10
90.6422687118
 20
205.8728543929
 30
0.0
 10
90.7258651219
 20
206.0668218357
 30
0.0
  0
SPLINE
  5
4E3
100
AcDbEntity
  8
0
100
AcDbSpline
 62
7
  6
CONTINUOUS
 70
0
 71
3
 72
10
 73
6
 74
0
 42
0.0000001
 43
0.0000001
 44
0.0000000001
 40
0.0
 40
0.0
 40
0.0
 40
0.0
 40
0.6853860401
 40
0.883306086
 40
1.0
 40
1.0
 40
1.0
 40
1.0
 10
100.284889526
 20
221.0793978202
 30
0.0
 10
100.2356123509
 20
221.11570354
 30
0.0
 10
100.1728707704
 20
221.1658245499
 30
0.0
 10
100.1165981498
 20
221.2341007472
 30
0.0
 10
100.1097484168
 20
221.2653101187
 30
0.0
 10
100.1142818497
 20
221.2746935592
 30
0.0
  0
SPLINE
  5
4E4
100
AcDbEntity
  8
0
100
AcDbSpline
 62
7
  6
CONTINUOUS
 70
0
 71
3
 72
14
 73
10
 74
0
 42
0.0000001
 43
0.0000001
 44
0.0000000001
 40
0.0
 40
0.0
 40
0.0
 40
0.0
 40
0.2550756125
 40
0.381049309
 40
0.5063559323
 40
0.6313484142
 40
0.7561654876
 40
0.8797285863
 40
1.0
 40
1.0
 40
1.0
 40
1.0
 10
142.6985519532
 20
214.1400793811
 30
0.0
 10
142.9449434476
 20
212.3894091209
 30
0.0
 10
143.3163951354
 20
209.7745576916
 30
0.0
 10
143.7620847423
 20
206.2933406973
 30
0.0
 10
144.0545924749
 20
203.7017311285
 30
0.0
 10
144.2900845061
 20
201.1121672824
 30
0.0
 10
144.4522125343
 20
198.5292223838
 30
0.0
 10
144.58912103
 20
195.9778144671
 30
0.0
 10
144.7307439578
 20
194.2931435518
 30
0.0
 10
144.8215912339
 20
193.4645099398
 30
0.0
  0
SPLINE
  5
4E5
100
AcDbEntity
  8
0
100
AcDbSpline
 62
7
  6
CONTINUOUS
 70
0
 71
3
 72
9
 73
5
 74
0
 42
0.0000001
 43
0.0000001
 44
0.0000000001
 40
0.0
 40
0.0
 40
0.0
 40
0.0
 40
0.2450259761
 40
1.0
 40
1.0
 40
1.0
 40
1.0
 10
193.2056738803
 20
254.0782672778
 30
0.0
 10
193.1451418097
 20
254.0433189161
 30
0.0
 10
192.9009702236
 20
253.8957463776
 30
0.0
 10
192.6684247828
 20
253.7291293485
 30
0.0
 10
192.5001439549
 20
253.5947281775
 30
0.0
  0
SPLINE
  5
4E6
100
AcDbEntity
  8
0
100
AcDbSpline
 62
7
  6
CONTINUOUS
 70
0
 71
3
 72
9
 73
5
 74
0
 42
0.0000001
 43
0.0000001
 44
0.0000000001
 40
0.0
 40
0.0
 40
0.0
 40
0.0
 40
0.2428260506
 40
1.0
 40
1.0
 40
1.0
 40
1.0
 10
195.2233691439
 20
255.0694773635
 30
0.0
 10
195.1289573887
 20
255.0440128379
 30
0.0
 10
194.7439237113
 20
254.925368202
 30
0.0
 10
194.3758407454
 20
254.753791984
 30
0.0
 10
194.1117788229
 20
254.6013356242
 30
0.0
  0
SPLINE
  5
4E7
100
AcDbEntity
  8
0
100
AcDbSpline
 62
7
  6
CONTINUOUS
 70
0
 71
3
 72
9
 73
5
 74
0
 42
0.0000001
 43
0.0000001
 44
0.0000000001
 40
0.0
 40
0.0
 40
0.0
 40
0.0
 40
0.5167493362
 40
1.0
 40
1.0
 40
1.0
 40
1.0
 10
128.7496673927
 20
186.8389796787
 30
0.0
 10
131.6368905668
 20
187.654051448
 30
0.0
 10
137.145165203
 20
189.5306480183
 30
0.0
 10
142.391826419
 20
192.0617276739
 30
0.0
 10
144.8215918279
 20
193.4644205039
 30
0.0
  0
SPLINE
  5
4E8
100
AcDbEntity
  8
0
100
AcDbSpline
 62
7
  6
CONTINUOUS
 70
0
 71
3
 72
11
 73
7
 74
0
 42
0.0000001
 43
0.0000001
 44
0.0000000001
 40
0.0
 40
0.0
 40
0.0
 40
0.0
 40
0.2304061769
 40
0.4947764739
 40
0.7621043495
 40
1.0
 40
1.0
 40
1.0
 40
1.0
 10
191.7116588628
 20
254.5404912195
 30
0.0
 10
191.7967856428
 20
254.4952623936
 30
0.0
 10
191.9664859305
 20
254.3738266644
 30
0.0
 10
192.193139692
 20
254.1475143869
 30
0.0
 10
192.3765588843
 20
253.8810962618
 30
0.0
 10
192.4683943068
 20
253.6890824011
 30
0.0
 10
192.5001364618
 20
253.5947501909
 30
0.0
  0
SPLINE
  5
4E9
100
AcDbEntity
  8
0
100
AcDbSpline
 62
7
  6
CONTINUOUS
 70
0
 71
3
 72
9
 73
5
 74
0
 42
0.0000001
 43
0.0000001
 44
0.0000000001
 40
0.0
 40
0.0
 40
0.0
 40
0.0
 40
0.2448979006
 40
1.0
 40
1.0
 40
1.0
 40
1.0
 10
192.5199239958
 20
255.0916442434
 30
0.0
 10
192.4507273749
 20
255.0516937948
 30
0.0
 10
192.1713396789
 20
254.8831128177
 30
0.0
 10
191.9048865305
 20
254.6933204072
 30
0.0
 10
191.7116577762
 20
254.5404903602
 30
0.0
  0
SPLINE
  5
4EA
100
AcDbEntity
  8
0
100
AcDbSpline
 62
7
  6
CONTINUOUS
 70
0
 71
3
 72
11
 73
7
 74
0
 42
0.0000001
 43
0.0000001
 44
0.0000000001
 40
0.0
 40
0.0
 40
0.0
 40
0.0
 40
0.2448267175
 40
0.5131410868
 40
0.7739745353
 40
1.0
 40
1.0
 40
1.0
 40
1.0
 10
193.2056950714
 20
254.0782748779
 30
0.0
 10
193.1862573404
 20
254.1787858874
 30
0.0
 10
193.1191232051
 20
254.3843262213
 30
0.0
 10
192.9662262909
 20
254.6717786473
 30
0.0
 10
192.7619616805
 20
254.9150908237
 30
0.0
 10
192.6017699846
 20
255.0443915847
 30
0.0
 10
192.5199200303
 20
255.0916465328
 30
0.0
  0
SPLINE
  5
4EB
100
AcDbEntity
  8
0
100
AcDbSpline
 62
7
  6
CONTINUOUS
 70
0
 71
3
 72
15
 73
11
 74
0
 42
0.0000001
 43
0.0000001
 44
0.0000000001
 40
0.0
 40
0.0
 40
0.0
 40
0.0
 40
0.1846943295
 40
0.3541917185
 40
0.5064946366
 40
0.6436399009
 40
0.7627523343
 40
0.8615786844
 40
0.9399661763
 40
1.0
 40
1.0
 40
1.0
 40
1.0
 10
89.088931417
 20
200.7809446345
 30
0.0
 10
88.8805515464
 20
200.881022373
 30
0.0
 10
88.4752952623
 20
201.0610457918
 30
0.0
 10
87.8889742609
 20
201.3025939825
 30
0.0
 10
87.3439638166
 20
201.4858214467
 30
0.0
 10
86.8472891947
 20
201.6098754642
 30
0.0
 10
86.4081161638
 20
201.681462027
 30
0.0
 10
86.0368899584
 20
201.7035774102
 30
0.0
 10
85.7399520634
 20
201.6791915863
 30
0.0
 10
85.5718620642
 20
201.6250502172
 30
0.0
 10
85.5067770168
 20
201.5875024853
 30
0.0
  0
SPLINE
  5
4EC
100
AcDbEntity
  8
0
100
AcDbSpline
 62
7
  6
CONTINUOUS
 70
0
 71
3
 72
12
 73
8
 74
0
 42
0.0000001
 43
0.0000001
 44
0.0000000001
 40
0.0
 40
0.0
 40
0.0
 40
0.0
 40
0.2341963886
 40
0.484537986
 40
0.6132605299
 40
0.7426981383
 40
1.0
 40
1.0
 40
1.0
 40
1.0
 10
36.8885164251
 20
169.3880736837
 30
0.0
 10
37.1695462362
 20
170.2229544306
 30
0.0
 10
38.1178458203
 20
171.8318858338
 30
0.0
 10
39.8417317929
 20
173.4014404327
 30
0.0
 10
41.4619710017
 20
174.4245133872
 30
0.0
 10
43.2085945859
 20
175.2727896851
 30
0.0
 10
44.613795253
 20
175.6992313748
 30
0.0
 10
45.5640566541
 20
175.8827494531
 30
0.0
  0
SPLINE
  5
4ED
100
AcDbEntity
  8
0
100
AcDbSpline
 62
7
  6
CONTINUOUS
 70
0
 71
3
 72
9
 73
5
 74
0
 42
0.0000001
 43
0.0000001
 44
0.0000000001
 40
0.0
 40
0.0
 40
0.0
 40
0.0
 40
0.5036091953
 40
1.0
 40
1.0
 40
1.0
 40
1.0
 10
36.8672978565
 20
169.3869174955
 30
0.0
 10
36.8698735532
 20
169.388597703
 30
0.0
 10
36.8762445307
 20
169.3827567275
 30
0.0
 10
36.8831110158
 20
169.3879507875
 30
0.0
 10
36.8837291489
 20
169.3909182874
 30
0.0
  0
SPLINE
  5
4EE
100
AcDbEntity
  8
0
100
AcDbSpline
 62
7
  6
CONTINUOUS
 70
0
 71
3
 72
11
 73
7
 74
0
 42
0.0000001
 43
0.0000001
 44
0.0000000001
 40
0.0
 40
0.0
 40
0.0
 40
0.0
 40
0.2000037664
 40
0.4458476166
 40
0.7214755821
 40
1.0
 40
1.0
 40
1.0
 40
1.0
 10
59.7510253717
 20
168.1176747827
 30
0.0
 10
59.454596691
 20
167.4575327191
 30
0.0
 10
58.9071723888
 20
165.9357596083
 30
0.0
 10
58.2299251104
 20
163.4130153012
 30
0.0
 10
57.6765657224
 20
160.5695895943
 30
0.0
 10
57.4313563018
 20
158.5771150513
 30
0.0
 10
57.3544808501
 20
157.572310922
 30
0.0
  0
SPLINE
  5
4EF
100
AcDbEntity
  8
0
100
AcDbSpline
 62
7
  6
CONTINUOUS
 70
0
 71
3
 72
9
 73
5
 74
0
 42
0.0000001
 43
0.0000001
 44
0.0000000001
 40
0.0
 40
0.0
 40
0.0
 40
0.0
 40
0.4685221726
 40
1.0
 40
1.0
 40
1.0
 40
1.0
 10
62.1293122735
 20
157.5517402752
 30
0.0
 10
62.1312919569
 20
157.5549187068
 30
0.0
 10
62.1395569189
 20
157.5576854495
 30
0.0
 10
62.1435706454
 20
157.5660218201
 30
0.0
 10
62.1435184276
 20
157.5702691947
 30
0.0
  0
SPLINE
  5
4F0
100
AcDbEntity
  8
0
100
AcDbSpline
 62
7
  6
CONTINUOUS
 70
0
 71
3
 72
9
 73
5
 74
0
 42
0.0000001
 43
0.0000001
 44
0.0000000001
 40
0.0
 40
0.0
 40
0.0
 40
0.0
 40
0.4749416856
 40
1.0
 40
1.0
 40
1.0
 40
1.0
 10
57.3544808501
 20
157.572310922
 30
0.0
 10
57.3559467216
 20
157.5686355131
 30
0.0
 10
57.3642723246
 20
157.5648161615
 30
0.0
 10
57.3679651145
 20
157.5558771077
 30
0.0
 10
57.3673628039
 20
157.5515442835
 30
0.0
  0
SPLINE
  5
4F1
100
AcDbEntity
  8
0
100
AcDbSpline
 62
7
  6
CONTINUOUS
 70
0
 71
3
 72
21
 73
17
 74
0
 42
0.0000001
 43
0.0000001
 44
0.0000000001
 40
0.0
 40
0.0
 40
0.0
 40
0.0
 40
0.0624162057
 40
0.1218258845
 40
0.1808993874
 40
0.2413671116
 40
0.3038662178
 40
0.3682857561
 40
0.5000035694
 40
0.5661317126
 40
0.6317559405
 40
0.7585929011
 40
0.8190472658
 40
0.8781787288
 40
0.9376562098
 40
1.0
 40
1.0
 40
1.0
 40
1.0
 10
62.129312178
 20
157.5517401252
 30
0.0
 10
62.0797979938
 20
157.4575253296
 30
0.0
 10
61.9463736485
 20
157.2901826237
 30
0.0
 10
61.674708172
 20
157.1331623487
 30
0.0
 10
61.3771109039
 20
157.056558707
 30
0.0
 10
61.0681769445
 20
157.0234134477
 30
0.0
 10
60.7492187135
 20
157.0039872248
 30
0.0
 10
60.3098371292
 20
156.9667692492
 30
0.0
 10
59.8629686594
 20
156.9364639932
 30
0.0
 10
59.4135650249
 20
156.9511355738
 30
0.0
 10
58.974110177
 20
156.9879639611
 30
0.0
 10
58.5433805678
 20
157.0095279319
 30
0.0
 10
58.1248984531
 20
157.0519932271
 30
0.0
 10
57.8274636923
 20
157.1307465365
 30
0.0
 10
57.5568372676
 20
157.2892624585
 30
0.0
 10
57.4227416781
 20
157.4555729224
 30
0.0
 10
57.3723077061
 20
157.5491583173
 30
0.0
  0
SPLINE
  5
4F2
100
AcDbEntity
  8
0
100
AcDbSpline
 62
7
  6
CONTINUOUS
 70
0
 71
3
 72
11
 73
7
 74
0
 42
0.0000001
 43
0.0000001
 44
0.0000000001
 40
0.0
 40
0.0
 40
0.0
 40
0.0
 40
0.2372375482
 40
0.5000005269
 40
0.7627632187
 40
1.0
 40
1.0
 40
1.0
 40
1.0
 10
56.2155348615
 20
151.6977138201
 30
0.0
 10
56.7174781071
 20
151.4079233081
 30
0.0
 10
57.8847462469
 20
150.9850356552
 30
0.0
 10
59.7510743533
 20
150.7824266153
 30
0.0
 10
61.6173996702
 20
150.9850441492
 30
0.0
 10
62.7846631585
 20
151.4079376996
 30
0.0
 10
63.2866027209
 20
151.6977308444
 30
0.0
  0
SPLINE
  5
4F3
100
AcDbEntity
  8
0
100
AcDbSpline
 62
7
  6
CONTINUOUS
 70
0
 71
3
 72
11
 73
7
 74
0
 42
0.0000001
 43
0.0000001
 44
0.0000000001
 40
0.0
 40
0.0
 40
0.0
 40
0.0
 40
0.2871718694
 40
0.5460688658
 40
0.7803959592
 40
1.0
 40
1.0
 40
1.0
 40
1.0
 10
35.7093528322
 20
161.3647990461
 30
0.0
 10
35.4943027591
 20
161.4895332899
 30
0.0
 10
35.1029484602
 20
161.7601735377
 30
0.0
 10
34.633142259
 20
162.2536866993
 30
0.0
 10
34.3300372923
 20
162.8001809291
 30
0.0
 10
34.2513382148
 20
163.1933898394
 30
0.0
 10
34.2456463751
 20
163.3834171792
 30
0.0
  0
SPLINE
  5
4F4
100
AcDbEntity
  8
0
100
AcDbSpline
 62
7
  6
CONTINUOUS
 70
0
 71
3
 72
9
 73
5
 74
0
 42
0.0000001
 43
0.0000001
 44
0.0000000001
 40
0.0
 40
0.0
 40
0.0
 40
0.0
 40
0.518239019
 40
1.0
 40
1.0
 40
1.0
 40
1.0
 10
129.0997079209
 20
184.6110219438
 30
0.0
 10
126.1518633401
 20
183.8308603195
 30
0.0
 10
120.5412204188
 20
182.0093647417
 30
0.0
 10
115.2005156446
 20
179.4871159106
 30
0.0
 10
112.740810239
 20
178.078090304
 30
0.0
  0
SPLINE
  5
4F5
100
AcDbEntity
  8
0
100
AcDbSpline
 62
7
  6
CONTINUOUS
 70
0
 71
3
 72
9
 73
5
 74
0
 42
0.0000001
 43
0.0000001
 44
0.0000000001
 40
0.0
 40
0.0
 40
0.0
 40
0.0
 40
0.2555214403
 40
1.0
 40
1.0
 40
1.0
 40
1.0
 10
112.7408102391
 20
178.0780590757
 30
0.0
 10
112.7408113844
 20
177.7428032935
 30
0.0
 10
112.7250708402
 20
176.4308342559
 30
0.0
 10
112.6452091126
 20
175.1194047423
 30
0.0
 10
112.5453985581
 20
174.1477277348
 30
0.0
  0
SPLINE
  5
4F6
100
AcDbEntity
  8
0
100
AcDbSpline
 62
7
  6
CONTINUOUS
 70
0
 71
3
 72
9
 73
5
 74
0
 42
0.0000001
 43
0.0000001
 44
0.0000000001
 40
0.0
 40
0.0
 40
0.0
 40
0.0
 40
0.2566787464
 40
1.0
 40
1.0
 40
1.0
 40
1.0
 10
129.099707813
 20
184.6109996287
 30
0.0
 10
129.0978626607
 20
184.2291036399
 30
0.0
 10
129.0693517556
 20
182.7415057098
 30
0.0
 10
128.9537654742
 20
181.2551167418
 30
0.0
 10
128.8118833538
 20
180.1583021413
 30
0.0
  0
SPLINE
  5
4F7
100
AcDbEntity
  8
0
100
AcDbSpline
 62
7
  6
CONTINUOUS
 70
0
 71
3
 72
9
 73
5
 74
0
 42
0.0000001
 43
0.0000001
 44
0.0000000001
 40
0.0
 40
0.0
 40
0.0
 40
0.0
 40
0.521479286
 40
1.0
 40
1.0
 40
1.0
 40
1.0
 10
128.8118792882
 20
180.1582705981
 30
0.0
 10
131.5726564256
 20
180.7856260015
 30
0.0
 10
136.8033575571
 20
182.2961095302
 30
0.0
 10
141.7873605246
 20
184.5101170613
 30
0.0
 10
144.0604489514
 20
185.7680232502
 30
0.0
  0
SPLINE
  5
4F8
100
AcDbEntity
  8
0
100
AcDbSpline
 62
7
  6
CONTINUOUS
 70
0
 71
3
 72
9
 73
5
 74
0
 42
0.0000001
 43
0.0000001
 44
0.0000000001
 40
0.0
 40
0.0
 40
0.0
 40
0.0
 40
0.2425897733
 40
1.0
 40
1.0
 40
1.0
 40
1.0
 10
144.0604361942
 20
185.7679401751
 30
0.0
 10
144.1201697348
 20
186.1665381407
 30
0.0
 10
144.3347626187
 20
187.8143065791
 30
0.0
 10
144.4269622352
 20
189.4772901356
 30
0.0
 10
144.4374565513
 20
190.7356398022
 30
0.0
  0
SPLINE
  5
4F9
100
AcDbEntity
  8
0
100
AcDbSpline
 62
7
  6
CONTINUOUS
 70
0
 71
3
 72
9
 73
5
 74
0
 42
0.0000001
 43
0.0000001
 44
0.0000000001
 40
0.0
 40
0.0
 40
0.0
 40
0.0
 40
0.5182362632
 40
1.0
 40
1.0
 40
1.0
 40
1.0
 10
129.0997117751
 20
184.6110006773
 30
0.0
 10
131.8637009401
 20
185.3425032641
 30
0.0
 10
137.1244470153
 20
187.0503660108
 30
0.0
 10
142.1321324349
 20
189.4151922322
 30
0.0
 10
144.4385029746
 20
190.7362643966
 30
0.0
  0
SPLINE
  5
4FA
100
AcDbEntity
  8
0
100
AcDbSpline
 62
7
  6
CONTINUOUS
 70
0
 71
3
 72
9
 73
5
 74
0
 42
0.0000001
 43
0.0000001
 44
0.0000000001
 40
0.0
 40
0.0
 40
0.0
 40
0.0
 40
0.5179591624
 40
1.0
 40
1.0
 40
1.0
 40
1.0
 10
129.1004338007
 20
184.9103085357
 30
0.0
 10
126.1540451258
 20
184.1215785861
 30
0.0
 10
120.5437730523
 20
182.2842568924
 30
0.0
 10
115.2032224847
 20
179.7515270597
 30
0.0
 10
112.7412861109
 20
178.3385098152
 30
0.0
  0
SPLINE
  5
4FB
100
AcDbEntity
  8
0
100
AcDbSpline
 62
7
  6
CONTINUOUS
 70
0
 71
3
 72
9
 73
5
 74
0
 42
0.0000001
 43
0.0000001
 44
0.0000000001
 40
0.0
 40
0.0
 40
0.0
 40
0.0
 40
0.4816164361
 40
1.0
 40
1.0
 40
1.0
 40
1.0
 10
90.7257112297
 20
206.0671316262
 30
0.0
 10
90.9057706308
 20
206.4737153034
 30
0.0
 10
91.3579569053
 20
207.2831857605
 30
0.0
 10
91.8929057544
 20
208.0365693792
 30
0.0
 10
92.1811757236
 20
208.4186355762
 30
0.0
  0
SPLINE
  5
4FC
100
AcDbEntity
  8
0
100
AcDbSpline
 62
7
  6
CONTINUOUS
 70
0
 71
3
 72
9
 73
5
 74
0
 42
0.0000001
 43
0.0000001
 44
0.0000000001
 40
0.0
 40
0.0
 40
0.0
 40
0.0
 40
0.2605197049
 40
1.0
 40
1.0
 40
1.0
 40
1.0
 10
221.016617694
 20
223.4257065258
 30
0.0
 10
220.9421726492
 20
223.2213481995
 30
0.0
 10
220.6358339522
 20
222.4449590049
 30
0.0
 10
220.2373365615
 20
221.7019738704
 30
0.0
 10
219.8813094957
 20
221.1976177925
 30
0.0
  0
SPLINE
  5
4FD
100
AcDbEntity
  8
0
100
AcDbSpline
 62
7
  6
CONTINUOUS
 70
0
 71
3
 72
9
 73
5
 74
0
 42
0.0000001
 43
0.0000001
 44
0.0000000001
 40
0.0
 40
0.0
 40
0.0
 40
0.0
 40
0.2426725858
 40
1.0
 40
1.0
 40
1.0
 40
1.0
 10
193.8613129613
 20
256.2488109197
 30
0.0
 10
193.7922022622
 20
256.2206310234
 30
0.0
 10
193.5095879183
 20
256.09920465
 30
0.0
 10
193.2358213732
 20
255.9574897623
 30
0.0
 10
193.0341068132
 20
255.841030502
 30
0.0
  0
SPLINE
  5
4FE
100
AcDbEntity
  8
0
100
AcDbSpline
 62
7
  6
CONTINUOUS
 70
0
 71
3
 72
13
 73
9
 74
0
 42
0.0000001
 43
0.0000001
 44
0.0000000001
 40
0.0
 40
0.0
 40
0.0
 40
0.0
 40
0.1711499893
 40
0.3119030206
 40
0.4293213792
 40
0.5348556144
 40
0.7502649498
 40
1.0
 40
1.0
 40
1.0
 40
1.0
 10
221.0723044191
 20
263.4167834429
 30
0.0
 10
221.2116048758
 20
263.4557104375
 30
0.0
 10
221.4606673129
 20
263.5484791938
 30
0.0
 10
221.7650516777
 20
263.7538722387
 30
0.0
 10
221.9582045394
 20
264.0010584997
 30
0.0
 10
222.0648467466
 20
264.365394726
 30
0.0
 10
221.9389442917
 20
264.858995059
 30
0.0
 10
221.7033152814
 20
265.1776809683
 30
0.0
 10
221.564477794
 20
265.3366328896
 30
0.0
  0
SPLINE
  5
4FF
100
AcDbEntity
  8
0
100
AcDbSpline
 62
7
  6
CONTINUOUS
 70
0
 71
3
 72
9
 73
5
 74
0
 42
0.0000001
 43
0.0000001
 44
0.0000000001
 40
0.0
 40
0.0
 40
0.0
 40
0.0
 40
0.2370355144
 40
1.0
 40
1.0
 40
1.0
 40
1.0
 10
221.564477794
 20
265.3366328896
 30
0.0
 10
221.5028475925
 20
265.4071919231
 30
0.0
 10
221.2301307136
 20
265.6938319206
 30
0.0
 10
220.9207747067
 20
265.9428524769
 30
0.0
 10
220.6789637222
 20
266.1230199637
 30
0.0
  0
SPLINE
  5
500
100
AcDbEntity
  8
0
100
AcDbSpline
 62
7
  6
CONTINUOUS
 70
0
 71
3
 72
9
 73
5
 74
0
 42
0.0000001
 43
0.0000001
 44
0.0000000001
 40
0.0
 40
0.0
 40
0.0
 40
0.0
 40
0.4764976062
 40
1.0
 40
1.0
 40
1.0
 40
1.0
 10
220.6789878562
 20
266.1230245857
 30
0.0
 10
217.2201735198
 20
268.7002659049
 30
0.0
 10
209.6004695161
 20
273.6300306686
 30
0.0
 10
201.5288876914
 20
277.7579325022
 30
0.0
 10
197.2238301693
 20
279.7388030569
 30
0.0
  0
SPLINE
  5
501
100
AcDbEntity
  8
0
100
AcDbSpline
 62
7
  6
CONTINUOUS
 70
0
 71
3
 72
12
 73
8
 74
0
 42
0.0000001
 43
0.0000001
 44
0.0000000001
 40
0.0
 40
0.0
 40
0.0
 40
0.0
 40
0.2261169862
 40
0.4809962368
 40
0.7543106431
 40
0.8855834968
 40
1.0
 40
1.0
 40
1.0
 40
1.0
 10
196.6033018116
 20
280.0227960275
 30
0.0
 10
196.1839949388
 20
280.2137014832
 30
0.0
 10
195.2754709803
 20
280.5861167001
 30
0.0
 10
193.7922759882
 20
281.0010545916
 30
0.0
 10
192.4512061836
 20
281.1785059926
 30
0.0
 10
191.3927720713
 20
281.1409463637
 30
0.0
 10
190.8962795509
 20
281.0444165625
 30
0.0
 10
190.6770721536
 20
280.9650669134
 30
0.0
  0
SPLINE
  5
502
100
AcDbEntity
  8
0
100
AcDbSpline
 62
7
  6
CONTINUOUS
 70
0
 71
3
 72
9
 73
5
 74
0
 42
0.0000001
 43
0.0000001
 44
0.0000000001
 40
0.0
 40
0.0
 40
0.0
 40
0.0
 40
0.255478691
 40
1.0
 40
1.0
 40
1.0
 40
1.0
 10
110.5052210724
 20
232.9029294448
 30
0.0
 10
110.0815507054
 20
232.5682043052
 30
0.0
 10
108.44372083
 20
231.2323865569
 30
0.0
 10
106.8906768449
 20
229.7916621187
 30
0.0
 10
105.7964895012
 20
228.6608705648
 30
0.0
  0
SPLINE
  5
503
100
AcDbEntity
  8
0
100
AcDbSpline
 62
7
  6
CONTINUOUS
 70
0
 71
3
 72
9
 73
5
 74
0
 42
0.0000001
 43
0.0000001
 44
0.0000000001
 40
0.0
 40
0.0
 40
0.0
 40
0.0
 40
0.5225505867
 40
1.0
 40
1.0
 40
1.0
 40
1.0
 10
105.5058969032
 20
228.3372283939
 30
0.0
 10
105.1231910997
 20
227.8786245993
 30
0.0
 10
104.5248480194
 20
226.8809039569
 30
0.0
 10
104.1969667382
 20
225.78123437
 30
0.0
 10
104.0581176524
 20
225.2534346367
 30
0.0
  0
SPLINE
  5
504
100
AcDbEntity
  8
0
100
AcDbSpline
 62
7
  6
CONTINUOUS
 70
0
 71
3
 72
13
 73
9
 74
0
 42
0.0000001
 43
0.0000001
 44
0.0000000001
 40
0.0
 40
0.0
 40
0.0
 40
0.0
 40
0.3075306801
 40
0.6362684646
 40
0.779706897
 40
0.891255307
 40
0.9634720951
 40
1.0
 40
1.0
 40
1.0
 40
1.0
 10
128.8304841002
 20
206.4094119415
 30
0.0
 10
128.7259032744
 20
206.4916089426
 30
0.0
 10
128.504729251
 20
206.6554455624
 30
0.0
 10
128.2212972171
 20
206.8396227255
 30
0.0
 10
128.0008003639
 20
206.9615218838
 30
0.0
 10
127.8691321054
 20
207.0181395646
 30
0.0
 10
127.7817871404
 20
207.0475540653
 30
0.0
 10
127.7267289657
 20
207.0414566095
 30
0.0
 10
127.7172044107
 20
207.0288507845
 30
0.0
  0
SPLINE
  5
505
100
AcDbEntity
  8
0
100
AcDbSpline
 62
7
  6
CONTINUOUS
 70
0
 71
3
 72
9
 73
5
 74
0
 42
0.0000001
 43
0.0000001
 44
0.0000000001
 40
0.0
 40
0.0
 40
0.0
 40
0.0
 40
0.2432640056
 40
1.0
 40
1.0
 40
1.0
 40
1.0
 10
91.147557116
 20
205.4011801223
 30
0.0
 10
91.1886793071
 20
205.4637349358
 30
0.0
 10
91.3596551805
 20
205.7196118396
 30
0.0
 10
91.5344872752
 20
205.9728704113
 30
0.0
 10
91.6661546127
 20
206.1649485493
 30
0.0
  0
SPLINE
  5
506
100
AcDbEntity
  8
0
100
AcDbSpline
 62
7
  6
CONTINUOUS
 70
0
 71
3
 72
9
 73
5
 74
0
 42
0.0000001
 43
0.0000001
 44
0.0000000001
 40
0.0
 40
0.0
 40
0.0
 40
0.0
 40
0.530241288
 40
1.0
 40
1.0
 40
1.0
 40
1.0
 10
91.6661547095
 20
206.1649486952
 30
0.0
 10
91.5016011749
 20
206.2106032048
 30
0.0
 10
91.1741621307
 20
206.2477905226
 30
0.0
 10
90.8526030713
 20
206.1496551297
 30
0.0
 10
90.7259600347
 20
206.0668883849
 30
0.0
  0
SPLINE
  5
507
100
AcDbEntity
  8
0
100
AcDbSpline
 62
7
  6
CONTINUOUS
 70
0
 71
3
 72
9
 73
5
 74
0
 42
0.0000001
 43
0.0000001
 44
0.0000000001
 40
0.0
 40
0.0
 40
0.0
 40
0.0
 40
0.232765891
 40
1.0
 40
1.0
 40
1.0
 40
1.0
 10
90.4163158653
 20
205.2929674782
 30
0.0
 10
90.4673952912
 20
205.3202103109
 30
0.0
 10
90.6986076355
 20
205.4144756335
 30
0.0
 10
90.9588887348
 20
205.4297255106
 30
0.0
 10
91.1475571146
 20
205.4011801202
 30
0.0
  0
SPLINE
  5
508
100
AcDbEntity
  8
0
100
AcDbSpline
 62
7
  6
CONTINUOUS
 70
0
 71
3
 72
15
 73
11
 74
0
 42
0.0000001
 43
0.0000001
 44
0.0000000001
 40
0.0
 40
0.0
 40
0.0
 40
0.0
 40
0.1401629948
 40
0.2760844607
 40
0.4066165028
 40
0.5331957345
 40
0.6564478312
 40
0.7764100668
 40
0.8919711492
 40
1.0
 40
1.0
 40
1.0
 40
1.0
 10
100.8467001257
 20
217.5044846337
 30
0.0
 10
100.5485063921
 20
216.8890931283
 30
0.0
 10
99.857588546
 20
215.7276516528
 30
0.0
 10
98.7036697253
 20
214.1129793871
 30
0.0
 10
97.4875054661
 20
212.628483764
 30
0.0
 10
96.2292537249
 20
211.2637317907
 30
0.0
 10
94.9742917617
 20
209.9676827905
 30
0.0
 10
93.7657066923
 20
208.7011284373
 30
0.0
 10
92.6472353882
 20
207.452911246
 30
0.0
 10
91.9639917928
 20
206.5996163789
 30
0.0
 10
91.6660031456
 20
206.1648870668
 30
0.0
  0
SPLINE
  5
509
100
AcDbEntity
  8
0
100
AcDbSpline
 62
7
  6
CONTINUOUS
 70
0
 71
3
 72
9
 73
5
 74
0
 42
0.0000001
 43
0.0000001
 44
0.0000000001
 40
0.0
 40
0.0
 40
0.0
 40
0.0
 40
0.5432716611
 40
1.0
 40
1.0
 40
1.0
 40
1.0
 10
146.4652420519
 20
178.1209725606
 30
0.0
 10
147.2221242129
 20
178.8369356355
 30
0.0
 10
148.7981766319
 20
179.9743575158
 30
0.0
 10
150.5800583936
 20
180.7166426641
 30
0.0
 10
151.4156706715
 20
180.9792049268
 30
0.0
  0
SPLINE
  5
50A
100
AcDbEntity
  8
0
100
AcDbSpline
 62
7
  6
CONTINUOUS
 70
0
 71
3
 72
15
 73
11
 74
0
 42
0.0000001
 43
0.0000001
 44
0.0000000001
 40
0.0
 40
0.0
 40
0.0
 40
0.0
 40
0.1220365848
 40
0.2797030195
 40
0.6098025597
 40
0.7485028237
 40
0.8708388923
 40
0.9196730097
 40
0.957442156
 40
1.0
 40
1.0
 40
1.0
 40
1.0
 10
100.8467119539
 20
217.5045090439
 30
0.0
 10
100.757053387
 20
217.5160265641
 30
0.0
 10
100.5538632701
 20
217.5593294161
 30
0.0
 10
100.1210404946
 20
217.6890578344
 30
0.0
 10
99.6889649029
 20
217.8615107237
 30
0.0
 10
99.297885721
 20
218.060041923
 30
0.0
 10
99.1017389918
 20
218.1777313196
 30
0.0
 10
98.9774762797
 20
218.2740200185
 30
0.0
 10
98.9116069215
 20
218.3366369469
 30
0.0
 10
98.8721254468
 20
218.3995572621
 30
0.0
 10
98.8834352077
 20
218.4289821682
 30
0.0
  0
SPLINE
  5
50B
100
AcDbEntity
  8
0
100
AcDbSpline
 62
7
  6
CONTINUOUS
 70
0
 71
3
 72
10
 73
6
 74
0
 42
0.0000001
 43
0.0000001
 44
0.0000000001
 40
0.0
 40
0.0
 40
0.0
 40
0.0
 40
0.2191561111
 40
0.7397381379
 40
1.0
 40
1.0
 40
1.0
 40
1.0
 10
142.5809038133
 20
175.8827458639
 30
0.0
 10
142.583600165
 20
175.8819605602
 30
0.0
 10
142.5947349108
 20
175.8822411068
 30
0.0
 10
142.5960893135
 20
175.901216887
 30
0.0
 10
142.6101421103
 20
175.8990931909
 30
0.0
 10
142.6119462059
 20
175.8962881317
 30
0.0
  0
SPLINE
  5
50C
100
AcDbEntity
  8
0
100
AcDbSpline
 62
7
  6
CONTINUOUS
 70
0
 71
3
 72
12
 73
8
 74
0
 42
0.0000001
 43
0.0000001
 44
0.0000000001
 40
0.0
 40
0.0
 40
0.0
 40
0.0
 40
0.2267103149
 40
0.5008273395
 40
0.76442012
 40
0.8823268418
 40
1.0
 40
1.0
 40
1.0
 40
1.0
 10
102.5568868169
 20
221.4118826912
 30
0.0
 10
102.3800988776
 20
221.4025639007
 30
0.0
 10
101.9885766413
 20
221.4009116553
 30
0.0
 10
101.3928840841
 20
221.4005086241
 30
0.0
 10
100.8777884293
 20
221.3646038275
 30
0.0
 10
100.5033498081
 20
221.2564333728
 30
0.0
 10
100.340602263
 20
221.1524759285
 30
0.0
 10
100.2849030397
 20
221.0793931171
 30
0.0
  0
SPLINE
  5
50D
100
AcDbEntity
  8
0
100
AcDbSpline
 62
7
  6
CONTINUOUS
 70
0
 71
3
 72
9
 73
5
 74
0
 42
0.0000001
 43
0.0000001
 44
0.0000000001
 40
0.0
 40
0.0
 40
0.0
 40
0.0
 40
0.5060577588
 40
1.0
 40
1.0
 40
1.0
 40
1.0
 10
100.2849030397
 20
221.0793931171
 30
0.0
 10
100.0723005847
 20
220.8200610176
 30
0.0
 10
99.6863797796
 20
220.277835224
 30
0.0
 10
99.391117569
 20
219.6814064747
 30
0.0
 10
99.2666503984
 20
219.3786840722
 30
0.0
  0
SPLINE
  5
50E
100
AcDbEntity
  8
0
100
AcDbSpline
 62
7
  6
CONTINUOUS
 70
0
 71
3
 72
10
 73
6
 74
0
 42
0.0000001
 43
0.0000001
 44
0.0000000001
 40
0.0
 40
0.0
 40
0.0
 40
0.0
 40
0.2538648053
 40
0.5048140964
 40
1.0
 40
1.0
 40
1.0
 40
1.0
 10
100.9249433066
 20
222.5203339134
 30
0.0
 10
100.8990857647
 20
222.4846550381
 30
0.0
 10
100.8425712767
 20
222.4175654987
 30
0.0
 10
100.7371899982
 20
222.2796620515
 30
0.0
 10
100.6588611131
 20
222.1764948894
 30
0.0
 10
100.6085867465
 20
222.1067821752
 30
0.0
  0
SPLINE
  5
50F
100
AcDbEntity
  8
0
100
AcDbSpline
 62
7
  6
CONTINUOUS
 70
0
 71
3
 72
13
 73
9
 74
0
 42
0.0000001
 43
0.0000001
 44
0.0000000001
 40
0.0
 40
0.0
 40
0.0
 40
0.0
 40
0.0455017221
 40
0.1304981908
 40
0.2610394704
 40
0.4276051662
 40
0.7725010799
 40
1.0
 40
1.0
 40
1.0
 40
1.0
 10
100.9249421778
 20
222.5203323771
 30
0.0
 10
100.9549920323
 20
222.5238375855
 30
0.0
 10
101.0419995692
 20
222.5017783154
 30
0.0
 10
101.2005410296
 20
222.4344424385
 30
0.0
 10
101.4237242533
 20
222.3106998959
 30
0.0
 10
101.7828137496
 20
222.0801852049
 30
0.0
 10
102.1745925741
 20
221.7826976194
 30
0.0
 10
102.4576230575
 20
221.5258724078
 30
0.0
 10
102.556998567
 20
221.4118348486
 30
0.0
  0
SPLINE
  5
510
100
AcDbEntity
  8
0
100
AcDbSpline
 62
7
  6
CONTINUOUS
 70
0
 71
3
 72
11
 73
7
 74
0
 42
0.0000001
 43
0.0000001
 44
0.0000000001
 40
0.0
 40
0.0
 40
0.0
 40
0.0
 40
0.2462317563
 40
0.4958195783
 40
0.7473266312
 40
1.0
 40
1.0
 40
1.0
 40
1.0
 10
104.0580952531
 20
225.2534355333
 30
0.0
 10
103.7405111496
 20
225.1207027316
 30
0.0
 10
103.1388384177
 20
224.7627375228
 30
0.0
 10
102.3388679727
 20
224.0883361392
 30
0.0
 10
101.5987856498
 20
223.3367956063
 30
0.0
 10
101.1413092172
 20
222.799517493
 30
0.0
 10
100.9249433086
 20
222.520333913
 30
0.0
  0
SPLINE
  5
511
100
AcDbEntity
  8
0
100
AcDbSpline
 62
7
  6
CONTINUOUS
 70
0
 71
3
 72
11
 73
7
 74
0
 42
0.0000001
 43
0.0000001
 44
0.0000000001
 40
0.0
 40
0.0
 40
0.0
 40
0.0
 40
0.1903491017
 40
0.4456298983
 40
0.7353686049
 40
1.0
 40
1.0
 40
1.0
 40
1.0
 10
104.9488402583
 20
223.9888074172
 30
0.0
 10
104.9344200415
 20
224.0884887165
 30
0.0
 10
104.8665328889
 20
224.3168522091
 30
0.0
 10
104.6814244548
 20
224.6617363548
 30
0.0
 10
104.4099750806
 20
224.9962563794
 30
0.0
 10
104.1793711456
 20
225.1836325361
 30
0.0
 10
104.0580136907
 20
225.2534824827
 30
0.0
  0
SPLINE
  5
512
100
AcDbEntity
  8
0
100
AcDbSpline
 62
7
  6
CONTINUOUS
 70
0
 71
3
 72
10
 73
6
 74
0
 42
0.0000001
 43
0.0000001
 44
0.0000000001
 40
0.0
 40
0.0
 40
0.0
 40
0.0
 40
0.3103361577
 40
0.5782415022
 40
1.0
 40
1.0
 40
1.0
 40
1.0
 10
110.7853344092
 20
233.1228409133
 30
0.0
 10
110.7392857903
 20
233.1495478255
 30
0.0
 10
110.6491840889
 20
233.1930740267
 30
0.0
 10
110.4844901793
 20
233.239038031
 30
0.0
 10
110.3539369878
 20
233.221295322
 30
0.0
 10
110.2949764397
 20
233.1793726137
 30
0.0
  0
SPLINE
  5
513
100
AcDbEntity
  8
0
100
AcDbSpline
 62
7
  6
CONTINUOUS
 70
0
 71
3
 72
10
 73
6
 74
0
 42
0.0000001
 43
0.0000001
 44
0.0000000001
 40
0.0
 40
0.0
 40
0.0
 40
0.0
 40
0.2185566091
 40
0.6129490635
 40
1.0
 40
1.0
 40
1.0
 40
1.0
 10
221.0723069161
 20
263.4167685413
 30
0.0
 10
221.1521581266
 20
263.3673893959
 30
0.0
 10
221.3506461549
 20
263.1872880648
 30
0.0
 10
221.5571432819
 20
262.7994235096
 30
0.0
 10
221.6137810851
 20
262.4613020335
 30
0.0
 10
221.6104664091
 20
262.2950690927
 30
0.0
  0
SPLINE
  5
514
100
AcDbEntity
  8
0
100
AcDbSpline
 62
7
  6
CONTINUOUS
 70
0
 71
3
 72
11
 73
7
 74
0
 42
0.0000001
 43
0.0000001
 44
0.0000000001
 40
0.0
 40
0.0
 40
0.0
 40
0.0
 40
0.2190309559
 40
0.4743676183
 40
0.744497593
 40
1.0
 40
1.0
 40
1.0
 40
1.0
 10
194.6919534951
 20
256.1531874538
 30
0.0
 10
194.7692189295
 20
256.1046706269
 30
0.0
 10
194.9160457079
 20
255.9673851256
 30
0.0
 10
195.0867977177
 20
255.7052139336
 30
0.0
 10
195.1926510699
 20
255.3947338644
 30
0.0
 10
195.2224547047
 20
255.1759432654
 30
0.0
 10
195.2233765973
 20
255.0695204362
 30
0.0
  0
SPLINE
  5
515
100
AcDbEntity
  8
0
100
AcDbSpline
 62
7
  6
CONTINUOUS
 70
0
 71
3
 72
11
 73
7
 74
0
 42
0.0000001
 43
0.0000001
 44
0.0000000001
 40
0.0
 40
0.0
 40
0.0
 40
0.0
 40
0.2261470146
 40
0.4870400394
 40
0.7553008343
 40
1.0
 40
1.0
 40
1.0
 40
1.0
 10
193.4260061135
 20
255.6147724541
 30
0.0
 10
193.507900014
 20
255.5674920197
 30
0.0
 10
193.6681392493
 20
255.4381247681
 30
0.0
 10
193.8724143853
 20
255.1947529515
 30
0.0
 10
194.0252616011
 20
254.9073313391
 30
0.0
 10
194.0923535406
 20
254.7018594156
 30
0.0
 10
194.1117811545
 20
254.6014007992
 30
0.0
  0
SPLINE
  5
516
100
AcDbEntity
  8
0
100
AcDbSpline
 62
7
  6
CONTINUOUS
 70
0
 71
3
 72
9
 73
5
 74
0
 42
0.0000001
 43
0.0000001
 44
0.0000000001
 40
0.0
 40
0.0
 40
0.0
 40
0.0
 40
0.2423674136
 40
1.0
 40
1.0
 40
1.0
 40
1.0
 10
194.6919385132
 20
256.1531970545
 30
0.0
 10
194.5846646773
 20
256.1234916757
 30
0.0
 10
194.1463363719
 20
255.9856575012
 30
0.0
 10
193.7273413718
 20
255.7887497315
 30
0.0
 10
193.426004105
 20
255.6147736137
 30
0.0
  0
SPLINE
  5
517
100
AcDbEntity
  8
0
100
AcDbSpline
 62
7
  6
CONTINUOUS
 70
0
 71
3
 72
9
 73
5
 74
0
 42
0.0000001
 43
0.0000001
 44
0.0000000001
 40
0.0
 40
0.0
 40
0.0
 40
0.0
 40
0.2579781968
 40
1.0
 40
1.0
 40
1.0
 40
1.0
 10
139.7768034391
 20
170.2045212939
 30
0.0
 10
139.8134669071
 20
170.2197930803
 30
0.0
 10
139.9547286504
 20
170.28100017
 30
0.0
 10
140.0924513706
 20
170.3505811657
 30
0.0
 10
140.1913812411
 20
170.4077051468
 30
0.0
  0
SPLINE
  5
518
100
AcDbEntity
  8
0
100
AcDbSpline
 62
7
  6
CONTINUOUS
 70
0
 71
3
 72
9
 73
5
 74
0
 42
0.0000001
 43
0.0000001
 44
0.0000000001
 40
0.0
 40
0.0
 40
0.0
 40
0.0
 40
0.2471653767
 40
1.0
 40
1.0
 40
1.0
 40
1.0
 10
200.9102988289
 20
258.5263650062
 30
0.0
 10
200.8029465131
 20
258.528906008
 30
0.0
 10
200.3685431676
 20
258.5225822427
 30
0.0
 10
199.9337908658
 20
258.4485665487
 30
0.0
 10
199.6223167043
 20
258.3487630377
 30
0.0
  0
SPLINE
  5
519
100
AcDbEntity
  8
0
100
AcDbSpline
 62
7
  6
CONTINUOUS
 70
0
 71
3
 72
9
 73
5
 74
0
 42
0.0000001
 43
0.0000001
 44
0.0000000001
 40
0.0
 40
0.0
 40
0.0
 40
0.0
 40
0.5281951882
 40
1.0
 40
1.0
 40
1.0
 40
1.0
 10
142.6119460313
 20
175.8962861882
 30
0.0
 10
142.5375145445
 20
174.9365776996
 30
0.0
 10
142.1571098748
 20
173.1217689737
 30
0.0
 10
141.1720914248
 20
171.5292979748
 30
0.0
 10
140.5774837614
 20
170.9082192539
 30
0.0
  0
SPLINE
  5
51A
100
AcDbEntity
  8
0
100
AcDbSpline
 62
7
  6
CONTINUOUS
 70
0
 71
3
 72
9
 73
5
 74
0
 42
0.0000001
 43
0.0000001
 44
0.0000000001
 40
0.0
 40
0.0
 40
0.0
 40
0.0
 40
0.5013353831
 40
1.0
 40
1.0
 40
1.0
 40
1.0
 10
102.5567928999
 20
221.4119145749
 30
0.0
 10
102.2458206383
 20
220.770403541
 30
0.0
 10
101.6474706594
 20
219.4798276217
 30
0.0
 10
101.1086057508
 20
218.1634874779
 30
0.0
 10
100.8467151816
 20
217.5045088683
 30
0.0
  0
SPLINE
  5
51B
100
AcDbEntity
  8
0
100
AcDbSpline
 62
7
  6
CONTINUOUS
 70
0
 71
3
 72
10
 73
6
 74
0
 42
0.0000001
 43
0.0000001
 44
0.0000000001
 40
0.0
 40
0.0
 40
0.0
 40
0.0
 40
0.2303804508
 40
0.4799920328
 40
1.0
 40
1.0
 40
1.0
 40
1.0
 10
104.94878008
 20
223.9892227845
 30
0.0
 10
104.7321097674
 20
223.8270387985
 30
0.0
 10
104.3111862179
 20
223.4491160221
 30
0.0
 10
103.4974888722
 20
222.6019638119
 30
0.0
 10
102.9189888116
 20
221.9039945029
 30
0.0
 10
102.5567906938
 20
221.4120531225
 30
0.0
  0
SPLINE
  5
51C
100
AcDbEntity
  8
0
100
AcDbSpline
 62
7
  6
CONTINUOUS
 70
0
 71
3
 72
10
 73
6
 74
0
 42
0.0000001
 43
0.0000001
 44
0.0000000001
 40
0.0
 40
0.0
 40
0.0
 40
0.0
 40
0.462865693
 40
0.7220021732
 40
1.0
 40
1.0
 40
1.0
 40
1.0
 10
138.1745428388
 20
169.5535690096
 30
0.0
 10
136.1129551434
 20
168.8928648539
 30
0.0
 10
132.8435614599
 20
168.0300994369
 30
0.0
 10
128.2786303517
 20
167.0139577686
 30
0.0
 10
125.8198970877
 20
166.4974372835
 30
0.0
 10
124.546150893
 20
166.2363669767
 30
0.0
  0
SPLINE
  5
51D
100
AcDbEntity
  8
0
100
AcDbSpline
 62
7
  6
CONTINUOUS
 70
0
 71
3
 72
9
 73
5
 74
0
 42
0.0000001
 43
0.0000001
 44
0.0000000001
 40
0.0
 40
0.0
 40
0.0
 40
0.0
 40
0.5301112936
 40
1.0
 40
1.0
 40
1.0
 40
1.0
 10
124.546150893
 20
166.2363669767
 30
0.0
 10
124.4479286642
 20
166.1106608723
 30
0.0
 10
124.2318596693
 20
165.8935515171
 30
0.0
 10
123.9493413467
 20
165.766166994
 30
0.0
 10
123.8110122105
 20
165.7368278416
 30
0.0
  0
SPLINE
  5
51E
100
AcDbEntity
  8
0
100
AcDbSpline
 62
7
  6
CONTINUOUS
 70
0
 71
3
 72
9
 73
5
 74
0
 42
0.0000001
 43
0.0000001
 44
0.0000000001
 40
0.0
 40
0.0
 40
0.0
 40
0.0
 40
0.5148734884
 40
1.0
 40
1.0
 40
1.0
 40
1.0
 10
125.0119383746
 20
166.8679908737
 30
0.0
 10
127.2842292077
 20
167.1924534162
 30
0.0
 10
131.6743236519
 20
167.9999979114
 30
0.0
 10
135.9801738823
 20
169.1817567508
 30
0.0
 10
138.0349932393
 20
169.856365929
 30
0.0
  0
SPLINE
  5
51F
100
AcDbEntity
  8
0
100
AcDbSpline
 62
7
  6
CONTINUOUS
 70
0
 71
3
 72
9
 73
5
 74
0
 42
0.0000001
 43
0.0000001
 44
0.0000000001
 40
0.0
 40
0.0
 40
0.0
 40
0.0
 40
0.5228069619
 40
1.0
 40
1.0
 40
1.0
 40
1.0
 10
127.2578183619
 20
171.5540869802
 30
0.0
 10
127.0485060818
 20
170.6665317441
 30
0.0
 10
126.488410515
 20
168.9999158686
 30
0.0
 10
125.5514482686
 20
167.501804688
 30
0.0
 10
125.0119383746
 20
166.8679908737
 30
0.0
  0
SPLINE
  5
520
100
AcDbEntity
  8
0
100
AcDbSpline
 62
7
  6
CONTINUOUS
 70
0
 71
3
 72
8
 73
4
 74
0
 42
0.0000001
 43
0.0000001
 44
0.0000000001
 40
0.0
 40
0.0
 40
0.0
 40
0.0
 40
1.0
 40
1.0
 40
1.0
 40
1.0
 10
142.5459283627
 20
175.8629178153
 30
0.0
 10
142.558078685
 20
175.8680791424
 30
0.0
 10
142.5684599118
 20
175.8767752935
 30
0.0
 10
142.5803740445
 20
175.8824606319
 30
0.0
  0
SPLINE
  5
521
100
AcDbEntity
  8
0
100
AcDbSpline
 62
7
  6
CONTINUOUS
 70
0
 71
3
 72
9
 73
5
 74
0
 42
0.0000001
 43
0.0000001
 44
0.0000000001
 40
0.0
 40
0.0
 40
0.0
 40
0.0
 40
0.5225180352
 40
1.0
 40
1.0
 40
1.0
 40
1.0
 10
127.2578992544
 20
171.5541021991
 30
0.0
 10
129.9957013147
 20
171.988351628
 30
0.0
 10
135.1960658439
 20
173.099064006
 30
0.0
 10
140.2259446648
 20
174.8459201493
 30
0.0
 10
142.5459291602
 20
175.8629209354
 30
0.0
  0
SPLINE
  5
522
100
AcDbEntity
  8
0
100
AcDbSpline
 62
7
  6
CONTINUOUS
 70
0
 71
3
 72
9
 73
5
 74
0
 42
0.0000001
 43
0.0000001
 44
0.0000000001
 40
0.0
 40
0.0
 40
0.0
 40
0.0
 40
0.255489111
 40
1.0
 40
1.0
 40
1.0
 40
1.0
 10
128.8118569479
 20
180.158296141
 30
0.0
 10
128.7163073657
 20
179.4196543917
 30
0.0
 10
128.3071856875
 20
176.5332835154
 30
0.0
 10
127.7560737808
 20
173.6665337833
 30
0.0
 10
127.2578985248
 20
171.5540996969
 30
0.0
  0
SPLINE
  5
523
100
AcDbEntity
  8
0
100
AcDbSpline
 62
7
  6
CONTINUOUS
 70
0
 71
3
 72
12
 73
8
 74
0
 42
0.0000001
 43
0.0000001
 44
0.0000000001
 40
0.0
 40
0.0
 40
0.0
 40
0.0
 40
0.2688331464
 40
0.3964621987
 40
0.5220272216
 40
0.766611412
 40
1.0
 40
1.0
 40
1.0
 40
1.0
 10
142.5459383003
 20
175.8629100925
 30
0.0
 10
142.4446723962
 20
175.3972495932
 30
0.0
 10
142.2850769023
 20
174.7118638792
 30
0.0
 10
141.9978335903
 20
173.831399999
 30
0.0
 10
141.660336672
 20
173.015281018
 30
0.0
 10
141.1462658163
 20
172.0729969851
 30
0.0
 10
140.6411274503
 20
171.3887221828
 30
0.0
 10
140.3708939434
 20
171.0754602661
 30
0.0
  0
SPLINE
  5
524
100
AcDbEntity
  8
0
100
AcDbSpline
 62
7
  6
CONTINUOUS
 70
0
 71
3
 72
9
 73
5
 74
0
 42
0.0000001
 43
0.0000001
 44
0.0000000001
 40
0.0
 40
0.0
 40
0.0
 40
0.0
 40
0.2533607106
 40
1.0
 40
1.0
 40
1.0
 40
1.0
 10
140.3708939434
 20
171.0754602661
 30
0.0
 10
140.3233717778
 20
171.0203712994
 30
0.0
 10
140.132903658
 20
170.8054634762
 30
0.0
 10
139.9307397855
 20
170.6008760057
 30
0.0
 10
139.773510344
 20
170.455112188
 30
0.0
  0
SPLINE
  5
525
100
AcDbEntity
  8
0
100
AcDbSpline
 62
7
  6
CONTINUOUS
 70
0
 71
3
 72
9
 73
5
 74
0
 42
0.0000001
 43
0.0000001
 44
0.0000000001
 40
0.0
 40
0.0
 40
0.0
 40
0.0
 40
0.2531396943
 40
1.0
 40
1.0
 40
1.0
 40
1.0
 10
139.7735252402
 20
170.4550855291
 30
0.0
 10
139.7107393823
 20
170.3966923481
 30
0.0
 10
139.4587542495
 20
170.1703202104
 30
0.0
 10
139.1904697665
 20
169.96199316
 30
0.0
 10
138.9820728467
 20
169.8185817516
 30
0.0
  0
SPLINE
  5
526
100
AcDbEntity
  8
0
100
AcDbSpline
 62
7
  6
CONTINUOUS
 70
0
 71
3
 72
9
 73
5
 74
0
 42
0.0000001
 43
0.0000001
 44
0.0000000001
 40
0.0
 40
0.0
 40
0.0
 40
0.0
 40
0.5209409457
 40
1.0
 40
1.0
 40
1.0
 40
1.0
 10
128.8118569463
 20
180.1582961278
 30
0.0
 10
125.870180263
 20
179.4880095065
 30
0.0
 10
120.2907043649
 20
177.8756833212
 30
0.0
 10
114.9742680986
 20
175.5124995238
 30
0.0
 10
112.5476097902
 20
174.1674151504
 30
0.0
  0
SPLINE
  5
527
100
AcDbEntity
  8
0
100
AcDbSpline
 62
7
  6
CONTINUOUS
 70
0
 71
3
 72
9
 73
5
 74
0
 42
0.0000001
 43
0.0000001
 44
0.0000000001
 40
0.0
 40
0.0
 40
0.0
 40
0.0
 40
0.2538040442
 40
1.0
 40
1.0
 40
1.0
 40
1.0
 10
111.6214118224
 20
169.1403376699
 30
0.0
 10
111.5706641627
 20
168.9514316297
 30
0.0
 10
111.3621139638
 20
168.2094296845
 30
0.0
 10
111.1154204792
 20
167.4784708867
 30
0.0
 10
110.9169644152
 20
166.9387143825
 30
0.0
  0
SPLINE
  5
528
100
AcDbEntity
  8
0
100
AcDbSpline
 62
7
  6
CONTINUOUS
 70
0
 71
3
 72
10
 73
6
 74
0
 42
0.0000001
 43
0.0000001
 44
0.0000000001
 40
0.0
 40
0.0
 40
0.0
 40
0.0
 40
0.3090119737
 40
0.5798914474
 40
1.0
 40
1.0
 40
1.0
 40
1.0
 10
130.894526736
 20
209.7596684056
 30
0.0
 10
130.8438201389
 20
209.789032943
 30
0.0
 10
130.7438487128
 20
209.8370064721
 30
0.0
 10
130.5617040285
 20
209.8880085668
 30
0.0
 10
130.4172688476
 20
209.8668041992
 30
0.0
 10
130.3526664281
 20
209.8201936327
 30
0.0
  0
SPLINE
  5
529
100
AcDbEntity
  8
0
100
AcDbSpline
 62
7
  6
CONTINUOUS
 70
0
 71
3
 72
11
 73
7
 74
0
 42
0.0000001
 43
0.0000001
 44
0.0000000001
 40
0.0
 40
0.0
 40
0.0
 40
0.0
 40
0.2622080075
 40
0.5192993433
 40
0.767981181
 40
1.0
 40
1.0
 40
1.0
 40
1.0
 10
128.8304845327
 20
206.4094125199
 30
0.0
 10
128.9854881908
 20
206.6937279073
 30
0.0
 10
129.2995767271
 20
207.2529879536
 30
0.0
 10
129.7897854215
 20
208.0651500399
 30
0.0
 10
130.2838112227
 20
208.8307473939
 30
0.0
 10
130.6016702906
 20
209.3322750984
 30
0.0
 10
130.7623808255
 20
209.5695032814
 30
0.0
  0
SPLINE
  5
52A
100
AcDbEntity
  8
0
100
AcDbSpline
 62
7
  6
CONTINUOUS
 70
0
 71
3
 72
9
 73
5
 74
0
 42
0.0000001
 43
0.0000001
 44
0.0000000001
 40
0.0
 40
0.0
 40
0.0
 40
0.0
 40
0.2555861154
 40
1.0
 40
1.0
 40
1.0
 40
1.0
 10
130.7623808255
 20
209.5695032814
 30
0.0
 10
130.7734458312
 20
209.5858365679
 30
0.0
 10
130.8168969001
 20
209.649633964
 30
0.0
 10
130.8610435716
 20
209.7129605113
 30
0.0
 10
130.8944453765
 20
209.759715517
 30
0.0
  0
SPLINE
  5
52B
100
AcDbEntity
  8
0
100
AcDbSpline
 62
7
  6
CONTINUOUS
 70
0
 71
3
 72
9
 73
5
 74
0
 42
0.0000001
 43
0.0000001
 44
0.0000000001
 40
0.0
 40
0.0
 40
0.0
 40
0.0
 40
0.2545965242
 40
1.0
 40
1.0
 40
1.0
 40
1.0
 10
135.8150800145
 20
211.3263622157
 30
0.0
 10
136.351505503
 20
211.6196872129
 30
0.0
 10
138.4417850938
 20
212.8019229521
 30
0.0
 10
140.4637261088
 20
214.1060153213
 30
0.0
 10
141.9190622678
 20
215.1481808222
 30
0.0
  0
SPLINE
  5
52C
100
AcDbEntity
  8
0
100
AcDbSpline
 62
7
  6
CONTINUOUS
 70
0
 71
3
 72
9
 73
5
 74
0
 42
0.0000001
 43
0.0000001
 44
0.0000000001
 40
0.0
 40
0.0
 40
0.0
 40
0.0
 40
0.503013935
 40
1.0
 40
1.0
 40
1.0
 40
1.0
 10
130.8944544027
 20
209.7596845732
 30
0.0
 10
131.7453753812
 20
209.9321695218
 30
0.0
 10
133.4314230156
 20
210.3021194986
 30
0.0
 10
135.0622551393
 20
210.9151860003
 30
0.0
 10
135.8151398758
 20
211.3263108484
 30
0.0
  0
SPLINE
  5
52D
100
AcDbEntity
  8
0
100
AcDbSpline
 62
7
  6
CONTINUOUS
 70
0
 71
3
 72
10
 73
6
 74
0
 42
0.0000001
 43
0.0000001
 44
0.0000000001
 40
0.0
 40
0.0
 40
0.0
 40
0.0
 40
0.4948542971
 40
0.7579673124
 40
1.0
 40
1.0
 40
1.0
 40
1.0
 10
141.9189414657
 20
215.1482511157
 30
0.0
 10
142.1043586435
 20
215.0416193803
 30
0.0
 10
142.3475030054
 20
214.805515127
 30
0.0
 10
142.5822137022
 20
214.4432673961
 30
0.0
 10
142.6721730601
 20
214.2413794326
 30
0.0
 10
142.698470251
 20
214.1401241394
 30
0.0
  0
SPLINE
  5
52E
100
AcDbEntity
  8
0
100
AcDbSpline
 62
7
  6
CONTINUOUS
 70
0
 71
3
 72
8
 73
4
 74
0
 42
0.0000001
 43
0.0000001
 44
0.0000000001
 40
0.0
 40
0.0
 40
0.0
 40
0.0
 40
1.0
 40
1.0
 40
1.0
 40
1.0
 10
162.2037197822
 20
231.1206786944
 30
0.0
 10
159.3375744129
 20
228.8565419879
 30
0.0
 10
156.4699033717
 20
226.5943353067
 30
0.0
 10
153.6007282332
 20
224.3340392356
 30
0.0
  0
SPLINE
  5
52F
100
AcDbEntity
  8
0
100
AcDbSpline
 62
7
  6
CONTINUOUS
 70
0
 71
3
 72
9
 73
5
 74
0
 42
0.0000001
 43
0.0000001
 44
0.0000000001
 40
0.0
 40
0.0
 40
0.0
 40
0.0
 40
0.4825990079
 40
1.0
 40
1.0
 40
1.0
 40
1.0
 10
135.8173146216
 20
211.3276485447
 30
0.0
 10
135.9684090583
 20
211.1978648017
 30
0.0
 10
136.2197320006
 20
210.861155413
 30
0.0
 10
136.3954763209
 20
210.4832798964
 30
0.0
 10
136.4530980773
 20
210.2776555307
 30
0.0
  0
SPLINE
  5
530
100
AcDbEntity
  8
0
100
AcDbSpline
 62
7
  6
CONTINUOUS
 70
0
 71
3
 72
9
 73
5
 74
0
 42
0.0000001
 43
0.0000001
 44
0.0000000001
 40
0.0
 40
0.0
 40
0.0
 40
0.0
 40
0.2547168238
 40
1.0
 40
1.0
 40
1.0
 40
1.0
 10
136.4530980773
 20
210.2776555307
 30
0.0
 10
137.0018204451
 20
210.5741248756
 30
0.0
 10
139.139363583
 20
211.7685578591
 30
0.0
 10
141.2084238685
 20
213.086592043
 30
0.0
 10
142.698470251
 20
214.1401241394
 30
0.0
  0
SPLINE
  5
531
100
AcDbEntity
  8
0
100
AcDbSpline
 62
7
  6
CONTINUOUS
 70
0
 71
3
 72
9
 73
5
 74
0
 42
0.0000001
 43
0.0000001
 44
0.0000000001
 40
0.0
 40
0.0
 40
0.0
 40
0.0
 40
0.2415269006
 40
1.0
 40
1.0
 40
1.0
 40
1.0
 10
163.7727869859
 20
234.6864491634
 30
0.0
 10
163.7366113181
 20
234.7163641947
 30
0.0
 10
163.5839617593
 20
234.8367346079
 30
0.0
 10
163.4207121424
 20
234.9434495918
 30
0.0
 10
163.2930473142
 20
235.0171564015
 30
0.0
  0
SPLINE
  5
532
100
AcDbEntity
  8
0
100
AcDbSpline
 62
7
  6
CONTINUOUS
 70
0
 71
3
 72
13
 73
9
 74
0
 42
0.0000001
 43
0.0000001
 44
0.0000000001
 40
0.0
 40
0.0
 40
0.0
 40
0.0
 40
0.1244395345
 40
0.2501957984
 40
0.3767897992
 40
0.5035293363
 40
0.7554437549
 40
1.0
 40
1.0
 40
1.0
 40
1.0
 10
128.4364244747
 20
204.9367098445
 30
0.0
 10
128.8301704548
 20
205.0187269124
 30
0.0
 10
129.6017096122
 20
205.2882649405
 30
0.0
 10
130.6564384029
 20
205.9046846223
 30
0.0
 10
131.6408783375
 20
206.6361029795
 30
0.0
 10
132.8999273904
 20
207.6764312387
 30
0.0
 10
134.4314070468
 20
208.9832313984
 30
0.0
 10
135.7571201814
 20
209.9029985518
 30
0.0
 10
136.4530591332
 20
210.2777484584
 30
0.0
  0
SPLINE
  5
533
100
AcDbEntity
  8
0
100
AcDbSpline
 62
7
  6
CONTINUOUS
 70
0
 71
3
 72
11
 73
7
 74
0
 42
0.0000001
 43
0.0000001
 44
0.0000000001
 40
0.0
 40
0.0
 40
0.0
 40
0.0
 40
0.1966976161
 40
0.4349446871
 40
0.6999929342
 40
1.0
 40
1.0
 40
1.0
 40
1.0
 10
128.8304858057
 20
206.4094118739
 30
0.0
 10
128.7834728305
 20
206.3210338524
 30
0.0
 10
128.7119690385
 20
206.1096370253
 30
0.0
 10
128.6254948229
 20
205.7645306075
 30
0.0
 10
128.5420157742
 20
205.3641525794
 30
0.0
 10
128.4774143487
 20
205.083782319
 30
0.0
 10
128.4363720707
 20
204.9367208097
 30
0.0
  0
SPLINE
  5
534
100
AcDbEntity
  8
0
100
AcDbSpline
 62
7
  6
CONTINUOUS
 70
0
 71
3
 72
12
 73
8
 74
0
 42
0.0000001
 43
0.0000001
 44
0.0000000001
 40
0.0
 40
0.0
 40
0.0
 40
0.0
 40
0.0417778478
 40
0.1135339748
 40
0.3358477325
 40
0.6658806578
 40
1.0
 40
1.0
 40
1.0
 40
1.0
 10
125.804636877
 20
202.9020015163
 30
0.0
 10
125.7954821293
 20
202.8783429415
 30
0.0
 10
125.8274984787
 20
202.8043631845
 30
0.0
 10
125.9740068551
 20
202.6701273241
 30
0.0
 10
126.2998279377
 20
202.4631462428
 30
0.0
 10
126.7851065074
 20
202.2345091518
 30
0.0
 10
127.1650852998
 20
202.0948020073
 30
0.0
 10
127.3597713919
 20
202.0377210136
 30
0.0
  0
SPLINE
  5
535
100
AcDbEntity
  8
0
100
AcDbSpline
 62
7
  6
CONTINUOUS
 70
0
 71
3
 72
9
 73
5
 74
0
 42
0.0000001
 43
0.0000001
 44
0.0000000001
 40
0.0
 40
0.0
 40
0.0
 40
0.0
 40
0.2507784444
 40
1.0
 40
1.0
 40
1.0
 40
1.0
 10
128.4367091885
 20
204.9366045932
 30
0.0
 10
128.3579586085
 20
204.7310363778
 30
0.0
 10
128.0488025449
 20
203.9094472626
 30
0.0
 10
127.7521299656
 20
203.083258529
 30
0.0
 10
127.5246808364
 20
202.4661656128
 30
0.0
  0
SPLINE
  5
536
100
AcDbEntity
  8
0
100
AcDbSpline
 62
7
  6
CONTINUOUS
 70
0
 71
3
 72
9
 73
5
 74
0
 42
0.0000001
 43
0.0000001
 44
0.0000000001
 40
0.0
 40
0.0
 40
0.0
 40
0.0
 40
0.2518434179
 40
1.0
 40
1.0
 40
1.0
 40
1.0
 10
127.5773369232
 20
201.9646106914
 30
0.0
 10
128.3700575432
 20
202.6086762354
 30
0.0
 10
131.4732788245
 20
205.2201698566
 30
0.0
 10
134.3946655852
 20
208.0488472363
 30
0.0
 10
136.4533000926
 20
210.2779029682
 30
0.0
  0
SPLINE
  5
537
100
AcDbEntity
  8
0
100
AcDbSpline
 62
7
  6
CONTINUOUS
 70
0
 71
3
 72
10
 73
6
 74
0
 42
0.0000001
 43
0.0000001
 44
0.0000000001
 40
0.0
 40
0.0
 40
0.0
 40
0.0
 40
0.2548707307
 40
0.6325618154
 40
1.0
 40
1.0
 40
1.0
 40
1.0
 10
127.7026232688
 20
205.250262587
 30
0.0
 10
127.6840181592
 20
205.0140042709
 30
0.0
 10
127.6482788728
 20
204.4268511009
 30
0.0
 10
127.5956690788
 20
203.4985796289
 30
0.0
 10
127.5540044294
 20
202.8068233611
 30
0.0
 10
127.5236254359
 20
202.4665168253
 30
0.0
  0
SPLINE
  5
538
100
AcDbEntity
  8
0
100
AcDbSpline
 62
7
  6
CONTINUOUS
 70
0
 71
3
 72
9
 73
5
 74
0
 42
0.0000001
 43
0.0000001
 44
0.0000000001
 40
0.0
 40
0.0
 40
0.0
 40
0.0
 40
0.2137727962
 40
1.0
 40
1.0
 40
1.0
 40
1.0
 10
190.7829106491
 20
254.847458835
 30
0.0
 10
190.8160775676
 20
254.8675524166
 30
0.0
 10
190.9947409062
 20
254.9235252544
 30
0.0
 10
191.182745874
 20
254.8460671539
 30
0.0
 10
191.3061678795
 20
254.7745941899
 30
0.0
  0
SPLINE
  5
539
100
AcDbEntity
  8
0
100
AcDbSpline
 62
7
  6
CONTINUOUS
 70
0
 71
3
 72
14
 73
10
 74
0
 42
0.0000001
 43
0.0000001
 44
0.0000000001
 40
0.0
 40
0.0
 40
0.0
 40
0.0
 40
0.2541734337
 40
0.3792724336
 40
0.5033624919
 40
0.6268657755
 40
0.7504790639
 40
0.874707245
 40
1.0
 40
1.0
 40
1.0
 40
1.0
 10
112.3000683433
 20
193.6116986809
 30
0.0
 10
113.1827625066
 20
193.7494583428
 30
0.0
 10
114.4845960992
 20
194.0566984044
 30
0.0
 10
116.1734855613
 20
194.5836726551
 30
0.0
 10
117.4084483231
 20
195.0215457034
 30
0.0
 10
118.6222031228
 20
195.5015171077
 30
0.0
 10
119.8080776595
 20
196.0480613395
 30
0.0
 10
120.9795645974
 20
196.6378763937
 30
0.0
 10
121.7515485561
 20
197.0547062147
 30
0.0
 10
122.1332340754
 20
197.2743750672
 30
0.0
  0
SPLINE
  5
53A
100
AcDbEntity
  8
0
100
AcDbSpline
 62
7
  6
CONTINUOUS
 70
0
 71
3
 72
8
 73
4
 74
0
 42
0.0000001
 43
0.0000001
 44
0.0000000001
 40
0.0
 40
0.0
 40
0.0
 40
0.0
 40
1.0
 40
1.0
 40
1.0
 40
1.0
 10
127.1739091531
 20
201.6354971641
 30
0.0
 10
127.2436386076
 20
201.7656872396
 30
0.0
 10
127.306660403
 20
201.8998788758
 30
0.0
 10
127.3598368712
 20
202.0376610075
 30
0.0
  0
SPLINE
  5
53B
100
AcDbEntity
  8
0
100
AcDbSpline
 62
7
  6
CONTINUOUS
 70
0
 71
3
 72
17
 73
13
 74
0
 42
0.0000001
 43
0.0000001
 44
0.0000000001
 40
0.0
 40
0.0
 40
0.0
 40
0.0
 40
0.1247919808
 40
0.2500229246
 40
0.5006157759
 40
0.6258504464
 40
0.6884150865
 40
0.7509391409
 40
0.8133567885
 40
0.8756419779
 40
0.9381254934
 40
1.0
 40
1.0
 40
1.0
 40
1.0
 10
112.3001267992
 20
193.6117615545
 30
0.0
 10
112.3675413408
 20
193.335633526
 30
0.0
 10
112.4901549661
 20
192.7790402719
 30
0.0
 10
112.638059308
 20
191.6464519108
 30
0.0
 10
112.6222908876
 20
190.5011336552
 30
0.0
 10
112.5558244593
 20
189.5048655643
 30
0.0
 10
112.4884936867
 20
188.9385408812
 30
0.0
 10
112.4259656889
 20
188.5159887795
 30
0.0
 10
112.375932725
 20
188.0926477144
 30
0.0
 10
112.314556995
 20
187.6699411179
 30
0.0
 10
112.2066282801
 20
187.2591620997
 30
0.0
 10
112.149721064
 20
186.9795482107
 30
0.0
 10
112.1439506028
 20
186.8387350309
 30
0.0
  0
SPLINE
  5
53C
100
AcDbEntity
  8
0
100
AcDbSpline
 62
7
  6
CONTINUOUS
 70
0
 71
3
 72
9
 73
5
 74
0
 42
0.0000001
 43
0.0000001
 44
0.0000000001
 40
0.0
 40
0.0
 40
0.0
 40
0.0
 40
0.2464900463
 40
1.0
 40
1.0
 40
1.0
 40
1.0
 10
112.1439506028
 20
186.8387350309
 30
0.0
 10
112.9019923446
 20
187.7528042178
 30
0.0
 10
116.0476531674
 20
191.4025874284
 30
0.0
 10
119.4558605055
 20
194.8234399281
 30
0.0
 10
122.1339996786
 20
197.2740352269
 30
0.0
  0
SPLINE
  5
53D
100
AcDbEntity
  8
0
100
AcDbSpline
 62
7
  6
CONTINUOUS
 70
0
 71
3
 72
9
 73
5
 74
0
 42
0.0000001
 43
0.0000001
 44
0.0000000001
 40
0.0
 40
0.0
 40
0.0
 40
0.0
 40
0.5533689551
 40
1.0
 40
1.0
 40
1.0
 40
1.0
 10
110.9019304449
 20
193.4658255238
 30
0.0
 10
110.8767862917
 20
193.5868534783
 30
0.0
 10
110.8228241809
 20
193.8036978118
 30
0.0
 10
110.751386028
 20
194.0162234816
 30
0.0
 10
110.7101247526
 20
194.1070605044
 30
0.0
  0
SPLINE
  5
53E
100
AcDbEntity
  8
0
100
AcDbSpline
 62
7
  6
CONTINUOUS
 70
0
 71
3
 72
14
 73
10
 74
0
 42
0.0000001
 43
0.0000001
 44
0.0000000001
 40
0.0
 40
0.0
 40
0.0
 40
0.0
 40
0.0879070129
 40
0.1683740063
 40
0.3030492746
 40
0.4789270425
 40
0.5874415711
 40
0.7111995185
 40
1.0
 40
1.0
 40
1.0
 40
1.0
 10
223.696511413
 20
263.614536322
 30
0.0
 10
223.7148852724
 20
263.5377609506
 30
0.0
 10
223.7294000955
 20
263.3828178875
 30
0.0
 10
223.6342239976
 20
263.11860456
 30
0.0
 10
223.3550635605
 20
262.8817240996
 30
0.0
 10
223.0041329699
 20
262.743619056
 30
0.0
 10
222.6574258487
 20
262.6249448487
 30
0.0
 10
222.2145645509
 20
262.4738307051
 30
0.0
 10
221.8608857727
 20
262.3625614554
 30
0.0
 10
221.6104669308
 20
262.2950780459
 30
0.0
  0
SPLINE
  5
53F
100
AcDbEntity
  8
0
100
AcDbSpline
 62
7
  6
CONTINUOUS
 70
0
 71
3
 72
8
 73
4
 74
0
 42
0.0000001
 43
0.0000001
 44
0.0000000001
 40
0.0
 40
0.0
 40
0.0
 40
0.0
 40
1.0
 40
1.0
 40
1.0
 40
1.0
 10
102.7075438143
 20
192.9184819114
 30
0.0
 10
103.5036577061
 20
192.9778373571
 30
0.0
 10
104.2996907005
 20
193.0382840771
 30
0.0
 10
105.0958687645
 20
193.0967724341
 30
0.0
  0
SPLINE
  5
540
100
AcDbEntity
  8
0
100
AcDbSpline
 62
7
  6
CONTINUOUS
 70
0
 71
3
 72
9
 73
5
 74
0
 42
0.0000001
 43
0.0000001
 44
0.0000000001
 40
0.0
 40
0.0
 40
0.0
 40
0.0
 40
0.5716129525
 40
1.0
 40
1.0
 40
1.0
 40
1.0
 10
112.3000708855
 20
193.6117000337
 30
0.0
 10
112.2570379933
 20
193.7747380138
 30
0.0
 10
112.1689144051
 20
194.0560804138
 30
0.0
 10
112.0511652975
 20
194.3293143477
 30
0.0
 10
111.9829531857
 20
194.4356944391
 30
0.0
  0
SPLINE
  5
541
100
AcDbEntity
  8
0
100
AcDbSpline
 62
7
  6
CONTINUOUS
 70
0
 71
3
 72
8
 73
4
 74
0
 42
0.0000001
 43
0.0000001
 44
0.0000000001
 40
0.0
 40
0.0
 40
0.0
 40
0.0
 40
1.0
 40
1.0
 40
1.0
 40
1.0
 10
110.9019304439
 20
193.4658255238
 30
0.0
 10
111.3697737225
 20
193.4920051476
 30
0.0
 10
111.8364707943
 20
193.5435708697
 30
0.0
 10
112.3000667968
 20
193.6116990761
 30
0.0
  0
SPLINE
  5
542
100
AcDbEntity
  8
0
100
AcDbSpline
 62
7
  6
CONTINUOUS
 70
0
 71
3
 72
11
 73
7
 74
0
 42
0.0000001
 43
0.0000001
 44
0.0000000001
 40
0.0
 40
0.0
 40
0.0
 40
0.0
 40
0.2499221275
 40
0.4991045933
 40
0.748462952
 40
1.0
 40
1.0
 40
1.0
 40
1.0
 10
111.9830156469
 20
194.4355110413
 30
0.0
 10
112.7305063948
 20
194.6528084068
 30
0.0
 10
114.1895004807
 20
195.2005375716
 30
0.0
 10
116.3113363873
 20
196.166852262
 30
0.0
 10
118.394045748
 20
197.2268497544
 30
0.0
 10
119.760904751
 20
197.9797065546
 30
0.0
 10
120.439475751
 20
198.3713164711
 30
0.0
  0
SPLINE
  5
543
100
AcDbEntity
  8
0
100
AcDbSpline
 62
7
  6
CONTINUOUS
 70
0
 71
3
 72
8
 73
4
 74
0
 42
0.0000001
 43
0.0000001
 44
0.0000000001
 40
0.0
 40
0.0
 40
0.0
 40
0.0
 40
1.0
 40
1.0
 40
1.0
 40
1.0
 10
110.7101950095
 20
194.1069538322
 30
0.0
 10
111.1382169635
 20
194.2007892295
 30
0.0
 10
111.5622351124
 20
194.3133139943
 30
0.0
 10
111.9830024252
 20
194.4356362871
 30
0.0
  0
SPLINE
  5
544
100
AcDbEntity
  8
0
100
AcDbSpline
 62
7
  6
CONTINUOUS
 70
0
 71
3
 72
9
 73
5
 74
0
 42
0.0000001
 43
0.0000001
 44
0.0000000001
 40
0.0
 40
0.0
 40
0.0
 40
0.0
 40
0.2410390189
 40
1.0
 40
1.0
 40
1.0
 40
1.0
 10
111.6214118224
 20
169.1403376699
 30
0.0
 10
111.728142772
 20
169.5355360542
 30
0.0
 10
112.1354713558
 20
171.1846076365
 30
0.0
 10
112.4056185339
 20
172.8664313945
 30
0.0
 10
112.5454414229
 20
174.1477702658
 30
0.0
  0
SPLINE
  5
545
100
AcDbEntity
  8
0
100
AcDbSpline
 62
7
  6
CONTINUOUS
 70
0
 71
3
 72
11
 73
7
 74
0
 42
0.0000001
 43
0.0000001
 44
0.0000000001
 40
0.0
 40
0.0
 40
0.0
 40
0.0
 40
0.2785819415
 40
0.5374329713
 40
0.7771948251
 40
1.0
 40
1.0
 40
1.0
 40
1.0
 10
63.2877395831
 20
149.5264907786
 30
0.0
 10
63.3298351996
 20
148.0925669343
 30
0.0
 10
63.2688100743
 20
145.3187608561
 30
0.0
 10
62.6860640496
 20
141.3474576572
 30
0.0
 10
61.6225400895
 20
137.7735392524
 30
0.0
 10
60.5632314992
 20
135.6227197286
 30
0.0
 10
59.9565990698
 20
134.6488892888
 30
0.0
  0
SPLINE
  5
546
100
AcDbEntity
  8
0
100
AcDbSpline
 62
7
  6
CONTINUOUS
 70
0
 71
3
 72
9
 73
5
 74
0
 42
0.0000001
 43
0.0000001
 44
0.0000000001
 40
0.0
 40
0.0
 40
0.0
 40
0.0
 40
0.5086882652
 40
1.0
 40
1.0
 40
1.0
 40
1.0
 10
102.7373242548
 20
218.5958329507
 30
0.0
 10
102.3691925701
 20
217.9565444753
 30
0.0
 10
101.7804516967
 20
216.6188949096
 30
0.0
 10
101.5307873696
 20
215.1624731774
 30
0.0
 10
101.546918992
 20
214.4501491153
 30
0.0
  0
SPLINE
  5
547
100
AcDbEntity
  8
0
100
AcDbSpline
 62
7
  6
CONTINUOUS
 70
0
 71
3
 72
11
 73
7
 74
0
 42
0.0000001
 43
0.0000001
 44
0.0000000001
 40
0.0
 40
0.0
 40
0.0
 40
0.0
 40
0.2103145619
 40
0.4406013589
 40
0.7032540974
 40
1.0
 40
1.0
 40
1.0
 40
1.0
 10
105.1793034567
 20
228.6062386379
 30
0.0
 10
105.211077089
 20
228.6390412863
 30
0.0
 10
105.2929182032
 20
228.6940752194
 30
0.0
 10
105.4445666204
 20
228.7277174904
 30
0.0
 10
105.6173620408
 20
228.7164087501
 30
0.0
 10
105.7348881667
 20
228.682458389
 30
0.0
 10
105.7951067332
 20
228.6595297632
 30
0.0
  0
SPLINE
  5
548
100
AcDbEntity
  8
0
100
AcDbSpline
 62
7
  6
CONTINUOUS
 70
0
 71
3
 72
9
 73
5
 74
0
 42
0.0000001
 43
0.0000001
 44
0.0000000001
 40
0.0
 40
0.0
 40
0.0
 40
0.0
 40
0.512443105
 40
1.0
 40
1.0
 40
1.0
 40
1.0
 10
154.5229849152
 20
181.1811133212
 30
0.0
 10
154.2554134046
 20
180.7887077781
 30
0.0
 10
153.5827629816
 20
180.109705959
 30
0.0
 10
152.6786518288
 20
179.7776773562
 30
0.0
 10
152.2299550049
 20
179.7241044542
 30
0.0
  0
SPLINE
  5
549
100
AcDbEntity
  8
0
100
AcDbSpline
 62
7
  6
CONTINUOUS
 70
0
 71
3
 72
10
 73
6
 74
0
 42
0.0000001
 43
0.0000001
 44
0.0000000001
 40
0.0
 40
0.0
 40
0.0
 40
0.0
 40
0.2224492168
 40
0.5888844994
 40
1.0
 40
1.0
 40
1.0
 40
1.0
 10
53.3194964084
 20
136.2026758927
 30
0.0
 10
53.8587641395
 20
137.0730081513
 30
0.0
 10
55.0538147704
 20
139.5253820052
 30
0.0
 10
56.1479587143
 20
144.0379422257
 30
0.0
 10
56.2856736634
 20
147.6350740794
 30
0.0
 10
56.2152360448
 20
149.525989734
 30
0.0
  0
SPLINE
  5
54A
100
AcDbEntity
  8
0
100
AcDbSpline
 62
7
  6
CONTINUOUS
 70
0
 71
3
 72
17
 73
13
 74
0
 42
0.0000001
 43
0.0000001
 44
0.0000000001
 40
0.0
 40
0.0
 40
0.0
 40
0.0
 40
0.1558133587
 40
0.3126810089
 40
0.4629756752
 40
0.5999840809
 40
0.7192902116
 40
0.8205355484
 40
0.8662286438
 40
0.9102349977
 40
0.9542828331
 40
1.0
 40
1.0
 40
1.0
 40
1.0
 10
39.6183452345
 20
144.1128226761
 30
0.0
 10
39.9813269822
 20
143.2100077104
 30
0.0
 10
40.8557130631
 20
141.4541313895
 30
0.0
 10
42.5133214353
 20
139.0732366357
 30
0.0
 10
44.4304908517
 20
137.0522679015
 30
0.0
 10
46.4812467192
 20
135.5283669078
 30
0.0
 10
48.5347462201
 20
134.5997366055
 30
0.0
 10
50.2251842161
 20
134.3874447148
 30
0.0
 10
51.4036984742
 20
134.6252934558
 30
0.0
 10
52.1688669974
 20
134.9804904478
 30
0.0
 10
52.824166428
 20
135.5113206091
 30
0.0
 10
53.1692286643
 20
135.9599175735
 30
0.0
 10
53.3194964084
 20
136.2026758927
 30
0.0
  0
SPLINE
  5
54B
100
AcDbEntity
  8
0
100
AcDbSpline
 62
7
  6
CONTINUOUS
 70
0
 71
3
 72
9
 73
5
 74
0
 42
0.0000001
 43
0.0000001
 44
0.0000000001
 40
0.0
 40
0.0
 40
0.0
 40
0.0
 40
0.4758708016
 40
1.0
 40
1.0
 40
1.0
 40
1.0
 10
35.7096267021
 20
161.3646409813
 30
0.0
 10
35.7912885442
 20
158.5492899237
 30
0.0
 10
36.6382249969
 20
152.6480030205
 30
0.0
 10
38.460668862
 20
146.9908765983
 30
0.0
 10
39.6183452345
 20
144.1128226761
 30
0.0
  0
SPLINE
  5
54C
100
AcDbEntity
  8
0
100
AcDbSpline
 62
7
  6
CONTINUOUS
 70
0
 71
3
 72
14
 73
10
 74
0
 42
0.0000001
 43
0.0000001
 44
0.0000000001
 40
0.0
 40
0.0
 40
0.0
 40
0.0
 40
0.110834869
 40
0.2344455384
 40
0.3652304528
 40
0.498962107
 40
0.6325342398
 40
0.7625806667
 40
1.0
 40
1.0
 40
1.0
 40
1.0
 10
63.2876889502
 20
149.5266210003
 30
0.0
 10
63.0408706504
 20
149.4165386299
 30
0.0
 10
62.5055906074
 20
149.2136923777
 30
0.0
 10
61.6547978759
 20
148.9485528161
 30
0.0
 10
60.725271405
 20
148.7576745938
 30
0.0
 10
59.7544015564
 20
148.6907838927
 30
0.0
 10
58.784023247
 20
148.7344995865
 30
0.0
 10
57.5775537908
 20
148.9313613065
 30
0.0
 10
56.7175202574
 20
149.2374607283
 30
0.0
 10
56.2155348615
 20
149.5258171327
 30
0.0
  0
ELLIPSE
  5
54D
100
AcDbEntity
  8
0
100
AcDbEllipse
 62
7
  6
CONTINUOUS
 10
124.9760846385
 20
202.5760984436
 30
0.0
 11
4.250080933
 21
0.0004205876
 31
0.0
 40
0.5774299438
 41
-2.3562284471
 42
-2.2892936954
  0
ELLIPSE
  5
54E
100
AcDbEntity
  8
0
100
AcDbEllipse
 62
7
  6
CONTINUOUS
 10
105.8165201326
 20
213.6376279234
 30
0.0
 11
4.2507282656
 21
0.0004204048
 31
0.0
 40
0.5772540865
 41
-2.4233154309
 42
-2.3563806791
  0
ENDSEC
  0
SECTION
  2
OBJECTS
  0
DICTIONARY
  5
C
100
AcDbDictionary
280
0
281
1
  3
ACAD_GROUP
350
D
  3
ACAD_MLINESTYLE
350
17
  3
ACAD_LAYOUT
350
1A
  3
ACAD_PLOTSETTINGS
350
19
  3
ACAD_PLOTSTYLENAME
350
E
  0
DICTIONARY
  5
D
102
{ACAD_REACTORS
330
C
102
}
100
AcDbDictionary
280
0
281
1
  0
ACDBDICTIONARYWDFLT
  5
E
102
{ACAD_REACTORS
330
C
102
}
100
AcDbDictionary
281
1
  3
Normal
350
F
100
AcDbDictionaryWithDefault
340
F
  0
DICTIONARY
  5
17
102
{ACAD_REACTORS
330
C
102
}
100
AcDbDictionary
280
0
281
1
  3
Standard
350
18
  0
DICTIONARY
  5
19
102
{ACAD_REACTORS
330
C
102
}
100
AcDbDictionary
281
1
  0
DICTIONARY
  5
1A
102
{ACAD_REACTORS
330
C
102
}
100
AcDbDictionary
281
1
  3
Model
350
54F
  3
Layout1
350
550
  0
ACDBPLACEHOLDER
  5
F
102
{ACAD_REACTORS
330
E
102
}
  0
MLINESTYLE
  5
18
102
{ACAD_REACTORS
330
17
102
}
100
AcDbMlineStyle
  2
STANDARD
 70
0
  3

 62
256
 51
90.0
 52
90.0
 71
2
 49
0.5
 62
256
  6
BYLAYER
 49
-0.5
 62
256
  6
BYLAYER
  0
LAYOUT
  5
54F
102
{ACAD_REACTORS
330
1A
102
}
100
AcDbPlotSettings
  1

  2
none_device
  4

  6

 40
0.0
 41
0.0
 42
0.0
 43
0.0
 44
210.0
 45
297.0
 46
0.0
 47
0.0
 48
0.0
 49
0.0
140
0.0
141
0.0
142
1.0
143
1.0
 70
1024
 72
1
 73
0
 74
0
  7

 75
0
147
1.0
148
0.0
149
0.0
100
AcDbLayout
  1
Model
 70
0
 71
0
 10
0.0
 20
0.0
 11
210.0
 21
297.0
 12
0.0
 22
0.0
 32
0.0
 14
0.0
 24
0.0
 34
0.0
 15
0.0
 25
0.0
 35
0.0
146
0.0
 13
0.0
 23
0.0
 33
0.0
 16
1.0
 26
0.0
 36
0.0
 17
0.0
 27
1.0
 37
0.0
 76
0
330
210
345
0
346
0
  0
LAYOUT
  5
550
102
{ACAD_REACTORS
330
1A
102
}
100
AcDbPlotSettings
  1

  2
none_device
  4

  6

 40
0.0
 41
0.0
 42
0.0
 43
0.0
 44
210.0
 45
297.0
 46
0.0
 47
0.0
 48
0.0
 49
0.0
140
0.0
141
0.0
142
1.0
143
1.0
 70
0
 72
1
 73
0
 74
0
  7

 75
0
147
1.0
148
0.0
149
0.0
100
AcDbLayout
  1
Layout1
 70
0
 71
1
 10
0.0
 20
0.0
 11
210.0
 21
297.0
 12
0.0
 22
0.0
 32
0.0
 14
0.0
 24
0.0
 34
0.0
 15
0.0
 25
0.0
 35
0.0
146
0.0
 13
0.0
 23
0.0
 33
0.0
 16
1.0
 26
0.0
 36
0.0
 17
0.0
 27
1.0
 37
0.0
 76
0
330
211
345
0
346
0
  0
ENDSEC
  0
EOF
