999
DXF file: C:\Users\sesa63760\Dev\_Creo\CAD\MCADID0004243_3D-CAD\drw0001_6.dxf
999
Pro/ENGINEER 2019471 by Parametric Technology Corporation
  0
SECTION
  2
HEADER
  9
$ACADVER
  1
AC1024
  9
$DWGCODEPAGE
  3
ANSI_1252
  9
$EXTMAX
 10
842.0358879245
 20
1190.8793272075
 30
0.0
  9
$EXTMIN
 10
0.0
 20
0.0
 30
0.0
  9
$LIMMIN
 10
0.0
 20
0.0
  9
$LIMMAX
 10
842.0358879245
 20
1190.8793272075
  9
$VIEWCTR
 10
421.0179439623
 20
595.4396636038
  9
$VIEWSIZE
 40
1190.8793272075
  9
$CLAYER
  8
0
  9
$LTSCALE
 40
77.6276894772
  9
$CELTYPE
  6
BYLAYER
  9
$DIMSCALE
 40
1.0
  9
$DIMASZ
 40
10.024236761
  9
$DIMEXO
 40
1.0
  9
$DIMDLI
 40
53.6336763661
  9
$DIMEXE
 40
1.0
  9
$DIMCEN
 40
12.7027128235
  9
$DIMLFAC
 40
1.0
  9
$DIMBLK
  1
_FILLED
  9
$DIMALT
 70
0
  9
$DIMALTF
 40
0.0393700787
  9
$DIMTXT
 40
14.0339314654
  9
$DIMTOL
 70
1
  9
$DIMLIM
 70
0
  9
$DIMTFAC
 40
1.0
  9
$DIMTP
 40
0.01
  9
$DIMTM
 40
0.01
  9
$DIMGAP
 40
0.625
  9
$DIMDSEP
 70
46
  9
$AUNITS
 70
0
  9
$PDMODE
 70
3
  9
$PDSIZE
 40
0.3125
  9
$HANDSEED
  5
321
  9
$TILEMODE
 70
1
  9
$MEASUREMENT
 70
1
  9
$INSUNITS
 70
4
  0
ENDSEC
  0
SECTION
  2
CLASSES
  0
CLASS
  1
ACDBDICTIONARYWDFLT
  2
AcDbDictionaryWithDefault
  3
AutoCAD 2000
 90
0
 91
1
280
0
281
0
  0
CLASS
  1
ACDBPLACEHOLDER
  2
AcDbPlaceHolder
  3
AutoCAD 2000
 90
0
 91
1
280
0
281
0
  0
CLASS
  1
LAYOUT
  2
AcDbLayout
  3
AutoCAD 2000
 90
0
 91
0
280
0
281
0
  0
ENDSEC
  0
SECTION
  2
TABLES
  0
TABLE
  2
VPORT
  5
8
100
AcDbSymbolTable
 70
2
  0
VPORT
  5
1F4
100
AcDbSymbolTableRecord
100
AcDbViewportTableRecord
  2
*ACTIVE
 70
0
 10
0.0
 20
0.0
 11
1.0
 21
1.0
 12
421.0179439623
 22
595.4396636038
 13
0.0
 23
0.0
 14
1.0
 24
1.0
 15
0.0
 25
0.0
 16
0.0
 26
0.0
 36
1.0
 17
0.0
 27
0.0
 37
0.0
 40
1190.8793272075
 41
0.7070707071
 42
50.0
 43
0.0
 44
0.0
 50
0.0
 51
0.0
 71
0
 72
100
 73
1
 74
1
 75
0
 76
0
 77
0
 78
0
  0
ENDTAB
  0
TABLE
  2
LTYPE
  5
5
100
AcDbSymbolTable
 70
6
  0
LTYPE
  5
14
100
AcDbSymbolTableRecord
100
AcDbLinetypeTableRecord
  2
BYBLOCK
 70
0
  3

 72
65
 73
0
 40
0.0
  0
LTYPE
  5
15
100
AcDbSymbolTableRecord
100
AcDbLinetypeTableRecord
  2
BYLAYER
 70
0
  3

 72
65
 73
0
 40
0.0
  0
LTYPE
  5
16
100
AcDbSymbolTableRecord
100
AcDbLinetypeTableRecord
  2
CONTINUOUS
 70
64
  3
Solid line
 72
65
 73
0
 40
0.0
  0
LTYPE
  5
1F5
100
AcDbSymbolTableRecord
100
AcDbLinetypeTableRecord
  2
CENTER
 70
64
  3
____ _ ____ _ ____ _ ____ _ ____ _ ____ _ ____
 72
65
 73
4
 40
0.6
 49
0.375
 74
0
 49
-0.075
 74
0
 49
0.075
 74
0
 49
-0.075
 74
0
  0
LTYPE
  5
1F6
100
AcDbSymbolTableRecord
100
AcDbLinetypeTableRecord
  2
HIDDEN
 70
64
  3
- - - - - - - - - - - - - - - - - - - -
 72
65
 73
2
 40
0.2
 49
0.1
 74
0
 49
-0.1
 74
0
  0
LTYPE
  5
1F7
100
AcDbSymbolTableRecord
100
AcDbLinetypeTableRecord
  2
PHANTOM
 70
64
  3
_____ _ _ _____ _ _ _____ _ _ _____
 72
65
 73
6
 40
0.8
 49
0.45
 74
0
 49
-0.05
 74
0
 49
0.1
 74
0
 49
-0.05
 74
0
 49
0.1
 74
0
 49
-0.05
 74
0
  0
LTYPE
  5
1F8
100
AcDbSymbolTableRecord
100
AcDbLinetypeTableRecord
  2
DOT
 70
64
  3
. . . . . . . . . . . . . . . . . . . .
 72
65
 73
2
 40
0.2
 49
0.1
 74
0
 49
-0.1
 74
0
  0
LTYPE
  5
1F9
100
AcDbSymbolTableRecord
100
AcDbLinetypeTableRecord
  2
DASHED
 70
64
  3
- - - - - - - - - - - - - - - - - - - -
 72
65
 73
2
 40
0.2
 49
0.1
 74
0
 49
-0.1
 74
0
  0
ENDTAB
  0
TABLE
  2
LAYER
  5
2
100
AcDbSymbolTable
 70
36
  0
LAYER
  5
10
100
AcDbSymbolTableRecord
100
AcDbLayerTableRecord
  2
0
 70
0
 62
7
  6
CONTINUOUS
370
-3
390
F
  0
LAYER
  5
1FA
100
AcDbSymbolTableRecord
100
AcDbLayerTableRecord
  2
DEFAULT_1
 70
0
 62
7
  6
CENTER
370
-3
390
F
  0
LAYER
  5
1FB
100
AcDbSymbolTableRecord
100
AcDbLayerTableRecord
  2
DEFAULT_2
 70
0
 62
7
  6
HIDDEN
370
-3
390
F
  0
LAYER
  5
1FC
100
AcDbSymbolTableRecord
100
AcDbLayerTableRecord
  2
DEFAULT_3
 70
0
 62
7
  6
PHANTOM
370
-3
390
F
  0
LAYER
  5
1FD
100
AcDbSymbolTableRecord
100
AcDbLayerTableRecord
  2
00_COMPONENTS
 70
0
 62
7
  6
CONTINUOUS
370
-3
390
F
  0
LAYER
  5
1FE
100
AcDbSymbolTableRecord
100
AcDbLayerTableRecord
  2
01_1_DEFAULT_DATUMS
 70
0
 62
7
  6
CONTINUOUS
370
-3
390
F
  0
LAYER
  5
1FF
100
AcDbSymbolTableRecord
100
AcDbLayerTableRecord
  2
01_PLANES
 70
0
 62
7
  6
CONTINUOUS
370
-3
390
F
  0
LAYER
  5
200
100
AcDbSymbolTableRecord
100
AcDbLayerTableRecord
  2
02_COORD_SYS
 70
0
 62
7
  6
CONTINUOUS
370
-3
390
F
  0
LAYER
  5
201
100
AcDbSymbolTableRecord
100
AcDbLayerTableRecord
  2
03_AXES
 70
0
 62
7
  6
CONTINUOUS
370
-3
390
F
  0
LAYER
  5
202
100
AcDbSymbolTableRecord
100
AcDbLayerTableRecord
  2
04_POINTS
 70
0
 62
7
  6
CONTINUOUS
370
-3
390
F
  0
LAYER
  5
203
100
AcDbSymbolTableRecord
100
AcDbLayerTableRecord
  2
05_CURVES
 70
0
 62
7
  6
CONTINUOUS
370
-3
390
F
  0
LAYER
  5
204
100
AcDbSymbolTableRecord
100
AcDbLayerTableRecord
  2
06_SURFS
 70
0
 62
7
  6
CONTINUOUS
370
-3
390
F
  0
LAYER
  5
205
100
AcDbSymbolTableRecord
100
AcDbLayerTableRecord
  2
07_COSMETICS
 70
0
 62
7
  6
CONTINUOUS
370
-3
390
F
  0
LAYER
  5
206
100
AcDbSymbolTableRecord
100
AcDbLayerTableRecord
  2
10_NOTES
 70
0
 62
7
  6
CONTINUOUS
370
-3
390
F
  0
LAYER
  5
207
100
AcDbSymbolTableRecord
100
AcDbLayerTableRecord
  2
11_NOTES_PUB
 70
0
 62
7
  6
CONTINUOUS
370
-3
390
F
  0
LAYER
  5
208
100
AcDbSymbolTableRecord
100
AcDbLayerTableRecord
  2
13_REF_GTOL
 70
0
 62
7
  6
CONTINUOUS
370
-3
390
F
  0
LAYER
  5
209
100
AcDbSymbolTableRecord
100
AcDbLayerTableRecord
  2
16_MISC
 70
0
 62
7
  6
CONTINUOUS
370
-3
390
F
  0
LAYER
  5
20A
100
AcDbSymbolTableRecord
100
AcDbLayerTableRecord
  2
17_NO_PRINT
 70
0
 62
7
  6
CONTINUOUS
370
-3
390
F
  0
LAYER
  5
20B
100
AcDbSymbolTableRecord
100
AcDbLayerTableRecord
  2
18_DATUM_CAMS_JOINTS
 70
0
 62
7
  6
CONTINUOUS
370
-3
390
F
  0
LAYER
  5
20C
100
AcDbSymbolTableRecord
100
AcDbLayerTableRecord
  2
19_DATUM_FUNCTIONAL
 70
0
 62
7
  6
CONTINUOUS
370
-3
390
F
  0
LAYER
  5
20D
100
AcDbSymbolTableRecord
100
AcDbLayerTableRecord
  2
20_DATUM_KINEMATIC_SCHEME
 70
0
 62
7
  6
CONTINUOUS
370
-3
390
F
  0
LAYER
  5
20E
100
AcDbSymbolTableRecord
100
AcDbLayerTableRecord
  2
3
 70
0
 62
7
  6
CONTINUOUS
370
-3
390
F
  0
LAYER
  5
20F
100
AcDbSymbolTableRecord
100
AcDbLayerTableRecord
  2
4
 70
0
 62
7
  6
CONTINUOUS
370
-3
390
F
  0
ENDTAB
  0
TABLE
  2
STYLE
  5
3
100
AcDbSymbolTable
 70
1
  0
STYLE
  5
11
100
AcDbSymbolTableRecord
100
AcDbTextStyleTableRecord
  2
STANDARD
 70
0
 40
0.0
 41
1.0
 50
0.0
 71
0
 42
0.2
  3
ARIAL.TTF
  4

  0
STYLE
  5
210
100
AcDbSymbolTableRecord
100
AcDbTextStyleTableRecord
  2
TEXTSTYLE_1
 70
0
 40
0.0
 41
0.8
 50
0.0
 71
0
 42
0.2
  3
gdt
  4

  0
ENDTAB
  0
TABLE
  2
VIEW
  5
6
100
AcDbSymbolTable
 70
0
  0
ENDTAB
  0
TABLE
  2
UCS
  5
7
100
AcDbSymbolTable
 70
0
  0
ENDTAB
  0
TABLE
  2
APPID
  5
9
100
AcDbSymbolTable
 70
1
  0
APPID
  5
211
100
AcDbSymbolTableRecord
100
AcDbRegAppTableRecord
  2
ACAD
 70
0
  0
ENDTAB
  0
TABLE
  2
BLOCK_RECORD
  5
1
100
AcDbSymbolTable
 70
0
  0
BLOCK_RECORD
  5
212
100
AcDbSymbolTableRecord
100
AcDbBlockTableRecord
  2
*Model_Space
  0
BLOCK_RECORD
  5
213
100
AcDbSymbolTableRecord
100
AcDbBlockTableRecord
  2
*Paper_Space
  0
BLOCK_RECORD
  5
214
100
AcDbSymbolTableRecord
100
AcDbBlockTableRecord
  2
_FILLED
  0
ENDTAB
  0
TABLE
  2
DIMSTYLE
  5
A
100
AcDbSymbolTable
 70
1
100
AcDbDimStyleTable
 71
0
  0
DIMSTYLE
105
215
100
AcDbSymbolTableRecord
100
AcDbDimStyleTableRecord
  2
STANDARD
 70
0
  3

  4

 40
1.0
 41
10.024236761
 42
1.0
 43
0.38
 44
1.0
 45
0.0
 46
0.0
 47
0.01
 48
0.01
140
14.0339314654
141
0.09
142
0.0
143
25.4
144
1.0
145
0.0
146
1.0
147
0.625
 71
1
 72
0
 73
0
 74
0
 75
0
 76
0
 77
1
 78
8
 79
2
170
0
171
1
172
0
173
0
174
0
175
0
176
0
177
0
178
0
270
2
179
2
271
2
272
2
273
2
274
2
275
0
280
0
281
0
282
0
283
1
284
8
285
0
286
0
287
3
288
0
340
11
278
46
341
214
342
214
343
214
344
214
  0
ENDTAB
  0
ENDSEC
  0
SECTION
  2
BLOCKS
  0
BLOCK
  5
20
100
AcDbEntity
  8
0
100
AcDbBlockBegin
  2
*Model_Space
 70
0
 10
0.0
 20
0.0
 30
0.0
  3
*Model_Space
  1

  0
ENDBLK
  5
21
100
AcDbEntity
  8
0
100
AcDbBlockEnd
  0
BLOCK
  5
1C
100
AcDbEntity
  8
0
100
AcDbBlockBegin
  2
*Paper_Space
 70
0
 10
0.0
 20
0.0
 30
0.0
  3
*Paper_Space
  1

  0
ENDBLK
  5
1D
100
AcDbEntity
  8
0
100
AcDbBlockEnd
  0
BLOCK
  5
216
100
AcDbEntity
  8
0
100
AcDbBlockBegin
  2
_FILLED
 70
64
 10
0.0
 20
0.0
  3
_FILLED
  1

  0
SOLID
  5
217
100
AcDbEntity
  8
0
  6
BYBLOCK
 62
0
100
AcDbTrace
 10
0.0
 20
0.0
 11
-1.0
 21
0.25
 12
-1.0
 22
-0.25
 13
-1.0
 23
-0.25
  0
ENDBLK
  5
218
100
AcDbEntity
  8
0
  6
BYBLOCK
 62
0
100
AcDbBlockEnd
  0
ENDSEC
  0
SECTION
  2
ENTITIES
  0
LINE
  5
219
100
AcDbEntity
  8
0
100
AcDbLine
 62
7
  6
BYLAYER
 10
428.4855138964
 20
98.3896628966
 11
423.8856905941
 21
98.3896628966
  0
LINE
  5
21A
100
AcDbEntity
  8
0
100
AcDbLine
 62
7
  6
BYLAYER
 10
388.4855257752
 20
98.3896628966
 11
383.8857024729
 21
98.3896628966
  0
LINE
  5
21B
100
AcDbEntity
  8
0
100
AcDbLine
 62
7
  6
BYLAYER
 10
383.5128242133
 20
98.4895527581
 11
376.6856064955
 21
98.4895527581
  0
LINE
  5
21C
100
AcDbEntity
  8
0
100
AcDbLine
 62
7
  6
BYLAYER
 10
388.8584125353
 20
98.4895527581
 11
423.5128123345
 21
98.4895527581
  0
LINE
  5
21D
100
AcDbEntity
  8
0
100
AcDbLine
 62
7
  6
BYLAYER
 10
428.8584006564
 20
98.4895527581
 11
429.6856064955
 21
98.4895527581
  0
LINE
  5
21E
100
AcDbEntity
  8
0
100
AcDbLine
 62
7
  6
BYLAYER
 10
407.3270546756
 20
98.9895527581
 11
399.0451228413
 21
98.9895527581
  0
LINE
  5
21F
100
AcDbEntity
  8
0
100
AcDbLine
 62
7
  6
BYLAYER
 10
429.4856064955
 20
99.3896628966
 11
422.8856064955
 21
99.3896628966
  0
LINE
  5
220
100
AcDbEntity
  8
0
100
AcDbLine
 62
7
  6
BYLAYER
 10
389.4856183743
 20
99.3896628966
 11
382.8856183743
 21
99.3896628966
  0
LINE
  5
221
100
AcDbEntity
  8
0
100
AcDbLine
 62
7
  6
BYLAYER
 10
430.6856064955
 20
99.4895527581
 11
429.4856064955
 21
99.4895527581
  0
LINE
  5
222
100
AcDbEntity
  8
0
100
AcDbLine
 62
7
  6
BYLAYER
 10
422.8856064955
 20
99.4895527581
 11
407.1856064955
 21
99.4895527647
  0
LINE
  5
223
100
AcDbEntity
  8
0
100
AcDbLine
 62
7
  6
BYLAYER
 10
399.1856064955
 20
99.4895527582
 11
389.4856183743
 21
99.4895527581
  0
LINE
  5
224
100
AcDbEntity
  8
0
100
AcDbLine
 62
7
  6
BYLAYER
 10
382.8856183743
 20
99.4895527581
 11
375.6856064955
 21
99.4895527581
  0
LINE
  5
225
100
AcDbEntity
  8
0
100
AcDbLine
 62
7
  6
BYLAYER
 10
382.273291266
 20
100.4895527581
 11
382.8856183743
 21
100.4895527581
  0
LINE
  5
226
100
AcDbEntity
  8
0
100
AcDbLine
 62
7
  6
BYLAYER
 10
389.4856183743
 20
100.4895527581
 11
390.6856064955
 21
100.489552701
  0
LINE
  5
227
100
AcDbEntity
  8
0
100
AcDbLine
 62
7
  6
BYLAYER
 10
421.6856064955
 20
100.4895526892
 11
422.8856064955
 21
100.4895527581
  0
LINE
  5
228
100
AcDbEntity
  8
0
100
AcDbLine
 62
7
  6
BYLAYER
 10
429.4856064955
 20
100.4895527581
 11
430.6856064955
 21
100.4895526891
  0
LINE
  5
229
100
AcDbEntity
  8
0
100
AcDbLine
 62
7
  6
BYLAYER
 10
423.1856064955
 20
100.9895527581
 11
430.1856064955
 21
100.9895527581
  0
LINE
  5
22A
100
AcDbEntity
  8
0
100
AcDbLine
 62
7
  6
BYLAYER
 10
382.6358530019
 20
100.9895527581
 11
389.1856064955
 21
100.9895527581
  0
LINE
  5
22B
100
AcDbEntity
  8
0
100
AcDbLine
 62
7
  6
BYLAYER
 10
430.6856064955
 20
101.4895527581
 11
423.1856064955
 21
101.4895527581
  0
LINE
  5
22C
100
AcDbEntity
  8
0
100
AcDbLine
 62
7
  6
BYLAYER
 10
389.1856064955
 20
101.4895527581
 11
380.7735248036
 21
101.4895527581
  0
LINE
  5
22D
100
AcDbEntity
  8
0
100
AcDbLine
 62
7
  6
BYLAYER
 10
375.6856064955
 20
115.9895527581
 11
407.1851077062
 21
115.9895527581
  0
LINE
  5
22E
100
AcDbEntity
  8
0
100
AcDbLine
 62
7
  6
BYLAYER
 10
407.1856064955
 20
115.9895527581
 11
430.6856064955
 21
115.9895527581
  0
LINE
  5
22F
100
AcDbEntity
  8
3
100
AcDbLine
 62
7
  6
BYLAYER
 10
375.6851077062
 20
115.9896757051
 11
430.6851250211
 21
115.9896757051
  0
LINE
  5
230
100
AcDbEntity
  8
4
100
AcDbLine
 62
7
  6
BYLAYER
 10
475.9270265733
 20
143.3378380198
 11
430.9270265733
 21
143.3378380198
  0
LINE
  5
231
100
AcDbEntity
  8
4
100
AcDbLine
 62
7
  6
BYLAYER
 10
459.2270265733
 20
150.0878380198
 11
472.7270265733
 21
150.0878380198
  0
LINE
  5
232
100
AcDbEntity
  8
4
100
AcDbLine
 62
7
  6
BYLAYER
 10
430.9270265733
 20
150.3378380198
 11
430.6851250211
 21
150.3378380198
  0
LINE
  5
233
100
AcDbEntity
  8
4
100
AcDbLine
 62
7
  6
BYLAYER
 10
430.9270265733
 20
156.3378380198
 11
430.6851250211
 21
156.3378380198
  0
LINE
  5
234
100
AcDbEntity
  8
4
100
AcDbLine
 62
7
  6
BYLAYER
 10
472.7270265733
 20
156.5878380198
 11
459.2270265733
 21
156.5878380198
  0
LINE
  5
235
100
AcDbEntity
  8
4
100
AcDbLine
 62
7
  6
BYLAYER
 10
459.2270265733
 20
180.0878380198
 11
472.7270265733
 21
180.0878380198
  0
LINE
  5
236
100
AcDbEntity
  8
4
100
AcDbLine
 62
7
  6
BYLAYER
 10
430.9270265733
 20
180.3378380198
 11
430.6851250211
 21
180.3378380198
  0
LINE
  5
237
100
AcDbEntity
  8
4
100
AcDbLine
 62
7
  6
BYLAYER
 10
430.9270265733
 20
186.3378380198
 11
430.6851250211
 21
186.3378380198
  0
LINE
  5
238
100
AcDbEntity
  8
4
100
AcDbLine
 62
7
  6
BYLAYER
 10
472.7270265733
 20
186.5878380198
 11
459.2270265733
 21
186.5878380198
  0
LINE
  5
239
100
AcDbEntity
  8
4
100
AcDbLine
 62
7
  6
BYLAYER
 10
430.9270265733
 20
193.3378380198
 11
475.9270265733
 21
193.3378380198
  0
LINE
  5
23A
100
AcDbEntity
  8
0
100
AcDbLine
 62
7
  6
BYLAYER
 10
387.185365194
 20
1092.489664311
 11
386.6853642103
 21
1091.9896635071
  0
LINE
  5
23B
100
AcDbEntity
  8
0
100
AcDbLine
 62
7
  6
BYLAYER
 10
385.4353657583
 20
1088.4896628966
 11
384.9353657583
 21
1087.9896628966
  0
LINE
  5
23C
100
AcDbEntity
  8
0
100
AcDbLine
 62
7
  6
BYLAYER
 10
385.4353657583
 20
1083.4896628966
 11
384.9353657583
 21
1082.9896628966
  0
LINE
  5
23D
100
AcDbEntity
  8
0
100
AcDbLine
 62
7
  6
BYLAYER
 10
400.4353657583
 20
1082.1896628966
 11
400.2353657583
 21
1081.9896628966
  0
LINE
  5
23E
100
AcDbEntity
  8
0
100
AcDbLine
 62
7
  6
BYLAYER
 10
407.9353657583
 20
1088.4896628966
 11
407.4353657583
 21
1087.9896628966
  0
LINE
  5
23F
100
AcDbEntity
  8
3
100
AcDbLine
 62
7
  6
BYLAYER
 10
375.6851077062
 20
1064.4896757051
 11
375.6851077062
 21
115.9896757051
  0
LINE
  5
240
100
AcDbEntity
  8
0
100
AcDbLine
 62
7
  6
BYLAYER
 10
375.6853657583
 20
1080.9896628966
 11
375.6853657583
 21
1064.4896628966
  0
LINE
  5
241
100
AcDbEntity
  8
0
100
AcDbLine
 62
7
  6
BYLAYER
 10
375.6856064955
 20
115.9895527581
 11
375.6856064955
 21
99.4895527581
  0
LINE
  5
242
100
AcDbEntity
  8
3
100
AcDbLine
 62
7
  6
BYLAYER
 10
377.1356654504
 20
115.9896757051
 11
377.1356654504
 21
1064.4896757051
  0
LINE
  5
243
100
AcDbEntity
  8
0
100
AcDbLine
 62
7
  6
BYLAYER
 10
377.1359235025
 20
1064.4896628966
 11
377.1359235025
 21
1080.9896628966
  0
LINE
  5
244
100
AcDbEntity
  8
0
100
AcDbLine
 62
7
  6
BYLAYER
 10
377.1361642397
 20
99.4895527581
 11
377.1361642397
 21
115.9895527581
  0
LINE
  5
245
100
AcDbEntity
  8
0
100
AcDbLine
 62
7
  6
BYLAYER
 10
380.7732840664
 20
1080.9896628966
 11
380.7732840664
 21
1078.9896628966
  0
LINE
  5
246
100
AcDbEntity
  8
0
100
AcDbLine
 62
7
  6
BYLAYER
 10
380.7735248036
 20
101.4895527581
 11
380.7735248036
 21
99.4895527581
  0
LINE
  5
247
100
AcDbEntity
  8
3
100
AcDbLine
 62
7
  6
BYLAYER
 10
381.3384458737
 20
1064.4896757051
 11
381.3384458737
 21
115.9896757051
  0
LINE
  5
248
100
AcDbEntity
  8
0
100
AcDbLine
 62
7
  6
BYLAYER
 10
381.3387039257
 20
1078.9896628966
 11
381.3387039257
 21
1064.4896628966
  0
LINE
  5
249
100
AcDbEntity
  8
0
100
AcDbLine
 62
7
  6
BYLAYER
 10
381.3389446629
 20
115.9895527581
 11
381.3389446629
 21
101.4895527581
  0
LINE
  5
24A
100
AcDbEntity
  8
0
100
AcDbLine
 62
7
  6
BYLAYER
 10
382.6853657583
 20
1079.9896628966
 11
382.6853657583
 21
1080.9896628966
  0
LINE
  5
24B
100
AcDbEntity
  8
0
100
AcDbLine
 62
7
  6
BYLAYER
 10
382.6856064955
 20
99.4895527581
 11
382.6856064955
 21
100.4895527581
  0
LINE
  5
24C
100
AcDbEntity
  8
0
100
AcDbLine
 62
7
  6
BYLAYER
 10
382.8853657583
 20
1079.5912617732
 11
382.8853657583
 21
1081.0896628966
  0
LINE
  5
24D
100
AcDbEntity
  8
0
100
AcDbLine
 62
7
  6
BYLAYER
 10
382.8856183743
 20
100.8879657603
 11
382.8856183743
 21
99.3896628966
  0
LINE
  5
24E
100
AcDbEntity
  8
3
100
AcDbLine
 62
7
  6
BYLAYER
 10
384.0856571526
 20
115.9896757051
 11
384.0856571526
 21
1064.4896757051
  0
LINE
  5
24F
100
AcDbEntity
  8
0
100
AcDbLine
 62
7
  6
BYLAYER
 10
384.0859152047
 20
1064.4896628966
 11
384.0859152047
 21
1079.4896628966
  0
LINE
  5
250
100
AcDbEntity
  8
0
100
AcDbLine
 62
7
  6
BYLAYER
 10
384.0861559419
 20
100.9895527581
 11
384.0861559419
 21
115.9895527581
  0
LINE
  5
251
100
AcDbEntity
  8
0
100
AcDbLine
 62
7
  6
BYLAYER
 10
384.9353657583
 20
1082.0896628966
 11
384.9353657583
 21
1087.9896628966
  0
LINE
  5
252
100
AcDbEntity
  8
0
100
AcDbLine
 62
7
  6
BYLAYER
 10
386.6853657583
 20
1084.4896628966
 11
386.6853657583
 21
1091.9896619592
  0
LINE
  5
253
100
AcDbEntity
  8
0
100
AcDbLine
 62
7
  6
BYLAYER
 10
387.1853657583
 20
1083.4896628966
 11
387.1853657583
 21
1084.4896628966
  0
LINE
  5
254
100
AcDbEntity
  8
0
100
AcDbLine
 62
7
  6
BYLAYER
 10
389.1853656855
 20
1079.4896628966
 11
389.1853656855
 21
1078.9896628966
  0
LINE
  5
255
100
AcDbEntity
  8
0
100
AcDbLine
 62
7
  6
BYLAYER
 10
389.185606428
 20
101.4895527581
 11
389.185606428
 21
100.9895527581
  0
LINE
  5
256
100
AcDbEntity
  8
0
100
AcDbLine
 62
7
  6
BYLAYER
 10
389.4853657583
 20
1079.5938453319
 11
389.4853657583
 21
1081.0896628966
  0
LINE
  5
257
100
AcDbEntity
  8
0
100
AcDbLine
 62
7
  6
BYLAYER
 10
389.4856183743
 20
100.8854900132
 11
389.4856183743
 21
99.3896628966
  0
LINE
  5
258
100
AcDbEntity
  8
0
100
AcDbLine
 62
7
  6
BYLAYER
 10
389.6853657583
 20
1080.9896628966
 11
389.6853657583
 21
1079.9896628966
  0
LINE
  5
259
100
AcDbEntity
  8
0
100
AcDbLine
 62
7
  6
BYLAYER
 10
389.6856064955
 20
100.4895527581
 11
389.6856064955
 21
99.4895527581
  0
LINE
  5
25A
100
AcDbEntity
  8
0
100
AcDbLine
 62
7
  6
BYLAYER
 10
390.6853657583
 20
1079.9896628966
 11
390.6853657583
 21
1081.9896628966
  0
LINE
  5
25B
100
AcDbEntity
  8
0
100
AcDbLine
 62
7
  6
BYLAYER
 10
390.6856064955
 20
98.4895527581
 11
390.6856064955
 21
100.4895527581
  0
LINE
  5
25C
100
AcDbEntity
  8
0
100
AcDbLine
 62
7
  6
BYLAYER
 10
398.1853657583
 20
1084.4896628966
 11
398.1853657583
 21
1083.4896628966
  0
LINE
  5
25D
100
AcDbEntity
  8
3
100
AcDbLine
 62
7
  6
BYLAYER
 10
398.6851077062
 20
1064.4896757051
 11
398.6851077062
 21
115.9896757051
  0
LINE
  5
25E
100
AcDbEntity
  8
0
100
AcDbLine
 62
7
  6
BYLAYER
 10
398.6853657583
 20
1080.9896628966
 11
398.6853657583
 21
1064.4896628966
  0
LINE
  5
25F
100
AcDbEntity
  8
0
100
AcDbLine
 62
7
  6
BYLAYER
 10
398.6853657583
 20
1084.4896628966
 11
398.6853657583
 21
1091.9896619592
  0
LINE
  5
260
100
AcDbEntity
  8
0
100
AcDbLine
 62
7
  6
BYLAYER
 10
398.6856064955
 20
115.9895527581
 11
398.6856064955
 21
99.4895527581
  0
LINE
  5
261
100
AcDbEntity
  8
3
100
AcDbLine
 62
7
  6
BYLAYER
 10
399.1851077062
 20
115.9896757051
 11
399.1851077062
 21
1064.4896757051
  0
LINE
  5
262
100
AcDbEntity
  8
0
100
AcDbLine
 62
7
  6
BYLAYER
 10
399.1853657583
 20
1064.4896628966
 11
399.1853657583
 21
1080.9896628965
  0
LINE
  5
263
100
AcDbEntity
  8
0
100
AcDbLine
 62
7
  6
BYLAYER
 10
399.1856064955
 20
99.4895527581
 11
399.1856064955
 21
115.9895527581
  0
LINE
  5
264
100
AcDbEntity
  8
0
100
AcDbLine
 62
7
  6
BYLAYER
 10
400.4353657583
 20
1081.9896628966
 11
400.4353657583
 21
1087.9896628966
  0
LINE
  5
265
100
AcDbEntity
  8
3
100
AcDbLine
 62
7
  6
BYLAYER
 10
407.1851077062
 20
1064.4896757051
 11
407.1851077062
 21
115.9896757051
  0
LINE
  5
266
100
AcDbEntity
  8
0
100
AcDbLine
 62
7
  6
BYLAYER
 10
407.1853657583
 20
1080.9896628966
 11
407.1853657583
 21
1064.4896628966
  0
LINE
  5
267
100
AcDbEntity
  8
0
100
AcDbLine
 62
7
  6
BYLAYER
 10
407.1856064955
 20
115.9895527581
 11
407.1856064955
 21
99.4895527582
  0
LINE
  5
268
100
AcDbEntity
  8
0
100
AcDbLine
 62
7
  6
BYLAYER
 10
407.4353657583
 20
1081.9896628966
 11
407.4353657583
 21
1087.9896628966
  0
LINE
  5
269
100
AcDbEntity
  8
3
100
AcDbLine
 62
7
  6
BYLAYER
 10
407.6851077062
 20
115.9896757051
 11
407.6851077062
 21
1064.4896757051
  0
LINE
  5
26A
100
AcDbEntity
  8
0
100
AcDbLine
 62
7
  6
BYLAYER
 10
407.6853657583
 20
1064.4896628966
 11
407.6853657583
 21
1080.9896628966
  0
LINE
  5
26B
100
AcDbEntity
  8
0
100
AcDbLine
 62
7
  6
BYLAYER
 10
407.6856064955
 20
99.4895527581
 11
407.6856064955
 21
115.9895527581
  0
LINE
  5
26C
100
AcDbEntity
  8
0
100
AcDbLine
 62
7
  6
BYLAYER
 10
411.0591057583
 20
1089.6896628966
 11
411.0591057583
 21
1088.4896628966
  0
LINE
  5
26D
100
AcDbEntity
  8
0
100
AcDbLine
 62
7
  6
BYLAYER
 10
419.3091057583
 20
1089.6896628966
 11
419.3091057583
 21
1088.4896628966
  0
LINE
  5
26E
100
AcDbEntity
  8
0
100
AcDbLine
 62
7
  6
BYLAYER
 10
421.6853657583
 20
1081.9896628966
 11
421.6853657583
 21
1079.9896628966
  0
LINE
  5
26F
100
AcDbEntity
  8
0
100
AcDbLine
 62
7
  6
BYLAYER
 10
421.6856064955
 20
100.4895527581
 11
421.6856064955
 21
98.4895527581
  0
LINE
  5
270
100
AcDbEntity
  8
0
100
AcDbLine
 62
7
  6
BYLAYER
 10
422.6853657583
 20
1079.9896628966
 11
422.6853657583
 21
1080.9896628966
  0
LINE
  5
271
100
AcDbEntity
  8
0
100
AcDbLine
 62
7
  6
BYLAYER
 10
422.6856064955
 20
99.4895527581
 11
422.6856064955
 21
100.4895527581
  0
LINE
  5
272
100
AcDbEntity
  8
0
100
AcDbLine
 62
7
  6
BYLAYER
 10
422.8853657583
 20
1079.5937298911
 11
422.8853657583
 21
1081.0896628966
  0
LINE
  5
273
100
AcDbEntity
  8
0
100
AcDbLine
 62
7
  6
BYLAYER
 10
422.8856064955
 20
100.8853703232
 11
422.8856064955
 21
99.3896628966
  0
LINE
  5
274
100
AcDbEntity
  8
0
100
AcDbLine
 62
7
  6
BYLAYER
 10
422.9353657583
 20
1081.9896628966
 11
422.9353657583
 21
1087.9896628966
  0
LINE
  5
275
100
AcDbEntity
  8
0
100
AcDbLine
 62
7
  6
BYLAYER
 10
423.1853658308
 20
1078.9896628966
 11
423.1853658308
 21
1079.4896628966
  0
LINE
  5
276
100
AcDbEntity
  8
0
100
AcDbLine
 62
7
  6
BYLAYER
 10
423.1856065683
 20
100.9895527581
 11
423.1856065683
 21
101.4895527581
  0
LINE
  5
277
100
AcDbEntity
  8
3
100
AcDbLine
 62
7
  6
BYLAYER
 10
426.6851250211
 20
1064.4896757051
 11
426.6851250211
 21
115.9896757051
  0
LINE
  5
278
100
AcDbEntity
  8
0
100
AcDbLine
 62
7
  6
BYLAYER
 10
426.6853657583
 20
1079.4896628966
 11
426.6853657583
 21
1064.4896628966
  0
LINE
  5
279
100
AcDbEntity
  8
0
100
AcDbLine
 62
7
  6
BYLAYER
 10
426.6856064955
 20
115.9895527581
 11
426.6856064955
 21
100.9895527581
  0
LINE
  5
27A
100
AcDbEntity
  8
0
100
AcDbLine
 62
7
  6
BYLAYER
 10
429.4853657583
 20
1079.4896628966
 11
429.4853657583
 21
1081.0896628966
  0
LINE
  5
27B
100
AcDbEntity
  8
0
100
AcDbLine
 62
7
  6
BYLAYER
 10
429.4856064955
 20
100.9896628966
 11
429.4856064955
 21
99.3896628966
  0
LINE
  5
27C
100
AcDbEntity
  8
0
100
AcDbLine
 62
7
  6
BYLAYER
 10
429.6853657583
 20
1081.9896628966
 11
429.68536576
 21
1079.9896628966
  0
LINE
  5
27D
100
AcDbEntity
  8
0
100
AcDbLine
 62
7
  6
BYLAYER
 10
429.6856064972
 20
100.4895527581
 11
429.6856064955
 21
98.4895527581
  0
LINE
  5
27E
100
AcDbEntity
  8
3
100
AcDbLine
 62
7
  6
BYLAYER
 10
430.6851250211
 20
115.9896757051
 11
430.6851250211
 21
1064.4896757051
  0
LINE
  5
27F
100
AcDbEntity
  8
0
100
AcDbLine
 62
7
  6
BYLAYER
 10
430.6853657583
 20
1064.4896628966
 11
430.6853657583
 21
1080.9896628966
  0
LINE
  5
280
100
AcDbEntity
  8
0
100
AcDbLine
 62
7
  6
BYLAYER
 10
430.6856064955
 20
101.4895527581
 11
430.6856064955
 21
115.9895527581
  0
LINE
  5
281
100
AcDbEntity
  8
0
100
AcDbLine
 62
7
  6
BYLAYER
 10
430.6856064955
 20
99.4895527581
 11
430.6856064955
 21
101.4776143005
  0
LINE
  5
282
100
AcDbEntity
  8
4
100
AcDbLine
 62
7
  6
BYLAYER
 10
430.9270265733
 20
1039.6727404807
 11
430.9270265733
 21
989.6727404807
  0
LINE
  5
283
100
AcDbEntity
  8
4
100
AcDbLine
 62
7
  6
BYLAYER
 10
430.9270265733
 20
193.3378380198
 11
430.9270265733
 21
143.3378380198
  0
LINE
  5
284
100
AcDbEntity
  8
4
100
AcDbLine
 62
7
  6
BYLAYER
 10
437.9270265733
 20
143.3378380198
 11
437.9270265733
 21
193.3378380198
  0
LINE
  5
285
100
AcDbEntity
  8
4
100
AcDbLine
 62
7
  6
BYLAYER
 10
437.9270265733
 20
989.6727404807
 11
437.9270265733
 21
1039.6727404807
  0
LINE
  5
286
100
AcDbEntity
  8
4
100
AcDbLine
 62
7
  6
BYLAYER
 10
480.9270265733
 20
1034.6727404807
 11
480.9270265733
 21
994.6727404807
  0
LINE
  5
287
100
AcDbEntity
  8
4
100
AcDbLine
 62
7
  6
BYLAYER
 10
480.9270265733
 20
188.3378380198
 11
480.9270265733
 21
148.3378380198
  0
LINE
  5
288
100
AcDbEntity
  8
0
100
AcDbLine
 62
7
  6
BYLAYER
 10
385.0353657583
 20
1082.0896628966
 11
384.9353657583
 21
1082.1896628966
  0
LINE
  5
289
100
AcDbEntity
  8
0
100
AcDbLine
 62
7
  6
BYLAYER
 10
400.4353657583
 20
1082.9896628966
 11
399.9353657583
 21
1083.4896628966
  0
LINE
  5
28A
100
AcDbEntity
  8
0
100
AcDbLine
 62
7
  6
BYLAYER
 10
400.4353657583
 20
1087.9896628966
 11
399.9353657583
 21
1088.4896628966
  0
LINE
  5
28B
100
AcDbEntity
  8
0
100
AcDbLine
 62
7
  6
BYLAYER
 10
398.6853673063
 20
1091.9896635071
 11
398.1853663226
 21
1092.489664311
  0
LINE
  5
28C
100
AcDbEntity
  8
0
100
AcDbLine
 62
7
  6
BYLAYER
 10
422.9353657583
 20
1087.9896628966
 11
422.4353657583
 21
1088.4896628966
  0
LINE
  5
28D
100
AcDbEntity
  8
4
100
AcDbLine
 62
7
  6
BYLAYER
 10
475.9270265733
 20
989.6727404807
 11
430.9270265733
 21
989.6727404807
  0
LINE
  5
28E
100
AcDbEntity
  8
4
100
AcDbLine
 62
7
  6
BYLAYER
 10
459.2270265733
 20
996.4227404807
 11
472.7270265733
 21
996.4227404807
  0
LINE
  5
28F
100
AcDbEntity
  8
4
100
AcDbLine
 62
7
  6
BYLAYER
 10
430.9270265733
 20
996.6727404807
 11
430.6851250211
 21
996.6727404807
  0
LINE
  5
290
100
AcDbEntity
  8
4
100
AcDbLine
 62
7
  6
BYLAYER
 10
430.9270265733
 20
1002.6727404807
 11
430.6851250211
 21
1002.6727404807
  0
LINE
  5
291
100
AcDbEntity
  8
4
100
AcDbLine
 62
7
  6
BYLAYER
 10
472.7270265733
 20
1002.9227404807
 11
459.2270265733
 21
1002.9227404807
  0
LINE
  5
292
100
AcDbEntity
  8
4
100
AcDbLine
 62
7
  6
BYLAYER
 10
459.2270265733
 20
1026.4227404807
 11
472.7270265733
 21
1026.4227404807
  0
LINE
  5
293
100
AcDbEntity
  8
4
100
AcDbLine
 62
7
  6
BYLAYER
 10
430.9270265733
 20
1026.6727404807
 11
430.6851250211
 21
1026.6727404807
  0
LINE
  5
294
100
AcDbEntity
  8
4
100
AcDbLine
 62
7
  6
BYLAYER
 10
430.9270265733
 20
1032.6727404807
 11
430.6851250211
 21
1032.6727404807
  0
LINE
  5
295
100
AcDbEntity
  8
4
100
AcDbLine
 62
7
  6
BYLAYER
 10
472.7270265733
 20
1032.9227404807
 11
459.2270265733
 21
1032.9227404807
  0
LINE
  5
296
100
AcDbEntity
  8
4
100
AcDbLine
 62
7
  6
BYLAYER
 10
430.9270265733
 20
1039.6727404807
 11
475.9270265733
 21
1039.6727404807
  0
LINE
  5
297
100
AcDbEntity
  8
0
100
AcDbLine
 62
7
  6
BYLAYER
 10
375.6853657583
 20
1064.4896628966
 11
430.6853657583
 21
1064.4896628966
  0
LINE
  5
298
100
AcDbEntity
  8
3
100
AcDbLine
 62
7
  6
BYLAYER
 10
375.6851077062
 20
1064.4896757051
 11
430.6851250211
 21
1064.4896757051
  0
LINE
  5
299
100
AcDbEntity
  8
0
100
AcDbLine
 62
7
  6
BYLAYER
 10
415.2017676668
 20
1077.9896628966
 11
407.1853657583
 21
1077.9896628966
  0
LINE
  5
29A
100
AcDbEntity
  8
0
100
AcDbLine
 62
7
  6
BYLAYER
 10
392.6689638498
 20
1077.9896628966
 11
400.6853657583
 21
1077.9896628966
  0
LINE
  5
29B
100
AcDbEntity
  8
0
100
AcDbLine
 62
7
  6
BYLAYER
 10
415.2015517839
 20
1078.0008759795
 11
407.2906622429
 21
1078.0008759795
  0
LINE
  5
29C
100
AcDbEntity
  8
0
100
AcDbLine
 62
7
  6
BYLAYER
 10
392.6691795534
 20
1078.0008571476
 11
400.5801567294
 21
1078.0008571476
  0
LINE
  5
29D
100
AcDbEntity
  8
0
100
AcDbLine
 62
7
  6
BYLAYER
 10
415.201983956
 20
1078.9784070798
 11
407.0798710981
 21
1078.9784070798
  0
LINE
  5
29E
100
AcDbEntity
  8
0
100
AcDbLine
 62
7
  6
BYLAYER
 10
392.6687481462
 20
1078.9784686456
 11
400.7905747872
 21
1078.9784686456
  0
LINE
  5
29F
100
AcDbEntity
  8
0
100
AcDbLine
 62
7
  6
BYLAYER
 10
380.7732840664
 20
1078.9896628966
 11
389.1853657583
 21
1078.9896628966
  0
LINE
  5
2A0
100
AcDbEntity
  8
0
100
AcDbLine
 62
7
  6
BYLAYER
 10
423.1853657583
 20
1078.9896628966
 11
430.6853657583
 21
1078.9896628966
  0
LINE
  5
2A1
100
AcDbEntity
  8
0
100
AcDbLine
 62
7
  6
BYLAYER
 10
382.6356122658
 20
1079.4896628966
 11
389.1853657583
 21
1079.4896628966
  0
LINE
  5
2A2
100
AcDbEntity
  8
0
100
AcDbLine
 62
7
  6
BYLAYER
 10
423.1853657583
 20
1079.4896628966
 11
430.1853657583
 21
1079.4896628966
  0
LINE
  5
2A3
100
AcDbEntity
  8
0
100
AcDbLine
 62
7
  6
BYLAYER
 10
430.6853657583
 20
1079.9896629655
 11
429.4853657583
 21
1079.9896628966
  0
LINE
  5
2A4
100
AcDbEntity
  8
0
100
AcDbLine
 62
7
  6
BYLAYER
 10
422.8853657583
 20
1079.9896628966
 11
421.6853657583
 21
1079.9896629656
  0
LINE
  5
2A5
100
AcDbEntity
  8
0
100
AcDbLine
 62
7
  6
BYLAYER
 10
390.6853657583
 20
1079.9896629655
 11
389.4853657583
 21
1079.9896628966
  0
LINE
  5
2A6
100
AcDbEntity
  8
0
100
AcDbLine
 62
7
  6
BYLAYER
 10
382.8853657583
 20
1079.9896628966
 11
382.2730505495
 21
1079.9896628966
  0
LINE
  5
2A7
100
AcDbEntity
  8
0
100
AcDbLine
 62
7
  6
BYLAYER
 10
375.6853657583
 20
1080.9896628966
 11
382.8853657583
 21
1080.9896628966
  0
LINE
  5
2A8
100
AcDbEntity
  8
0
100
AcDbLine
 62
7
  6
BYLAYER
 10
389.4853657583
 20
1080.9896628966
 11
399.1853657583
 21
1080.9896628899
  0
LINE
  5
2A9
100
AcDbEntity
  8
0
100
AcDbLine
 62
7
  6
BYLAYER
 10
407.1853657583
 20
1080.9896628965
 11
422.8853657583
 21
1080.9896628966
  0
LINE
  5
2AA
100
AcDbEntity
  8
0
100
AcDbLine
 62
7
  6
BYLAYER
 10
429.4853657583
 20
1080.9896628966
 11
430.6853657583
 21
1080.9896628966
  0
LINE
  5
2AB
100
AcDbEntity
  8
0
100
AcDbLine
 62
7
  6
BYLAYER
 10
382.8853657583
 20
1081.0896628966
 11
389.4853657583
 21
1081.0896628966
  0
LINE
  5
2AC
100
AcDbEntity
  8
0
100
AcDbLine
 62
7
  6
BYLAYER
 10
422.8853657583
 20
1081.0896628966
 11
429.4853657583
 21
1081.0896628966
  0
LINE
  5
2AD
100
AcDbEntity
  8
0
100
AcDbLine
 62
7
  6
BYLAYER
 10
399.0439175782
 20
1081.4896628966
 11
407.3258494124
 21
1081.4896628966
  0
LINE
  5
2AE
100
AcDbEntity
  8
0
100
AcDbLine
 62
7
  6
BYLAYER
 10
429.6853657583
 20
1081.9896628966
 11
428.8585709618
 21
1081.9896628966
  0
LINE
  5
2AF
100
AcDbEntity
  8
0
100
AcDbLine
 62
7
  6
BYLAYER
 10
376.6853657583
 20
1081.9896628966
 11
383.5121605548
 21
1081.9896628966
  0
LINE
  5
2B0
100
AcDbEntity
  8
0
100
AcDbLine
 62
7
  6
BYLAYER
 10
388.8585709618
 20
1081.9896628966
 11
423.5121605548
 21
1081.9896628966
  0
LINE
  5
2B1
100
AcDbEntity
  8
0
100
AcDbLine
 62
7
  6
BYLAYER
 10
383.8854498569
 20
1082.0896628966
 11
388.4852731592
 21
1082.0896628966
  0
LINE
  5
2B2
100
AcDbEntity
  8
0
100
AcDbLine
 62
7
  6
BYLAYER
 10
423.8854498569
 20
1082.0896628966
 11
428.4852731592
 21
1082.0896628966
  0
LINE
  5
2B3
100
AcDbEntity
  8
0
100
AcDbLine
 62
7
  6
BYLAYER
 10
400.4353657583
 20
1082.1896628966
 11
384.9353657583
 21
1082.1896628966
  0
LINE
  5
2B4
100
AcDbEntity
  8
0
100
AcDbLine
 62
7
  6
BYLAYER
 10
384.9353657583
 20
1082.9896628966
 11
400.4353657583
 21
1082.9896628966
  0
LINE
  5
2B5
100
AcDbEntity
  8
0
100
AcDbLine
 62
7
  6
BYLAYER
 10
422.9353014615
 20
1083.4896628966
 11
407.4354300551
 21
1083.4896628966
  0
LINE
  5
2B6
100
AcDbEntity
  8
0
100
AcDbLine
 62
7
  6
BYLAYER
 10
384.9354300551
 20
1083.4896628966
 11
400.4353014615
 21
1083.4896628966
  0
LINE
  5
2B7
100
AcDbEntity
  8
0
100
AcDbLine
 62
7
  6
BYLAYER
 10
398.685359175
 20
1084.4896628966
 11
386.6853723416
 21
1084.4896628966
  0
LINE
  5
2B8
100
AcDbEntity
  8
0
100
AcDbLine
 62
7
  6
BYLAYER
 10
422.9353657583
 20
1086.4896628966
 11
407.4353657583
 21
1086.4896628966
  0
LINE
  5
2B9
100
AcDbEntity
  8
0
100
AcDbLine
 62
7
  6
BYLAYER
 10
400.4353657583
 20
1086.4896628966
 11
398.6853657583
 21
1086.4896628966
  0
LINE
  5
2BA
100
AcDbEntity
  8
0
100
AcDbLine
 62
7
  6
BYLAYER
 10
386.6853657583
 20
1086.4896628966
 11
384.9353657583
 21
1086.4896628966
  0
LINE
  5
2BB
100
AcDbEntity
  8
0
100
AcDbLine
 62
7
  6
BYLAYER
 10
384.9353657583
 20
1087.9896628966
 11
386.6853657583
 21
1087.9896628966
  0
LINE
  5
2BC
100
AcDbEntity
  8
0
100
AcDbLine
 62
7
  6
BYLAYER
 10
398.6853657583
 20
1087.9896628966
 11
400.4353657583
 21
1087.9896628966
  0
LINE
  5
2BD
100
AcDbEntity
  8
0
100
AcDbLine
 62
7
  6
BYLAYER
 10
407.4353657583
 20
1087.9896628966
 11
422.9353657583
 21
1087.9896628966
  0
LINE
  5
2BE
100
AcDbEntity
  8
0
100
AcDbLine
 62
7
  6
BYLAYER
 10
385.4353657583
 20
1088.4896628966
 11
386.6853657583
 21
1088.4896628966
  0
LINE
  5
2BF
100
AcDbEntity
  8
0
100
AcDbLine
 62
7
  6
BYLAYER
 10
398.6853657583
 20
1088.4896628966
 11
399.9353657583
 21
1088.4896628966
  0
LINE
  5
2C0
100
AcDbEntity
  8
0
100
AcDbLine
 62
7
  6
BYLAYER
 10
407.9353657583
 20
1088.4896628966
 11
422.4353657583
 21
1088.4896628966
  0
LINE
  5
2C1
100
AcDbEntity
  8
0
100
AcDbLine
 62
7
  6
BYLAYER
 10
411.0591057583
 20
1089.6896628966
 11
419.3091057583
 21
1089.6896628966
  0
LINE
  5
2C2
100
AcDbEntity
  8
0
100
AcDbLine
 62
7
  6
BYLAYER
 10
411.3590453904
 20
1089.9896628966
 11
419.0091276496
 21
1089.9896628966
  0
LINE
  5
2C3
100
AcDbEntity
  8
0
100
AcDbLine
 62
7
  6
BYLAYER
 10
386.6853657583
 20
1091.9896619592
 11
398.6853657583
 21
1091.9896619592
  0
LINE
  5
2C4
100
AcDbEntity
  8
0
100
AcDbLine
 62
7
  6
BYLAYER
 10
387.185365194
 20
1092.4896628966
 11
398.1853663226
 21
1092.4896628966
  0
ARC
  5
2C5
100
AcDbEntity
  8
0
100
AcDbCircle
 62
7
  6
BYLAYER
 10
388.4856183743
 20
99.3896628966
 40
1.0
100
AcDbArc
 50
270.0
 51
360.0
  0
ARC
  5
2C6
100
AcDbEntity
  8
0
100
AcDbCircle
 62
7
  6
BYLAYER
 10
383.8856183743
 20
99.3896628966
 40
1.0
100
AcDbArc
 50
180.0
 51
270.0
  0
ARC
  5
2C7
100
AcDbEntity
  8
0
100
AcDbCircle
 62
7
  6
BYLAYER
 10
398.1856064955
 20
99.4895527581
 40
1.0
100
AcDbArc
 50
270.0
 51
360.0
  0
ARC
  5
2C8
100
AcDbEntity
  8
0
100
AcDbCircle
 62
7
  6
BYLAYER
 10
381.6856064955
 20
99.4895527581
 40
1.0
100
AcDbArc
 50
270.0000000003
 51
360.0
  0
ARC
  5
2C9
100
AcDbEntity
  8
0
100
AcDbCircle
 62
7
  6
BYLAYER
 10
390.6856064955
 20
99.4895527581
 40
1.0
100
AcDbArc
 50
180.0
 51
270.0
  0
ARC
  5
2CA
100
AcDbEntity
  8
0
100
AcDbCircle
 62
7
  6
BYLAYER
 10
376.6856064955
 20
99.4895527581
 40
1.0
100
AcDbArc
 50
180.0000000002
 51
270.0000000009
  0
ARC
  5
2CB
100
AcDbEntity
  8
0
100
AcDbCircle
 62
7
  6
BYLAYER
 10
383.1856064955
 20
100.4895527581
 40
0.5
100
AcDbArc
 50
90.0
 51
180.0
  0
ARC
  5
2CC
100
AcDbEntity
  8
0
100
AcDbCircle
 62
7
  6
BYLAYER
 10
389.1856064955
 20
100.4895527581
 40
0.5
100
AcDbArc
 50
0.0
 51
90.0
  0
ARC
  5
2CD
100
AcDbEntity
  8
0
100
AcDbCircle
 62
7
  6
BYLAYER
 10
404.412594562
 20
85.9581729944
 40
27.6896077437
100
AcDbArc
 50
146.3934359332
 51
146.9026052161
  0
ARC
  5
2CE
100
AcDbEntity
  8
0
100
AcDbCircle
 62
7
  6
BYLAYER
 10
423.8856064955
 20
99.3896628966
 40
1.0
100
AcDbArc
 50
180.0
 51
270.0
  0
ARC
  5
2CF
100
AcDbEntity
  8
0
100
AcDbCircle
 62
7
  6
BYLAYER
 10
421.6856064955
 20
99.4895527581
 40
1.0
100
AcDbArc
 50
270.0
 51
360.0
  0
ARC
  5
2D0
100
AcDbEntity
  8
0
100
AcDbCircle
 62
7
  6
BYLAYER
 10
408.1856064955
 20
99.4895527581
 40
1.0
100
AcDbArc
 50
179.9999999984
 51
270.0
  0
ARC
  5
2D1
100
AcDbEntity
  8
0
100
AcDbCircle
 62
7
  6
BYLAYER
 10
423.1856064955
 20
100.4895527581
 40
0.5
100
AcDbArc
 50
90.0
 51
180.0
  0
ARC
  5
2D2
100
AcDbEntity
  8
0
100
AcDbCircle
 62
7
  6
BYLAYER
 10
388.4853657583
 20
1081.0896628966
 40
1.0
100
AcDbArc
 50
0.0
 51
90.0
  0
ARC
  5
2D3
100
AcDbEntity
  8
0
100
AcDbCircle
 62
7
  6
BYLAYER
 10
383.8853657583
 20
1081.0896628966
 40
1.0
100
AcDbArc
 50
90.0
 51
180.0
  0
ARC
  5
2D4
100
AcDbEntity
  8
0
100
AcDbCircle
 62
7
  6
BYLAYER
 10
390.6853657583
 20
1080.9896628966
 40
1.0
100
AcDbArc
 50
90.0
 51
180.0
  0
ARC
  5
2D5
100
AcDbEntity
  8
0
100
AcDbCircle
 62
7
  6
BYLAYER
 10
398.1853657583
 20
1080.9896628966
 40
1.0
100
AcDbArc
 50
0.0
 51
90.0
  0
ARC
  5
2D6
100
AcDbEntity
  8
0
100
AcDbCircle
 62
7
  6
BYLAYER
 10
376.6853657583
 20
1080.9896628966
 40
1.0
100
AcDbArc
 50
90.0000000017
 51
180.0000000003
  0
ARC
  5
2D7
100
AcDbEntity
  8
0
100
AcDbCircle
 62
7
  6
BYLAYER
 10
381.6853657583
 20
1080.9896628966
 40
1.0
100
AcDbArc
 50
0.0
 51
90.0
  0
ARC
  5
2D8
100
AcDbEntity
  8
0
100
AcDbCircle
 62
7
  6
BYLAYER
 10
383.1853657583
 20
1079.9896628966
 40
0.5
100
AcDbArc
 50
180.0
 51
270.0
  0
ARC
  5
2D9
100
AcDbEntity
  8
0
100
AcDbCircle
 62
7
  6
BYLAYER
 10
389.1853657583
 20
1079.9896628966
 40
0.5
100
AcDbArc
 50
270.0
 51
360.0
  0
ARC
  5
2DA
100
AcDbEntity
  8
0
100
AcDbCircle
 62
7
  6
BYLAYER
 10
423.8853657583
 20
1081.0896628966
 40
1.0
100
AcDbArc
 50
90.0
 51
180.0
  0
ARC
  5
2DB
100
AcDbEntity
  8
0
100
AcDbCircle
 62
7
  6
BYLAYER
 10
421.6853657583
 20
1080.9896628966
 40
1.0
100
AcDbArc
 50
0.0
 51
90.0
  0
ARC
  5
2DC
100
AcDbEntity
  8
0
100
AcDbCircle
 62
7
  6
BYLAYER
 10
408.1853657583
 20
1080.9896628966
 40
1.0
100
AcDbArc
 50
90.0
 51
180.0000000008
  0
ARC
  5
2DD
100
AcDbEntity
  8
0
100
AcDbCircle
 62
7
  6
BYLAYER
 10
423.1853657583
 20
1079.9896628966
 40
0.5
100
AcDbArc
 50
180.0
 51
270.0
  0
ARC
  5
2DE
100
AcDbEntity
  8
0
100
AcDbCircle
 62
7
  6
BYLAYER
 10
400.6853657583
 20
1078.4896628966
 40
0.5
100
AcDbArc
 50
257.8531473857
 51
77.8531473856
  0
ARC
  5
2DF
100
AcDbEntity
  8
0
100
AcDbCircle
 62
7
  6
BYLAYER
 10
407.1853657583
 20
1078.4896628966
 40
0.5
100
AcDbArc
 50
102.1803352402
 51
282.1803352402
  0
ARC
  5
2E0
100
AcDbEntity
  8
0
100
AcDbCircle
 62
7
  6
BYLAYER
 10
402.9585631521
 20
1093.5641915705
 40
25.9492033327
100
AcDbArc
 50
213.0803197523
 51
213.623639097
  0
ARC
  5
2E1
100
AcDbEntity
  8
0
100
AcDbCircle
 62
7
  6
BYLAYER
 10
411.3591057583
 20
1089.6896628966
 40
0.3
100
AcDbArc
 50
90.0
 51
180.0
  0
ARC
  5
2E2
100
AcDbEntity
  8
0
100
AcDbCircle
 62
7
  6
BYLAYER
 10
419.0091057583
 20
1089.6896628966
 40
0.3
100
AcDbArc
 50
0.0
 51
90.0
  0
ARC
  5
2E3
100
AcDbEntity
  8
4
100
AcDbCircle
 62
7
  6
BYLAYER
 10
475.9270265733
 20
188.3378380198
 40
5.0
100
AcDbArc
 50
0.0
 51
90.0
  0
ARC
  5
2E4
100
AcDbEntity
  8
4
100
AcDbCircle
 62
7
  6
BYLAYER
 10
475.9270265733
 20
148.3378380198
 40
5.0
100
AcDbArc
 50
270.0
 51
360.0
  0
ARC
  5
2E5
100
AcDbEntity
  8
4
100
AcDbCircle
 62
7
  6
BYLAYER
 10
472.7270265733
 20
183.3378380198
 40
3.25
100
AcDbArc
 50
270.0
 51
90.0
  0
ARC
  5
2E6
100
AcDbEntity
  8
4
100
AcDbCircle
 62
7
  6
BYLAYER
 10
459.2270265733
 20
183.3378380198
 40
3.25
100
AcDbArc
 50
90.0
 51
270.0
  0
ARC
  5
2E7
100
AcDbEntity
  8
4
100
AcDbCircle
 62
7
  6
BYLAYER
 10
459.2270265733
 20
153.3378380198
 40
3.25
100
AcDbArc
 50
90.0
 51
270.0
  0
ARC
  5
2E8
100
AcDbEntity
  8
4
100
AcDbCircle
 62
7
  6
BYLAYER
 10
472.7270265733
 20
153.3378380198
 40
3.25
100
AcDbArc
 50
270.0
 51
90.0
  0
ARC
  5
2E9
100
AcDbEntity
  8
0
100
AcDbCircle
 62
7
  6
BYLAYER
 10
428.4856064955
 20
99.3896628966
 40
1.0
100
AcDbArc
 50
270.0
 51
360.0
  0
ARC
  5
2EA
100
AcDbEntity
  8
0
100
AcDbCircle
 62
7
  6
BYLAYER
 10
429.6856064955
 20
99.4895527581
 40
1.0
100
AcDbArc
 50
270.0
 51
360.0
  0
ARC
  5
2EB
100
AcDbEntity
  8
0
100
AcDbCircle
 62
7
  6
BYLAYER
 10
430.1856064955
 20
101.4895527581
 40
0.5
100
AcDbArc
 50
270.0
 51
360.0
  0
ARC
  5
2EC
100
AcDbEntity
  8
4
100
AcDbCircle
 62
7
  6
BYLAYER
 10
475.9270265733
 20
1034.6727404807
 40
5.0
100
AcDbArc
 50
0.0
 51
90.0
  0
ARC
  5
2ED
100
AcDbEntity
  8
4
100
AcDbCircle
 62
7
  6
BYLAYER
 10
475.9270265733
 20
994.6727404807
 40
5.0
100
AcDbArc
 50
270.0
 51
360.0
  0
ARC
  5
2EE
100
AcDbEntity
  8
4
100
AcDbCircle
 62
7
  6
BYLAYER
 10
472.7270265733
 20
1029.6727404807
 40
3.25
100
AcDbArc
 50
270.0
 51
90.0
  0
ARC
  5
2EF
100
AcDbEntity
  8
4
100
AcDbCircle
 62
7
  6
BYLAYER
 10
459.2270265733
 20
1029.6727404807
 40
3.25
100
AcDbArc
 50
90.0
 51
270.0
  0
ARC
  5
2F0
100
AcDbEntity
  8
4
100
AcDbCircle
 62
7
  6
BYLAYER
 10
459.2270265733
 20
999.6727404807
 40
3.25
100
AcDbArc
 50
90.0
 51
270.0
  0
ARC
  5
2F1
100
AcDbEntity
  8
4
100
AcDbCircle
 62
7
  6
BYLAYER
 10
472.7270265733
 20
999.6727404807
 40
3.25
100
AcDbArc
 50
270.0
 51
90.0
  0
ARC
  5
2F2
100
AcDbEntity
  8
0
100
AcDbCircle
 62
7
  6
BYLAYER
 10
428.4853657583
 20
1081.0896628966
 40
1.0
100
AcDbArc
 50
0.0
 51
90.0
  0
ARC
  5
2F3
100
AcDbEntity
  8
0
100
AcDbCircle
 62
7
  6
BYLAYER
 10
429.6853657583
 20
1080.9896628966
 40
1.0
100
AcDbArc
 50
0.0
 51
90.0
  0
ARC
  5
2F4
100
AcDbEntity
  8
0
100
AcDbCircle
 62
7
  6
BYLAYER
 10
430.1853657583
 20
1078.9896628966
 40
0.5
100
AcDbArc
 50
0.0
 51
90.0
  0
SPLINE
  5
2F5
100
AcDbEntity
  8
0
100
AcDbSpline
 62
7
  6
BYLAYER
 70
0
 71
3
 72
12
 73
8
 74
0
 42
0.0000001
 43
0.0000001
 44
0.0000000001
 40
0.0
 40
0.0
 40
0.0
 40
0.0
 40
0.3400478014
 40
0.6258992838
 40
0.7417192923
 40
0.8403209939
 40
1.0
 40
1.0
 40
1.0
 40
1.0
 10
407.6856079187
 20
99.4895527581
 30
0.0
 10
407.6856079191
 20
99.35295174
 30
0.0
 10
407.7108471419
 20
99.1009362742
 30
0.0
 10
407.804883536
 20
98.8140885052
 30
0.0
 10
407.9137178459
 20
98.643524149
 30
0.0
 10
408.0175870355
 20
98.5346765861
 30
0.0
 10
408.1214645892
 20
98.4895672514
 30
0.0
 10
408.1856094363
 20
98.4895527577
 30
0.0
  0
SPLINE
  5
2F6
100
AcDbEntity
  8
0
100
AcDbSpline
 62
7
  6
BYLAYER
 70
0
 71
3
 72
12
 73
8
 74
0
 42
0.0000001
 43
0.0000001
 44
0.0000000001
 40
0.0
 40
0.0
 40
0.0
 40
0.0
 40
0.1596770904
 40
0.2582781684
 40
0.3740954472
 40
0.6599411656
 40
1.0
 40
1.0
 40
1.0
 40
1.0
 10
398.1856044612
 20
98.4895527578
 30
0.0
 10
398.2497485424
 20
98.4895658882
 30
0.0
 10
398.353625223
 20
98.5346758502
 30
0.0
 10
398.4574933606
 20
98.6435210844
 30
0.0
 10
398.5663270348
 20
98.8140815594
 30
0.0
 10
398.6603661217
 20
99.1009295634
 30
0.0
 10
398.6856053097
 20
99.352947301
 30
0.0
 10
398.6856059546
 20
99.4895527581
 30
0.0
  0
SPLINE
  5
2F7
100
AcDbEntity
  8
0
100
AcDbSpline
 62
7
  6
BYLAYER
 70
0
 71
3
 72
12
 73
8
 74
0
 42
0.0000001
 43
0.0000001
 44
0.0000000001
 40
0.0
 40
0.0
 40
0.0
 40
0.0
 40
0.1249612752
 40
0.2501494132
 40
0.4995021241
 40
0.7494103699
 40
1.0
 40
1.0
 40
1.0
 40
1.0
 10
421.6856064955
 20
100.4895527581
 30
0.0
 10
421.6856067158
 20
100.5725612118
 30
0.0
 10
421.7177531991
 20
100.7398236244
 30
0.0
 10
421.880642449
 20
101.0330596306
 30
0.0
 10
422.2054231304
 20
101.3116549036
 30
0.0
 10
422.6838094699
 20
101.4826329944
 30
0.0
 10
423.0191464647
 20
101.4895527995
 30
0.0
 10
423.1856064955
 20
101.4895527581
 30
0.0
  0
SPLINE
  5
2F8
100
AcDbEntity
  8
0
100
AcDbSpline
 62
7
  6
BYLAYER
 70
0
 71
3
 72
16
 73
12
 74
0
 42
0.0000001
 43
0.0000001
 44
0.0000000001
 40
0.0
 40
0.0
 40
0.0
 40
0.0
 40
0.2636273647
 40
0.4178764038
 40
0.5741876959
 40
0.7240052304
 40
0.8563237188
 40
0.9120390276
 40
0.957262702
 40
0.9883504454
 40
1.0
 40
1.0
 40
1.0
 40
1.0
 10
429.6856064838
 20
100.4895527581
 30
0.0
 10
429.6856066387
 20
100.5528467728
 30
0.0
 10
429.755152822
 20
100.6427723515
 30
0.0
 10
429.8515202505
 20
100.7370262653
 30
0.0
 10
429.9363054493
 20
100.8090913147
 30
0.0
 10
430.0182353283
 20
100.8749077447
 30
0.0
 10
430.08336552
 20
100.9233940764
 30
0.0
 10
430.1290966441
 20
100.9556475585
 30
0.0
 10
430.1563969682
 20
100.9720580704
 30
0.0
 10
430.1731492249
 20
100.9845296976
 30
0.0
 10
430.183870514
 20
100.9873597641
 30
0.0
 10
430.1856064872
 20
100.9895527552
 30
0.0
  0
SPLINE
  5
2F9
100
AcDbEntity
  8
0
100
AcDbSpline
 62
7
  6
BYLAYER
 70
0
 71
3
 72
12
 73
8
 74
0
 42
0.0000001
 43
0.0000001
 44
0.0000000001
 40
0.0
 40
0.0
 40
0.0
 40
0.0
 40
0.3555601317
 40
0.6614267398
 40
0.7831217149
 40
0.8795320322
 40
1.0
 40
1.0
 40
1.0
 40
1.0
 10
380.7735248036
 20
99.4895527581
 30
0.0
 10
380.7735248036
 20
99.3617954768
 30
0.0
 10
380.7861113333
 20
99.1237709783
 30
0.0
 10
380.8312442494
 20
98.8459013549
 30
0.0
 10
380.8904533673
 20
98.6648061801
 30
0.0
 10
380.940049846
 20
98.5582308762
 30
0.0
 10
381.0049602572
 20
98.4895527581
 30
0.0
 10
381.0482459315
 20
98.4895527581
 30
0.0
  0
SPLINE
  5
2FA
100
AcDbEntity
  8
0
100
AcDbSpline
 62
7
  6
BYLAYER
 70
0
 71
3
 72
10
 73
6
 74
0
 42
0.0000001
 43
0.0000001
 44
0.0000000001
 40
0.0
 40
0.0
 40
0.0
 40
0.0
 40
0.5192781373
 40
0.7706703291
 40
1.0
 40
1.0
 40
1.0
 40
1.0
 10
381.3510877123
 20
101.2840098484
 30
0.0
 10
381.5668019921
 20
101.2075066601
 30
0.0
 10
381.8926056275
 20
101.1084636724
 30
0.0
 10
382.3231975079
 20
101.0145677669
 30
0.0
 10
382.5347728987
 20
100.9895529956
 30
0.0
 10
382.6358529127
 20
100.9895527581
 30
0.0
  0
SPLINE
  5
2FB
100
AcDbEntity
  8
0
100
AcDbSpline
 62
7
  6
BYLAYER
 70
0
 71
3
 72
9
 73
5
 74
0
 42
0.0000001
 43
0.0000001
 44
0.0000000001
 40
0.0
 40
0.0
 40
0.0
 40
0.0
 40
0.2566268573
 40
1.0
 40
1.0
 40
1.0
 40
1.0
 10
381.3389446629
 20
101.4895527581
 30
0.0
 10
381.3389446629
 20
101.4719335024
 30
0.0
 10
381.3399494233
 20
101.4032839519
 30
0.0
 10
381.3448128798
 20
101.3346606932
 30
0.0
 10
381.3510877717
 20
101.2840100541
 30
0.0
  0
SPLINE
  5
2FC
100
AcDbEntity
  8
0
100
AcDbSpline
 62
7
  6
BYLAYER
 70
0
 71
3
 72
11
 73
7
 74
0
 42
0.0000001
 43
0.0000001
 44
0.0000000001
 40
0.0
 40
0.0
 40
0.0
 40
0.0
 40
0.2742864213
 40
0.5514542927
 40
0.7962818329
 40
1.0
 40
1.0
 40
1.0
 40
1.0
 10
382.273291265
 20
100.4895527581
 30
0.0
 10
382.2732912717
 20
100.5514859115
 30
0.0
 10
382.2899849509
 20
100.6766876748
 30
0.0
 10
382.3657427231
 20
100.8432720693
 30
0.0
 10
382.4873700792
 20
100.9609127231
 30
0.0
 10
382.5898538817
 20
100.9895527585
 30
0.0
 10
382.6358529086
 20
100.9895527581
 30
0.0
  0
SPLINE
  5
2FD
100
AcDbEntity
  8
0
100
AcDbSpline
 62
7
  6
BYLAYER
 70
0
 71
3
 72
10
 73
6
 74
0
 42
0.0000001
 43
0.0000001
 44
0.0000000001
 40
0.0
 40
0.0
 40
0.0
 40
0.0
 40
0.2114258548
 40
0.4596612947
 40
1.0
 40
1.0
 40
1.0
 40
1.0
 10
382.273291266
 20
100.4895527581
 30
0.0
 10
382.1868902629
 20
100.4895533446
 30
0.0
 10
382.0015961554
 20
100.5453077194
 30
0.0
 10
381.6426558997
 20
100.7386894238
 30
0.0
 10
381.3824501057
 20
100.933594803
 30
0.0
 10
381.2158043612
 20
101.0784673501
 30
0.0
  0
SPLINE
  5
2FE
100
AcDbEntity
  8
0
100
AcDbSpline
 62
7
  6
BYLAYER
 70
0
 71
3
 72
9
 73
5
 74
0
 42
0.0000001
 43
0.0000001
 44
0.0000000001
 40
0.0
 40
0.0
 40
0.0
 40
0.0
 40
0.7518345395
 40
1.0
 40
1.0
 40
1.0
 40
1.0
 10
381.2158042674
 20
101.0784672421
 30
0.0
 10
381.1016026008
 20
101.1777680786
 30
0.0
 10
380.9536332156
 20
101.314393159
 30
0.0
 10
380.8091921854
 20
101.4545792304
 30
0.0
 10
380.7735247093
 20
101.489552654
 30
0.0
  0
SPLINE
  5
2FF
100
AcDbEntity
  8
0
100
AcDbSpline
 62
7
  6
BYLAYER
 70
0
 71
3
 72
9
 73
5
 74
0
 42
0.0000001
 43
0.0000001
 44
0.0000000001
 40
0.0
 40
0.0
 40
0.0
 40
0.0
 40
0.2472785885
 40
1.0
 40
1.0
 40
1.0
 40
1.0
 10
380.7735248036
 20
101.4895527581
 30
0.0
 10
380.8209537306
 20
101.4721184723
 30
0.0
 10
381.0128680364
 20
101.4019202213
 30
0.0
 10
381.2054443191
 20
101.3334923399
 30
0.0
 10
381.3510877717
 20
101.2840100541
 30
0.0
  0
SPLINE
  5
300
100
AcDbEntity
  8
0
100
AcDbSpline
 62
7
  6
BYLAYER
 70
0
 71
3
 72
12
 73
8
 74
0
 42
0.0000001
 43
0.0000001
 44
0.0000000001
 40
0.0
 40
0.0
 40
0.0
 40
0.0
 40
0.1204115357
 40
0.2167519688
 40
0.3384069038
 40
0.6443218671
 40
1.0
 40
1.0
 40
1.0
 40
1.0
 10
377.4108853676
 20
98.4895527581
 30
0.0
 10
377.3676198142
 20
98.4895527581
 30
0.0
 10
377.3027333793
 20
98.5581686708
 30
0.0
 10
377.2531408958
 20
98.6646872462
 30
0.0
 10
377.1939133989
 20
98.8457524092
 30
0.0
 10
377.1487589193
 20
99.1236678446
 30
0.0
 10
377.1361642397
 20
99.3617526171
 30
0.0
 10
377.1361642397
 20
99.4895527581
 30
0.0
  0
SPLINE
  5
301
100
AcDbEntity
  8
0
100
AcDbSpline
 62
7
  6
BYLAYER
 70
0
 71
3
 72
12
 73
8
 74
0
 42
0.0000001
 43
0.0000001
 44
0.0000000001
 40
0.0
 40
0.0
 40
0.0
 40
0.0
 40
0.1249607169
 40
0.2501491118
 40
0.4995020359
 40
0.7494105011
 40
1.0
 40
1.0
 40
1.0
 40
1.0
 10
390.6856064955
 20
100.4895527581
 30
0.0
 10
390.6856063598
 20
100.5725608404
 30
0.0
 10
390.6534599332
 20
100.7398230407
 30
0.0
 10
390.4905710388
 20
101.0330591759
 30
0.0
 10
390.1657900375
 20
101.3116548757
 30
0.0
 10
389.6874034797
 20
101.4826329808
 30
0.0
 10
389.3520664378
 20
101.4895527658
 30
0.0
 10
389.1856064955
 20
101.4895527581
 30
0.0
  0
SPLINE
  5
302
100
AcDbEntity
  8
0
100
AcDbSpline
 62
7
  6
BYLAYER
 70
0
 71
3
 72
9
 73
5
 74
0
 42
0.0000001
 43
0.0000001
 44
0.0000000001
 40
0.0
 40
0.0
 40
0.0
 40
0.0
 40
0.2481650378
 40
1.0
 40
1.0
 40
1.0
 40
1.0
 10
380.7732839343
 20
1078.9896630424
 30
0.0
 10
380.8089513591
 20
1079.0246363968
 30
0.0
 10
380.9533924131
 20
1079.1648224434
 30
0.0
 10
381.1013617627
 20
1079.3014475624
 30
0.0
 10
381.2155634925
 20
1079.4007484559
 30
0.0
  0
SPLINE
  5
303
100
AcDbEntity
  8
0
100
AcDbSpline
 62
7
  6
BYLAYER
 70
0
 71
3
 72
9
 73
5
 74
0
 42
0.0000001
 43
0.0000001
 44
0.0000000001
 40
0.0
 40
0.0
 40
0.0
 40
0.0
 40
0.2472783312
 40
1.0
 40
1.0
 40
1.0
 40
1.0
 10
380.7732840664
 20
1078.9896628966
 30
0.0
 10
380.8207129458
 20
1079.0070971518
 30
0.0
 10
381.0126298297
 20
1079.0772883029
 30
0.0
 10
381.205203537
 20
1079.1457233083
 30
0.0
 10
381.3508470345
 20
1079.1952056006
 30
0.0
  0
SPLINE
  5
304
100
AcDbEntity
  8
0
100
AcDbSpline
 62
7
  6
BYLAYER
 70
0
 71
3
 72
10
 73
6
 74
0
 42
0.0000001
 43
0.0000001
 44
0.0000000001
 40
0.0
 40
0.0
 40
0.0
 40
0.0
 40
0.2114262679
 40
0.4596614222
 40
1.0
 40
1.0
 40
1.0
 40
1.0
 10
382.2730505495
 20
1079.9896628966
 30
0.0
 10
382.1866493767
 20
1079.9896623142
 30
0.0
 10
382.0013552277
 20
1079.9339078226
 30
0.0
 10
381.6424150037
 20
1079.7405260915
 30
0.0
 10
381.3822093176
 20
1079.545620834
 30
0.0
 10
381.215563624
 20
1079.4007483046
 30
0.0
  0
SPLINE
  5
305
100
AcDbEntity
  8
0
100
AcDbSpline
 62
7
  6
BYLAYER
 70
0
 71
3
 72
11
 73
7
 74
0
 42
0.0000001
 43
0.0000001
 44
0.0000000001
 40
0.0
 40
0.0
 40
0.0
 40
0.0
 40
0.2037181708
 40
0.4485457117
 40
0.7257135813
 40
1.0
 40
1.0
 40
1.0
 40
1.0
 10
382.6356121895
 20
1079.4896628966
 30
0.0
 10
382.5896131617
 20
1079.4896628962
 30
0.0
 10
382.487129358
 20
1079.5183029314
 30
0.0
 10
382.3655020011
 20
1079.635943586
 30
0.0
 10
382.2897442308
 20
1079.8025279809
 30
0.0
 10
382.2730505538
 20
1079.9277297437
 30
0.0
 10
382.2730505483
 20
1079.9896628966
 30
0.0
  0
SPLINE
  5
306
100
AcDbEntity
  8
0
100
AcDbSpline
 62
7
  6
BYLAYER
 70
0
 71
3
 72
10
 73
6
 74
0
 42
0.0000001
 43
0.0000001
 44
0.0000000001
 40
0.0
 40
0.0
 40
0.0
 40
0.0
 40
0.2293296864
 40
0.4807218845
 40
1.0
 40
1.0
 40
1.0
 40
1.0
 10
382.6356121689
 20
1079.4896628966
 30
0.0
 10
382.5345321486
 20
1079.4896626601
 30
0.0
 10
382.3229567488
 20
1079.464647889
 30
0.0
 10
381.8923648704
 20
1079.3707519837
 30
0.0
 10
381.5665612408
 20
1079.2717090045
 30
0.0
 10
381.350846972
 20
1079.195205817
 30
0.0
  0
SPLINE
  5
307
100
AcDbEntity
  8
0
100
AcDbSpline
 62
7
  6
BYLAYER
 70
0
 71
3
 72
9
 73
5
 74
0
 42
0.0000001
 43
0.0000001
 44
0.0000000001
 40
0.0
 40
0.0
 40
0.0
 40
0.0
 40
0.2408658181
 40
1.0
 40
1.0
 40
1.0
 40
1.0
 10
381.3508470345
 20
1079.1952056006
 30
0.0
 10
381.3488138304
 20
1079.1787936706
 30
0.0
 10
381.3415748483
 20
1079.1105105941
 30
0.0
 10
381.3387039257
 20
1079.0417836181
 30
0.0
 10
381.3387039257
 20
1078.9896628966
 30
0.0
  0
SPLINE
  5
308
100
AcDbEntity
  8
0
100
AcDbSpline
 62
7
  6
BYLAYER
 70
0
 71
3
 72
12
 73
8
 74
0
 42
0.0000001
 43
0.0000001
 44
0.0000000001
 40
0.0
 40
0.0
 40
0.0
 40
0.0
 40
0.3400478254
 40
0.6258993108
 40
0.7417192562
 40
0.8403210022
 40
1.0
 40
1.0
 40
1.0
 40
1.0
 10
398.6853644506
 20
1080.9896628966
 30
0.0
 10
398.6853644502
 20
1081.1262639254
 30
0.0
 10
398.6601251988
 20
1081.3782793853
 30
0.0
 10
398.5660888836
 20
1081.6651272005
 30
0.0
 10
398.4572544505
 20
1081.835691459
 30
0.0
 10
398.3533853623
 20
1081.9445391056
 30
0.0
 10
398.2495077597
 20
1081.9896484091
 30
0.0
 10
398.1853629154
 20
1081.989662897
 30
0.0
  0
SPLINE
  5
309
100
AcDbEntity
  8
0
100
AcDbSpline
 62
7
  6
BYLAYER
 70
0
 71
3
 72
12
 73
8
 74
0
 42
0.0000001
 43
0.0000001
 44
0.0000000001
 40
0.0
 40
0.0
 40
0.0
 40
0.0
 40
0.1596770812
 40
0.2582781531
 40
0.3740954272
 40
0.6599411459
 40
1.0
 40
1.0
 40
1.0
 40
1.0
 10
408.1853677002
 20
1081.9896628969
 30
0.0
 10
408.1212236218
 20
1081.9896497719
 30
0.0
 10
408.0173469407
 20
1081.9445398222
 30
0.0
 10
407.9134788011
 20
1081.835694597
 30
0.0
 10
407.8046451213
 20
1081.6651341268
 30
0.0
 10
407.7106060264
 20
1081.3782861133
 30
0.0
 10
407.6853668352
 20
1081.1262683637
 30
0.0
 10
407.6853661903
 20
1080.9896628966
 30
0.0
  0
SPLINE
  5
30A
100
AcDbEntity
  8
0
100
AcDbSpline
 62
7
  6
BYLAYER
 70
0
 71
3
 72
16
 73
12
 74
0
 42
0.0000001
 43
0.0000001
 44
0.0000000001
 40
0.0
 40
0.0
 40
0.0
 40
0.0
 40
0.0116495546
 40
0.042737298
 40
0.0879609725
 40
0.1436762813
 40
0.2759947698
 40
0.4258123044
 40
0.5821235967
 40
0.7363726357
 40
1.0
 40
1.0
 40
1.0
 40
1.0
 10
430.1853657509
 20
1079.4896628995
 30
0.0
 10
430.1836297105
 20
1079.4918558374
 30
0.0
 10
430.1729085742
 20
1079.4946860248
 30
0.0
 10
430.1561561856
 20
1079.5071575477
 30
0.0
 10
430.1288559254
 20
1079.5235681102
 30
0.0
 10
430.0831247706
 20
1079.5558215679
 30
0.0
 10
430.0179945975
 20
1079.6043079144
 30
0.0
 10
429.9360647118
 20
1079.670124339
 30
0.0
 10
429.8512795151
 20
1079.7421893901
 30
0.0
 10
429.7549120862
 20
1079.8364433033
 30
0.0
 10
429.6853659033
 20
1079.926368882
 30
0.0
 10
429.6853657484
 20
1079.9896628966
 30
0.0
  0
SPLINE
  5
30B
100
AcDbEntity
  8
0
100
AcDbSpline
 62
7
  6
BYLAYER
 70
0
 71
3
 72
12
 73
8
 74
0
 42
0.0000001
 43
0.0000001
 44
0.0000000001
 40
0.0
 40
0.0
 40
0.0
 40
0.0
 40
0.1249608927
 40
0.2501492077
 40
0.4995019733
 40
0.7494104792
 40
1.0
 40
1.0
 40
1.0
 40
1.0
 10
421.6853657583
 20
1079.9896628966
 30
0.0
 10
421.6853659786
 20
1079.9066546973
 30
0.0
 10
421.7175123366
 20
1079.7393924294
 30
0.0
 10
421.8804013512
 20
1079.4461563848
 30
0.0
 10
422.205182219
 20
1079.1675607952
 30
0.0
 10
422.6835687163
 20
1078.9965826838
 30
0.0
 10
423.0189058009
 20
1078.9896628552
 30
0.0
 10
423.1853657583
 20
1078.9896628966
 30
0.0
  0
SPLINE
  5
30C
100
AcDbEntity
  8
0
100
AcDbSpline
 62
7
  6
BYLAYER
 70
0
 71
3
 72
12
 73
8
 74
0
 42
0.0000001
 43
0.0000001
 44
0.0000000001
 40
0.0
 40
0.0
 40
0.0
 40
0.0
 40
0.1249612752
 40
0.2501494132
 40
0.4995021241
 40
0.7494103699
 40
1.0
 40
1.0
 40
1.0
 40
1.0
 10
390.6853657583
 20
1079.9896628966
 30
0.0
 10
390.685365538
 20
1079.9066544429
 30
0.0
 10
390.6532190547
 20
1079.7393920303
 30
0.0
 10
390.4903298048
 20
1079.4461560241
 30
0.0
 10
390.1655491234
 20
1079.1675607511
 30
0.0
 10
389.6871627839
 20
1078.9965826603
 30
0.0
 10
389.3518257891
 20
1078.9896628552
 30
0.0
 10
389.1853657583
 20
1078.9896628966
 30
0.0
  0
SPLINE
  5
30D
100
AcDbEntity
  8
0
100
AcDbSpline
 62
7
  6
BYLAYER
 70
0
 71
3
 72
12
 73
8
 74
0
 42
0.0000001
 43
0.0000001
 44
0.0000000001
 40
0.0
 40
0.0
 40
0.0
 40
0.0
 40
0.3555601317
 40
0.6614267398
 40
0.7831217149
 40
0.8795320322
 40
1.0
 40
1.0
 40
1.0
 40
1.0
 10
377.1359235025
 20
1080.9896628966
 30
0.0
 10
377.1359235025
 20
1081.1174201779
 30
0.0
 10
377.1485100322
 20
1081.3554446764
 30
0.0
 10
377.1936429483
 20
1081.6333142998
 30
0.0
 10
377.2528520662
 20
1081.8144094746
 30
0.0
 10
377.3024485449
 20
1081.9209847785
 30
0.0
 10
377.3673589561
 20
1081.9896628966
 30
0.0
 10
377.4106446304
 20
1081.9896628966
 30
0.0
  0
SPLINE
  5
30E
100
AcDbEntity
  8
0
100
AcDbSpline
 62
7
  6
BYLAYER
 70
0
 71
3
 72
12
 73
8
 74
0
 42
0.0000001
 43
0.0000001
 44
0.0000000001
 40
0.0
 40
0.0
 40
0.0
 40
0.0
 40
0.1204115357
 40
0.2167519688
 40
0.3384069038
 40
0.6443218671
 40
1.0
 40
1.0
 40
1.0
 40
1.0
 10
381.0480051943
 20
1081.9896628966
 30
0.0
 10
381.004739641
 20
1081.9896628966
 30
0.0
 10
380.9398532061
 20
1081.9210469839
 30
0.0
 10
380.8902607226
 20
1081.8145284085
 30
0.0
 10
380.8310332257
 20
1081.6334632455
 30
0.0
 10
380.7858787461
 20
1081.3555478101
 30
0.0
 10
380.7732840665
 20
1081.1174630376
 30
0.0
 10
380.7732840665
 20
1080.9896628966
 30
0.0
  0
SPLINE
  5
30F
100
AcDbEntity
  8
0
100
AcDbSpline
 62
7
  6
BYLAYER
 70
0
 71
3
 72
13
 73
9
 74
0
 42
0.0000001
 43
0.0000001
 44
0.0000000001
 40
0.0
 40
0.0
 40
0.0
 40
0.0
 40
0.1861537513
 40
0.3431998769
 40
0.5191581911
 40
0.6928056202
 40
0.8431978215
 40
1.0
 40
1.0
 40
1.0
 40
1.0
 10
392.7019833704
 20
1078.9784686456
 30
0.0
 10
392.7025611827
 20
1078.9178091142
 30
0.0
 10
392.7025135936
 20
1078.8062796334
 30
0.0
 10
392.7027888184
 20
1078.6358323256
 30
0.0
 10
392.702815452
 20
1078.4757202554
 30
0.0
 10
392.7027090198
 20
1078.2948029614
 30
0.0
 10
392.7026742736
 20
1078.197208444
 30
0.0
 10
392.7020386696
 20
1077.9497620362
 30
0.0
 10
392.7015519632
 20
1078.0008571476
 30
0.0
  0
SPLINE
  5
310
100
AcDbEntity
  8
0
100
AcDbSpline
 62
7
  6
BYLAYER
 70
0
 71
3
 72
13
 73
9
 74
0
 42
0.0000001
 43
0.0000001
 44
0.0000000001
 40
0.0
 40
0.0
 40
0.0
 40
0.0
 40
0.1861537513
 40
0.3431998769
 40
0.5191581911
 40
0.6928056202
 40
0.8431978215
 40
1.0
 40
1.0
 40
1.0
 40
1.0
 10
392.6687481462
 20
1078.9784686456
 30
0.0
 10
392.6681703339
 20
1078.9178091142
 30
0.0
 10
392.668217923
 20
1078.8062796334
 30
0.0
 10
392.6679426982
 20
1078.6358323256
 30
0.0
 10
392.6679160646
 20
1078.4757202554
 30
0.0
 10
392.6680224968
 20
1078.2948029614
 30
0.0
 10
392.668057243
 20
1078.197208444
 30
0.0
 10
392.668692847
 20
1077.9497620362
 30
0.0
 10
392.6691795534
 20
1078.0008571476
 30
0.0
  0
SPLINE
  5
311
100
AcDbEntity
  8
0
100
AcDbSpline
 62
7
  6
BYLAYER
 70
0
 71
3
 72
13
 73
9
 74
0
 42
0.0000001
 43
0.0000001
 44
0.0000000001
 40
0.0
 40
0.0
 40
0.0
 40
0.0
 40
0.1861537513
 40
0.3431998769
 40
0.5191581911
 40
0.6928056202
 40
0.8431978215
 40
1.0
 40
1.0
 40
1.0
 40
1.0
 10
392.7019833704
 20
1078.9784686456
 30
0.0
 10
392.7025611827
 20
1078.9178091142
 30
0.0
 10
392.7025135936
 20
1078.8062796334
 30
0.0
 10
392.7027888184
 20
1078.6358323256
 30
0.0
 10
392.702815452
 20
1078.4757202554
 30
0.0
 10
392.7027090198
 20
1078.2948029614
 30
0.0
 10
392.7026742736
 20
1078.197208444
 30
0.0
 10
392.7020386696
 20
1077.9497620362
 30
0.0
 10
392.7015519632
 20
1078.0008571476
 30
0.0
  0
SPLINE
  5
312
100
AcDbEntity
  8
0
100
AcDbSpline
 62
7
  6
BYLAYER
 70
0
 71
3
 72
13
 73
9
 74
0
 42
0.0000001
 43
0.0000001
 44
0.0000000001
 40
0.0
 40
0.0
 40
0.0
 40
0.0
 40
0.1861537513
 40
0.3431998769
 40
0.5191581911
 40
0.6928056202
 40
0.8431978215
 40
1.0
 40
1.0
 40
1.0
 40
1.0
 10
392.6687481462
 20
1078.9784686456
 30
0.0
 10
392.6681703339
 20
1078.9178091142
 30
0.0
 10
392.668217923
 20
1078.8062796334
 30
0.0
 10
392.6679426982
 20
1078.6358323256
 30
0.0
 10
392.6679160646
 20
1078.4757202554
 30
0.0
 10
392.6680224968
 20
1078.2948029614
 30
0.0
 10
392.668057243
 20
1078.197208444
 30
0.0
 10
392.668692847
 20
1077.9497620362
 30
0.0
 10
392.6691795534
 20
1078.0008571476
 30
0.0
  0
SPLINE
  5
313
100
AcDbEntity
  8
0
100
AcDbSpline
 62
7
  6
BYLAYER
 70
0
 71
3
 72
13
 73
9
 74
0
 42
0.0000001
 43
0.0000001
 44
0.0000000001
 40
0.0
 40
0.0
 40
0.0
 40
0.0
 40
0.1862139205
 40
0.3432809426
 40
0.5192503754
 40
0.6928978042
 40
0.8432788864
 40
1.0
 40
1.0
 40
1.0
 40
1.0
 10
415.1687479669
 20
1078.9784498137
 30
0.0
 10
415.1681704924
 20
1078.9177730086
 30
0.0
 10
415.1682176966
 20
1078.8062216137
 30
0.0
 10
415.1679426963
 20
1078.6357502423
 30
0.0
 10
415.1679160187
 20
1078.4756355401
 30
0.0
 10
415.168022699
 20
1078.2947210109
 30
0.0
 10
415.16805692
 20
1078.1971606781
 30
0.0
 10
415.1686937194
 20
1077.949809247
 30
0.0
 10
415.1691797327
 20
1078.0008759795
 30
0.0
  0
SPLINE
  5
314
100
AcDbEntity
  8
0
100
AcDbSpline
 62
7
  6
BYLAYER
 70
0
 71
3
 72
13
 73
9
 74
0
 42
0.0000001
 43
0.0000001
 44
0.0000000001
 40
0.0
 40
0.0
 40
0.0
 40
0.0
 40
0.1862139205
 40
0.3432809426
 40
0.5192503754
 40
0.6928978042
 40
0.8432788864
 40
1.0
 40
1.0
 40
1.0
 40
1.0
 10
415.2019835497
 20
1078.9784498137
 30
0.0
 10
415.2025610242
 20
1078.9177730086
 30
0.0
 10
415.20251382
 20
1078.8062216137
 30
0.0
 10
415.2027888203
 20
1078.6357502423
 30
0.0
 10
415.2028154979
 20
1078.4756355401
 30
0.0
 10
415.2027088176
 20
1078.2947210109
 30
0.0
 10
415.2026745966
 20
1078.1971606781
 30
0.0
 10
415.2020377972
 20
1077.949809247
 30
0.0
 10
415.2015517839
 20
1078.0008759795
 30
0.0
  0
SPLINE
  5
315
100
AcDbEntity
  8
0
100
AcDbSpline
 62
7
  6
BYLAYER
 70
0
 71
3
 72
13
 73
9
 74
0
 42
0.0000001
 43
0.0000001
 44
0.0000000001
 40
0.0
 40
0.0
 40
0.0
 40
0.0
 40
0.1863502903
 40
0.3434646729
 40
0.5194593054
 40
0.6931067336
 40
0.8434626149
 40
1.0
 40
1.0
 40
1.0
 40
1.0
 10
415.1687475606
 20
1078.9784070798
 30
0.0
 10
415.1681708495
 20
1078.9176911371
 30
0.0
 10
415.1682171846
 20
1078.8060900954
 30
0.0
 10
415.1679426918
 20
1078.6355642111
 30
0.0
 10
415.1679159147
 20
1078.4754435667
 30
0.0
 10
415.1680231576
 20
1078.2945353154
 30
0.0
 10
415.1680561885
 20
1078.1970524699
 30
0.0
 10
415.168695692
 20
1077.9499162979
 30
0.0
 10
415.169180139
 20
1078.0009187133
 30
0.0
  0
SPLINE
  5
316
100
AcDbEntity
  8
0
100
AcDbSpline
 62
7
  6
BYLAYER
 70
0
 71
3
 72
13
 73
9
 74
0
 42
0.0000001
 43
0.0000001
 44
0.0000000001
 40
0.0
 40
0.0
 40
0.0
 40
0.0
 40
0.1863502903
 40
0.3434646729
 40
0.5194593054
 40
0.6931067336
 40
0.8434626149
 40
1.0
 40
1.0
 40
1.0
 40
1.0
 10
415.201983956
 20
1078.9784070798
 30
0.0
 10
415.2025606671
 20
1078.9176911371
 30
0.0
 10
415.202514332
 20
1078.8060900954
 30
0.0
 10
415.2027888248
 20
1078.6355642111
 30
0.0
 10
415.2028156019
 20
1078.4754435667
 30
0.0
 10
415.202708359
 20
1078.2945353154
 30
0.0
 10
415.2026753281
 20
1078.1970524699
 30
0.0
 10
415.2020358246
 20
1077.9499162979
 30
0.0
 10
415.2015513776
 20
1078.0009187133
 30
0.0
  0
SPLINE
  5
317
100
AcDbEntity
  8
0
100
AcDbSpline
 62
7
  6
BYLAYER
 70
0
 71
3
 72
13
 73
9
 74
0
 42
0.0000001
 43
0.0000001
 44
0.0000000001
 40
0.0
 40
0.0
 40
0.0
 40
0.0
 40
0.1861537513
 40
0.3431998769
 40
0.5191581911
 40
0.6928056202
 40
0.8431978215
 40
1.0
 40
1.0
 40
1.0
 40
1.0
 10
392.7019833704
 20
1078.9784686456
 30
0.0
 10
392.7025611827
 20
1078.9178091142
 30
0.0
 10
392.7025135936
 20
1078.8062796334
 30
0.0
 10
392.7027888184
 20
1078.6358323256
 30
0.0
 10
392.702815452
 20
1078.4757202554
 30
0.0
 10
392.7027090198
 20
1078.2948029614
 30
0.0
 10
392.7026742736
 20
1078.197208444
 30
0.0
 10
392.7020386696
 20
1077.9497620362
 30
0.0
 10
392.7015519632
 20
1078.0008571476
 30
0.0
  0
SPLINE
  5
318
100
AcDbEntity
  8
0
100
AcDbSpline
 62
7
  6
BYLAYER
 70
0
 71
3
 72
13
 73
9
 74
0
 42
0.0000001
 43
0.0000001
 44
0.0000000001
 40
0.0
 40
0.0
 40
0.0
 40
0.0
 40
0.1861537513
 40
0.3431998769
 40
0.5191581911
 40
0.6928056202
 40
0.8431978215
 40
1.0
 40
1.0
 40
1.0
 40
1.0
 10
392.6687481462
 20
1078.9784686456
 30
0.0
 10
392.6681703339
 20
1078.9178091142
 30
0.0
 10
392.668217923
 20
1078.8062796334
 30
0.0
 10
392.6679426982
 20
1078.6358323256
 30
0.0
 10
392.6679160646
 20
1078.4757202554
 30
0.0
 10
392.6680224968
 20
1078.2948029614
 30
0.0
 10
392.668057243
 20
1078.197208444
 30
0.0
 10
392.668692847
 20
1077.9497620362
 30
0.0
 10
392.6691795534
 20
1078.0008571476
 30
0.0
  0
SPLINE
  5
319
100
AcDbEntity
  8
0
100
AcDbSpline
 62
7
  6
BYLAYER
 70
0
 71
3
 72
13
 73
9
 74
0
 42
0.0000001
 43
0.0000001
 44
0.0000000001
 40
0.0
 40
0.0
 40
0.0
 40
0.0
 40
0.1861537513
 40
0.3431998769
 40
0.5191581911
 40
0.6928056202
 40
0.8431978215
 40
1.0
 40
1.0
 40
1.0
 40
1.0
 10
392.7019833704
 20
1078.9784686456
 30
0.0
 10
392.7025611827
 20
1078.9178091142
 30
0.0
 10
392.7025135936
 20
1078.8062796334
 30
0.0
 10
392.7027888184
 20
1078.6358323256
 30
0.0
 10
392.702815452
 20
1078.4757202554
 30
0.0
 10
392.7027090198
 20
1078.2948029614
 30
0.0
 10
392.7026742736
 20
1078.197208444
 30
0.0
 10
392.7020386696
 20
1077.9497620362
 30
0.0
 10
392.7015519632
 20
1078.0008571476
 30
0.0
  0
SPLINE
  5
31A
100
AcDbEntity
  8
0
100
AcDbSpline
 62
7
  6
BYLAYER
 70
0
 71
3
 72
13
 73
9
 74
0
 42
0.0000001
 43
0.0000001
 44
0.0000000001
 40
0.0
 40
0.0
 40
0.0
 40
0.0
 40
0.1861537513
 40
0.3431998769
 40
0.5191581911
 40
0.6928056202
 40
0.8431978215
 40
1.0
 40
1.0
 40
1.0
 40
1.0
 10
392.6687481462
 20
1078.9784686456
 30
0.0
 10
392.6681703339
 20
1078.9178091142
 30
0.0
 10
392.668217923
 20
1078.8062796334
 30
0.0
 10
392.6679426982
 20
1078.6358323256
 30
0.0
 10
392.6679160646
 20
1078.4757202554
 30
0.0
 10
392.6680224968
 20
1078.2948029614
 30
0.0
 10
392.668057243
 20
1078.197208444
 30
0.0
 10
392.668692847
 20
1077.9497620362
 30
0.0
 10
392.6691795534
 20
1078.0008571476
 30
0.0
  0
SPLINE
  5
31B
100
AcDbEntity
  8
0
100
AcDbSpline
 62
7
  6
BYLAYER
 70
0
 71
3
 72
13
 73
9
 74
0
 42
0.0000001
 43
0.0000001
 44
0.0000000001
 40
0.0
 40
0.0
 40
0.0
 40
0.0
 40
0.1862139205
 40
0.3432809426
 40
0.5192503754
 40
0.6928978042
 40
0.8432788864
 40
1.0
 40
1.0
 40
1.0
 40
1.0
 10
415.1687479669
 20
1078.9784498137
 30
0.0
 10
415.1681704924
 20
1078.9177730086
 30
0.0
 10
415.1682176966
 20
1078.8062216137
 30
0.0
 10
415.1679426963
 20
1078.6357502423
 30
0.0
 10
415.1679160187
 20
1078.4756355401
 30
0.0
 10
415.168022699
 20
1078.2947210109
 30
0.0
 10
415.16805692
 20
1078.1971606781
 30
0.0
 10
415.1686937194
 20
1077.949809247
 30
0.0
 10
415.1691797327
 20
1078.0008759795
 30
0.0
  0
SPLINE
  5
31C
100
AcDbEntity
  8
0
100
AcDbSpline
 62
7
  6
BYLAYER
 70
0
 71
3
 72
13
 73
9
 74
0
 42
0.0000001
 43
0.0000001
 44
0.0000000001
 40
0.0
 40
0.0
 40
0.0
 40
0.0
 40
0.1862139205
 40
0.3432809426
 40
0.5192503754
 40
0.6928978042
 40
0.8432788864
 40
1.0
 40
1.0
 40
1.0
 40
1.0
 10
415.2019835497
 20
1078.9784498137
 30
0.0
 10
415.2025610242
 20
1078.9177730086
 30
0.0
 10
415.20251382
 20
1078.8062216137
 30
0.0
 10
415.2027888203
 20
1078.6357502423
 30
0.0
 10
415.2028154979
 20
1078.4756355401
 30
0.0
 10
415.2027088176
 20
1078.2947210109
 30
0.0
 10
415.2026745966
 20
1078.1971606781
 30
0.0
 10
415.2020377972
 20
1077.949809247
 30
0.0
 10
415.2015517839
 20
1078.0008759795
 30
0.0
  0
SPLINE
  5
31D
100
AcDbEntity
  8
0
100
AcDbSpline
 62
7
  6
BYLAYER
 70
0
 71
3
 72
13
 73
9
 74
0
 42
0.0000001
 43
0.0000001
 44
0.0000000001
 40
0.0
 40
0.0
 40
0.0
 40
0.0
 40
0.1863502903
 40
0.3434646729
 40
0.5194593054
 40
0.6931067336
 40
0.8434626149
 40
1.0
 40
1.0
 40
1.0
 40
1.0
 10
415.1687475606
 20
1078.9784070798
 30
0.0
 10
415.1681708495
 20
1078.9176911371
 30
0.0
 10
415.1682171846
 20
1078.8060900954
 30
0.0
 10
415.1679426918
 20
1078.6355642111
 30
0.0
 10
415.1679159147
 20
1078.4754435667
 30
0.0
 10
415.1680231576
 20
1078.2945353154
 30
0.0
 10
415.1680561885
 20
1078.1970524699
 30
0.0
 10
415.168695692
 20
1077.9499162979
 30
0.0
 10
415.169180139
 20
1078.0009187133
 30
0.0
  0
SPLINE
  5
31E
100
AcDbEntity
  8
0
100
AcDbSpline
 62
7
  6
BYLAYER
 70
0
 71
3
 72
13
 73
9
 74
0
 42
0.0000001
 43
0.0000001
 44
0.0000000001
 40
0.0
 40
0.0
 40
0.0
 40
0.0
 40
0.1863502903
 40
0.3434646729
 40
0.5194593054
 40
0.6931067336
 40
0.8434626149
 40
1.0
 40
1.0
 40
1.0
 40
1.0
 10
415.201983956
 20
1078.9784070798
 30
0.0
 10
415.2025606671
 20
1078.9176911371
 30
0.0
 10
415.202514332
 20
1078.8060900954
 30
0.0
 10
415.2027888248
 20
1078.6355642111
 30
0.0
 10
415.2028156019
 20
1078.4754435667
 30
0.0
 10
415.202708359
 20
1078.2945353154
 30
0.0
 10
415.2026753281
 20
1078.1970524699
 30
0.0
 10
415.2020358246
 20
1077.9499162979
 30
0.0
 10
415.2015513776
 20
1078.0009187133
 30
0.0
  0
ENDSEC
  0
SECTION
  2
OBJECTS
  0
DICTIONARY
  5
C
100
AcDbDictionary
280
0
281
1
  3
ACAD_GROUP
350
D
  3
ACAD_MLINESTYLE
350
17
  3
ACAD_LAYOUT
350
1A
  3
ACAD_PLOTSETTINGS
350
19
  3
ACAD_PLOTSTYLENAME
350
E
  0
DICTIONARY
  5
D
102
{ACAD_REACTORS
330
C
102
}
100
AcDbDictionary
280
0
281
1
  0
ACDBDICTIONARYWDFLT
  5
E
102
{ACAD_REACTORS
330
C
102
}
100
AcDbDictionary
281
1
  3
Normal
350
F
100
AcDbDictionaryWithDefault
340
F
  0
DICTIONARY
  5
17
102
{ACAD_REACTORS
330
C
102
}
100
AcDbDictionary
280
0
281
1
  3
Standard
350
18
  0
DICTIONARY
  5
19
102
{ACAD_REACTORS
330
C
102
}
100
AcDbDictionary
281
1
  0
DICTIONARY
  5
1A
102
{ACAD_REACTORS
330
C
102
}
100
AcDbDictionary
281
1
  3
Model
350
31F
  3
Layout1
350
320
  0
ACDBPLACEHOLDER
  5
F
102
{ACAD_REACTORS
330
E
102
}
  0
MLINESTYLE
  5
18
102
{ACAD_REACTORS
330
17
102
}
100
AcDbMlineStyle
  2
STANDARD
 70
0
  3

 62
256
 51
90.0
 52
90.0
 71
2
 49
0.5
 62
256
  6
BYLAYER
 49
-0.5
 62
256
  6
BYLAYER
  0
LAYOUT
  5
31F
102
{ACAD_REACTORS
330
1A
102
}
100
AcDbPlotSettings
  1

  2
none_device
  4

  6

 40
0.0
 41
0.0
 42
0.0
 43
0.0
 44
210.0
 45
297.0
 46
0.0
 47
0.0
 48
0.0
 49
0.0
140
0.0
141
0.0
142
1.0
143
1.0
 70
1024
 72
1
 73
0
 74
0
  7

 75
0
147
1.0
148
0.0
149
0.0
100
AcDbLayout
  1
Model
 70
0
 71
0
 10
0.0
 20
0.0
 11
210.0
 21
297.0
 12
0.0
 22
0.0
 32
0.0
 14
0.0
 24
0.0
 34
0.0
 15
0.0
 25
0.0
 35
0.0
146
0.0
 13
0.0
 23
0.0
 33
0.0
 16
1.0
 26
0.0
 36
0.0
 17
0.0
 27
1.0
 37
0.0
 76
0
330
212
345
0
346
0
  0
LAYOUT
  5
320
102
{ACAD_REACTORS
330
1A
102
}
100
AcDbPlotSettings
  1

  2
none_device
  4

  6

 40
0.0
 41
0.0
 42
0.0
 43
0.0
 44
210.0
 45
297.0
 46
0.0
 47
0.0
 48
0.0
 49
0.0
140
0.0
141
0.0
142
1.0
143
1.0
 70
0
 72
1
 73
0
 74
0
  7

 75
0
147
1.0
148
0.0
149
0.0
100
AcDbLayout
  1
Layout1
 70
0
 71
1
 10
0.0
 20
0.0
 11
210.0
 21
297.0
 12
0.0
 22
0.0
 32
0.0
 14
0.0
 24
0.0
 34
0.0
 15
0.0
 25
0.0
 35
0.0
146
0.0
 13
0.0
 23
0.0
 33
0.0
 16
1.0
 26
0.0
 36
0.0
 17
0.0
 27
1.0
 37
0.0
 76
0
330
213
345
0
346
0
  0
ENDSEC
  0
EOF
