999
DXF file: C:\Users\sesa63760\Dev\_Creo\CAD\MCADID0005458_3D-CAD\drw0001_3.dxf
999
Pro/ENGINEER 2019471 by Parametric Technology Corporation
  0
SECTION
  2
HEADER
  9
$ACADVER
  1
AC1024
  9
$DWGCODEPAGE
  3
ANSI_1252
  9
$EXTMAX
 10
86.4113869799
 20
122.2103901572
 30
0.0
  9
$EXTMIN
 10
0.0
 20
0.0
 30
0.0
  9
$LIMMIN
 10
0.0
 20
0.0
  9
$LIMMAX
 10
86.4113869799
 20
122.2103901572
  9
$VIEWCTR
 10
43.2056934899
 20
61.1051950786
  9
$VIEWSIZE
 40
122.2103901572
  9
$CLAYER
  8
0
  9
$LTSCALE
 40
7.966306914
  9
$CELTYPE
  6
BYLAYER
  9
$DIMSCALE
 40
1.0
  9
$DIMASZ
 40
1.0287069879
  9
$DIMEXO
 40
1.0
  9
$DIMDLI
 40
5.5039938678
  9
$DIMEXE
 40
1.0
  9
$DIMCEN
 40
1.303577495
  9
$DIMLFAC
 40
1.0
  9
$DIMBLK
  1
_FILLED
  9
$DIMALT
 70
0
  9
$DIMALTF
 40
0.0393700787
  9
$DIMTXT
 40
1.440189783
  9
$DIMTOL
 70
1
  9
$DIMLIM
 70
0
  9
$DIMTFAC
 40
1.0
  9
$DIMTP
 40
0.01
  9
$DIMTM
 40
0.01
  9
$DIMGAP
 40
0.625
  9
$DIMDSEP
 70
46
  9
$AUNITS
 70
0
  9
$PDMODE
 70
3
  9
$PDSIZE
 40
0.3125
  9
$HANDSEED
  5
46D
  9
$TILEMODE
 70
1
  9
$MEASUREMENT
 70
1
  9
$INSUNITS
 70
4
  0
ENDSEC
  0
SECTION
  2
CLASSES
  0
CLASS
  1
ACDBDICTIONARYWDFLT
  2
AcDbDictionaryWithDefault
  3
AutoCAD 2000
 90
0
 91
1
280
0
281
0
  0
CLASS
  1
ACDBPLACEHOLDER
  2
AcDbPlaceHolder
  3
AutoCAD 2000
 90
0
 91
1
280
0
281
0
  0
CLASS
  1
LAYOUT
  2
AcDbLayout
  3
AutoCAD 2000
 90
0
 91
0
280
0
281
0
  0
ENDSEC
  0
SECTION
  2
TABLES
  0
TABLE
  2
VPORT
  5
8
100
AcDbSymbolTable
 70
2
  0
VPORT
  5
1F4
100
AcDbSymbolTableRecord
100
AcDbViewportTableRecord
  2
*ACTIVE
 70
0
 10
0.0
 20
0.0
 11
1.0
 21
1.0
 12
43.2056934899
 22
61.1051950786
 13
0.0
 23
0.0
 14
1.0
 24
1.0
 15
0.0
 25
0.0
 16
0.0
 26
0.0
 36
1.0
 17
0.0
 27
0.0
 37
0.0
 40
122.2103901572
 41
0.7070707071
 42
50.0
 43
0.0
 44
0.0
 50
0.0
 51
0.0
 71
0
 72
100
 73
1
 74
1
 75
0
 76
0
 77
0
 78
0
  0
ENDTAB
  0
TABLE
  2
LTYPE
  5
5
100
AcDbSymbolTable
 70
6
  0
LTYPE
  5
14
100
AcDbSymbolTableRecord
100
AcDbLinetypeTableRecord
  2
BYBLOCK
 70
0
  3

 72
65
 73
0
 40
0.0
  0
LTYPE
  5
15
100
AcDbSymbolTableRecord
100
AcDbLinetypeTableRecord
  2
BYLAYER
 70
0
  3

 72
65
 73
0
 40
0.0
  0
LTYPE
  5
16
100
AcDbSymbolTableRecord
100
AcDbLinetypeTableRecord
  2
CONTINUOUS
 70
64
  3
Solid line
 72
65
 73
0
 40
0.0
  0
LTYPE
  5
1F5
100
AcDbSymbolTableRecord
100
AcDbLinetypeTableRecord
  2
CENTER
 70
64
  3
____ _ ____ _ ____ _ ____ _ ____ _ ____ _ ____
 72
65
 73
4
 40
0.6
 49
0.375
 74
0
 49
-0.075
 74
0
 49
0.075
 74
0
 49
-0.075
 74
0
  0
LTYPE
  5
1F6
100
AcDbSymbolTableRecord
100
AcDbLinetypeTableRecord
  2
HIDDEN
 70
64
  3
- - - - - - - - - - - - - - - - - - - -
 72
65
 73
2
 40
0.2
 49
0.1
 74
0
 49
-0.1
 74
0
  0
LTYPE
  5
1F7
100
AcDbSymbolTableRecord
100
AcDbLinetypeTableRecord
  2
PHANTOM
 70
64
  3
_____ _ _ _____ _ _ _____ _ _ _____
 72
65
 73
6
 40
0.8
 49
0.45
 74
0
 49
-0.05
 74
0
 49
0.1
 74
0
 49
-0.05
 74
0
 49
0.1
 74
0
 49
-0.05
 74
0
  0
LTYPE
  5
1F8
100
AcDbSymbolTableRecord
100
AcDbLinetypeTableRecord
  2
DOT
 70
64
  3
. . . . . . . . . . . . . . . . . . . .
 72
65
 73
2
 40
0.2
 49
0.1
 74
0
 49
-0.1
 74
0
  0
LTYPE
  5
1F9
100
AcDbSymbolTableRecord
100
AcDbLinetypeTableRecord
  2
DASHED
 70
64
  3
- - - - - - - - - - - - - - - - - - - -
 72
65
 73
2
 40
0.2
 49
0.1
 74
0
 49
-0.1
 74
0
  0
ENDTAB
  0
TABLE
  2
LAYER
  5
2
100
AcDbSymbolTable
 70
36
  0
LAYER
  5
10
100
AcDbSymbolTableRecord
100
AcDbLayerTableRecord
  2
0
 70
0
 62
7
  6
CONTINUOUS
370
-3
390
F
  0
LAYER
  5
1FA
100
AcDbSymbolTableRecord
100
AcDbLayerTableRecord
  2
DEFAULT_1
 70
0
 62
7
  6
CENTER
370
-3
390
F
  0
LAYER
  5
1FB
100
AcDbSymbolTableRecord
100
AcDbLayerTableRecord
  2
DEFAULT_2
 70
0
 62
7
  6
HIDDEN
370
-3
390
F
  0
LAYER
  5
1FC
100
AcDbSymbolTableRecord
100
AcDbLayerTableRecord
  2
DEFAULT_3
 70
0
 62
7
  6
PHANTOM
370
-3
390
F
  0
LAYER
  5
1FD
100
AcDbSymbolTableRecord
100
AcDbLayerTableRecord
  2
00_COMPONENTS
 70
0
 62
7
  6
CONTINUOUS
370
-3
390
F
  0
LAYER
  5
1FE
100
AcDbSymbolTableRecord
100
AcDbLayerTableRecord
  2
01_1_DEFAULT_DATUMS
 70
0
 62
7
  6
CONTINUOUS
370
-3
390
F
  0
LAYER
  5
1FF
100
AcDbSymbolTableRecord
100
AcDbLayerTableRecord
  2
01_PLANES
 70
0
 62
7
  6
CONTINUOUS
370
-3
390
F
  0
LAYER
  5
200
100
AcDbSymbolTableRecord
100
AcDbLayerTableRecord
  2
02_COORD_SYS
 70
0
 62
7
  6
CONTINUOUS
370
-3
390
F
  0
LAYER
  5
201
100
AcDbSymbolTableRecord
100
AcDbLayerTableRecord
  2
03_AXES
 70
0
 62
7
  6
CONTINUOUS
370
-3
390
F
  0
LAYER
  5
202
100
AcDbSymbolTableRecord
100
AcDbLayerTableRecord
  2
04_POINTS
 70
0
 62
7
  6
CONTINUOUS
370
-3
390
F
  0
LAYER
  5
203
100
AcDbSymbolTableRecord
100
AcDbLayerTableRecord
  2
05_CURVES
 70
0
 62
7
  6
CONTINUOUS
370
-3
390
F
  0
LAYER
  5
204
100
AcDbSymbolTableRecord
100
AcDbLayerTableRecord
  2
06_SURFS
 70
0
 62
7
  6
CONTINUOUS
370
-3
390
F
  0
LAYER
  5
205
100
AcDbSymbolTableRecord
100
AcDbLayerTableRecord
  2
07_COSMETICS
 70
0
 62
7
  6
CONTINUOUS
370
-3
390
F
  0
LAYER
  5
206
100
AcDbSymbolTableRecord
100
AcDbLayerTableRecord
  2
10_NOTES
 70
0
 62
7
  6
CONTINUOUS
370
-3
390
F
  0
LAYER
  5
207
100
AcDbSymbolTableRecord
100
AcDbLayerTableRecord
  2
11_NOTES_PUB
 70
0
 62
7
  6
CONTINUOUS
370
-3
390
F
  0
LAYER
  5
208
100
AcDbSymbolTableRecord
100
AcDbLayerTableRecord
  2
13_REF_GTOL
 70
0
 62
7
  6
CONTINUOUS
370
-3
390
F
  0
LAYER
  5
209
100
AcDbSymbolTableRecord
100
AcDbLayerTableRecord
  2
16_MISC
 70
0
 62
7
  6
CONTINUOUS
370
-3
390
F
  0
LAYER
  5
20A
100
AcDbSymbolTableRecord
100
AcDbLayerTableRecord
  2
17_NO_PRINT
 70
0
 62
7
  6
CONTINUOUS
370
-3
390
F
  0
LAYER
  5
20B
100
AcDbSymbolTableRecord
100
AcDbLayerTableRecord
  2
18_DATUM_CAMS_JOINTS
 70
0
 62
7
  6
CONTINUOUS
370
-3
390
F
  0
LAYER
  5
20C
100
AcDbSymbolTableRecord
100
AcDbLayerTableRecord
  2
19_DATUM_FUNCTIONAL
 70
0
 62
7
  6
CONTINUOUS
370
-3
390
F
  0
LAYER
  5
20D
100
AcDbSymbolTableRecord
100
AcDbLayerTableRecord
  2
20_DATUM_KINEMATIC_SCHEME
 70
0
 62
7
  6
CONTINUOUS
370
-3
390
F
  0
ENDTAB
  0
TABLE
  2
STYLE
  5
3
100
AcDbSymbolTable
 70
1
  0
STYLE
  5
11
100
AcDbSymbolTableRecord
100
AcDbTextStyleTableRecord
  2
STANDARD
 70
0
 40
0.0
 41
1.0
 50
0.0
 71
0
 42
0.2
  3
ARIAL.TTF
  4

  0
STYLE
  5
20E
100
AcDbSymbolTableRecord
100
AcDbTextStyleTableRecord
  2
TEXTSTYLE_1
 70
0
 40
0.0
 41
0.8
 50
0.0
 71
0
 42
0.2
  3
gdt
  4

  0
ENDTAB
  0
TABLE
  2
VIEW
  5
6
100
AcDbSymbolTable
 70
0
  0
ENDTAB
  0
TABLE
  2
UCS
  5
7
100
AcDbSymbolTable
 70
0
  0
ENDTAB
  0
TABLE
  2
APPID
  5
9
100
AcDbSymbolTable
 70
1
  0
APPID
  5
20F
100
AcDbSymbolTableRecord
100
AcDbRegAppTableRecord
  2
ACAD
 70
0
  0
ENDTAB
  0
TABLE
  2
BLOCK_RECORD
  5
1
100
AcDbSymbolTable
 70
0
  0
BLOCK_RECORD
  5
210
100
AcDbSymbolTableRecord
100
AcDbBlockTableRecord
  2
*Model_Space
  0
BLOCK_RECORD
  5
211
100
AcDbSymbolTableRecord
100
AcDbBlockTableRecord
  2
*Paper_Space
  0
BLOCK_RECORD
  5
212
100
AcDbSymbolTableRecord
100
AcDbBlockTableRecord
  2
_FILLED
  0
ENDTAB
  0
TABLE
  2
DIMSTYLE
  5
A
100
AcDbSymbolTable
 70
1
100
AcDbDimStyleTable
 71
0
  0
DIMSTYLE
105
213
100
AcDbSymbolTableRecord
100
AcDbDimStyleTableRecord
  2
STANDARD
 70
0
  3

  4

 40
1.0
 41
1.0287069879
 42
1.0
 43
0.38
 44
1.0
 45
0.0
 46
0.0
 47
0.01
 48
0.01
140
1.440189783
141
0.09
142
0.0
143
25.4
144
1.0
145
0.0
146
1.0
147
0.625
 71
1
 72
0
 73
0
 74
0
 75
0
 76
0
 77
1
 78
8
 79
2
170
0
171
1
172
0
173
0
174
0
175
0
176
0
177
0
178
0
270
2
179
2
271
2
272
2
273
2
274
2
275
0
280
0
281
0
282
0
283
1
284
8
285
0
286
0
287
3
288
0
340
11
278
46
341
212
342
212
343
212
344
212
  0
ENDTAB
  0
ENDSEC
  0
SECTION
  2
BLOCKS
  0
BLOCK
  5
20
100
AcDbEntity
  8
0
100
AcDbBlockBegin
  2
*Model_Space
 70
0
 10
0.0
 20
0.0
 30
0.0
  3
*Model_Space
  1

  0
ENDBLK
  5
21
100
AcDbEntity
  8
0
100
AcDbBlockEnd
  0
BLOCK
  5
1C
100
AcDbEntity
  8
0
100
AcDbBlockBegin
  2
*Paper_Space
 70
0
 10
0.0
 20
0.0
 30
0.0
  3
*Paper_Space
  1

  0
ENDBLK
  5
1D
100
AcDbEntity
  8
0
100
AcDbBlockEnd
  0
BLOCK
  5
214
100
AcDbEntity
  8
0
100
AcDbBlockBegin
  2
_FILLED
 70
64
 10
0.0
 20
0.0
  3
_FILLED
  1

  0
SOLID
  5
215
100
AcDbEntity
  8
0
  6
BYBLOCK
 62
0
100
AcDbTrace
 10
0.0
 20
0.0
 11
-1.0
 21
0.25
 12
-1.0
 22
-0.25
 13
-1.0
 23
-0.25
  0
ENDBLK
  5
216
100
AcDbEntity
  8
0
  6
BYBLOCK
 62
0
100
AcDbBlockEnd
  0
ENDSEC
  0
SECTION
  2
ENTITIES
  0
LINE
  5
217
100
AcDbEntity
  8
0
100
AcDbLine
 62
7
  6
BYLAYER
 10
39.702368057
 20
9.79787981
 11
59.302368057
 21
9.79787981
  0
LINE
  5
218
100
AcDbEntity
  8
0
100
AcDbLine
 62
7
  6
BYLAYER
 10
41.102368057
 20
11.5744246267
 11
48.102368057
 21
11.5744246267
  0
LINE
  5
219
100
AcDbEntity
  8
0
100
AcDbLine
 62
7
  6
BYLAYER
 10
50.902368057
 20
11.5744246267
 11
57.902368057
 21
11.5744246267
  0
LINE
  5
21A
100
AcDbEntity
  8
0
100
AcDbLine
 62
7
  6
BYLAYER
 10
41.102368057
 20
12.4978803583
 11
48.102368057
 21
12.4978803583
  0
LINE
  5
21B
100
AcDbEntity
  8
0
100
AcDbLine
 62
7
  6
BYLAYER
 10
50.902368057
 20
12.4978803583
 11
57.902368057
 21
12.4978803583
  0
LINE
  5
21C
100
AcDbEntity
  8
0
100
AcDbLine
 62
7
  6
BYLAYER
 10
39.702368057
 20
13.9190939613
 11
41.102368057
 21
13.9190939613
  0
LINE
  5
21D
100
AcDbEntity
  8
0
100
AcDbLine
 62
7
  6
BYLAYER
 10
48.102368057
 20
13.9190939613
 11
50.902368057
 21
13.9190939613
  0
LINE
  5
21E
100
AcDbEntity
  8
0
100
AcDbLine
 62
7
  6
BYLAYER
 10
57.902368057
 20
13.9190939613
 11
59.302368057
 21
13.9190939613
  0
LINE
  5
21F
100
AcDbEntity
  8
0
100
AcDbLine
 62
7
  6
BYLAYER
 10
41.102368057
 20
16.0046749302
 11
48.102368057
 21
16.0046749302
  0
LINE
  5
220
100
AcDbEntity
  8
0
100
AcDbLine
 62
7
  6
BYLAYER
 10
50.902368057
 20
16.0046749302
 11
57.902368057
 21
16.0046749302
  0
LINE
  5
221
100
AcDbEntity
  8
0
100
AcDbLine
 62
7
  6
BYLAYER
 10
41.102368057
 20
16.509854097
 11
48.102368057
 21
16.509854097
  0
LINE
  5
222
100
AcDbEntity
  8
0
100
AcDbLine
 62
7
  6
BYLAYER
 10
50.902368057
 20
16.509854097
 11
57.902368057
 21
16.509854097
  0
LINE
  5
223
100
AcDbEntity
  8
0
100
AcDbLine
 62
7
  6
BYLAYER
 10
41.102368057
 20
16.6487724082
 11
48.102368057
 21
16.6487724082
  0
LINE
  5
224
100
AcDbEntity
  8
0
100
AcDbLine
 62
7
  6
BYLAYER
 10
50.902368057
 20
16.6487724082
 11
57.902368057
 21
16.6487724082
  0
LINE
  5
225
100
AcDbEntity
  8
0
100
AcDbLine
 62
7
  6
BYLAYER
 10
41.102368057
 20
16.7519905158
 11
48.102368057
 21
16.7519905158
  0
LINE
  5
226
100
AcDbEntity
  8
0
100
AcDbLine
 62
7
  6
BYLAYER
 10
50.902368057
 20
16.7519905158
 11
57.902368057
 21
16.7519905158
  0
LINE
  5
227
100
AcDbEntity
  8
0
100
AcDbLine
 62
7
  6
BYLAYER
 10
41.102368057
 20
16.8909140416
 11
48.102368057
 21
16.8909140416
  0
LINE
  5
228
100
AcDbEntity
  8
0
100
AcDbLine
 62
7
  6
BYLAYER
 10
50.902368057
 20
16.8909140416
 11
57.902368057
 21
16.8909140416
  0
LINE
  5
229
100
AcDbEntity
  8
0
100
AcDbLine
 62
7
  6
BYLAYER
 10
41.102368057
 20
17.0014194367
 11
48.102368057
 21
17.0014194367
  0
LINE
  5
22A
100
AcDbEntity
  8
0
100
AcDbLine
 62
7
  6
BYLAYER
 10
50.902368057
 20
17.0014194367
 11
57.902368057
 21
17.0014194367
  0
LINE
  5
22B
100
AcDbEntity
  8
0
100
AcDbLine
 62
7
  6
BYLAYER
 10
41.102368057
 20
17.1513863393
 11
48.102368057
 21
17.1513863393
  0
LINE
  5
22C
100
AcDbEntity
  8
0
100
AcDbLine
 62
7
  6
BYLAYER
 10
50.902368057
 20
17.1513863393
 11
57.902368057
 21
17.1513863393
  0
LINE
  5
22D
100
AcDbEntity
  8
0
100
AcDbLine
 62
7
  6
BYLAYER
 10
57.902368057
 20
17.39589768
 11
50.902368057
 21
17.39589768
  0
LINE
  5
22E
100
AcDbEntity
  8
0
100
AcDbLine
 62
7
  6
BYLAYER
 10
48.102368057
 20
17.39589768
 11
41.102368057
 21
17.39589768
  0
LINE
  5
22F
100
AcDbEntity
  8
0
100
AcDbLine
 62
7
  6
BYLAYER
 10
41.102368057
 20
17.7339491617
 11
48.102368057
 21
17.7339491617
  0
LINE
  5
230
100
AcDbEntity
  8
0
100
AcDbLine
 62
7
  6
BYLAYER
 10
50.902368057
 20
17.7339491617
 11
57.902368057
 21
17.7339491617
  0
LINE
  5
231
100
AcDbEntity
  8
0
100
AcDbLine
 62
7
  6
BYLAYER
 10
41.102368057
 20
18.527501125
 11
48.102368057
 21
18.527501125
  0
LINE
  5
232
100
AcDbEntity
  8
0
100
AcDbLine
 62
7
  6
BYLAYER
 10
50.902368057
 20
18.527501125
 11
57.902368057
 21
18.527501125
  0
LINE
  5
233
100
AcDbEntity
  8
0
100
AcDbLine
 62
7
  6
BYLAYER
 10
41.102368057
 20
18.5765021706
 11
48.102368057
 21
18.5765021706
  0
LINE
  5
234
100
AcDbEntity
  8
0
100
AcDbLine
 62
7
  6
BYLAYER
 10
50.902368057
 20
18.5765021706
 11
57.902368057
 21
18.5765021706
  0
LINE
  5
235
100
AcDbEntity
  8
0
100
AcDbLine
 62
7
  6
BYLAYER
 10
41.102368057
 20
18.6199106761
 11
48.102368057
 21
18.6199106761
  0
LINE
  5
236
100
AcDbEntity
  8
0
100
AcDbLine
 62
7
  6
BYLAYER
 10
50.902368057
 20
18.6199106761
 11
57.902368057
 21
18.6199106761
  0
LINE
  5
237
100
AcDbEntity
  8
0
100
AcDbLine
 62
7
  6
BYLAYER
 10
41.102368057
 20
18.7415861078
 11
48.102368057
 21
18.7415861078
  0
LINE
  5
238
100
AcDbEntity
  8
0
100
AcDbLine
 62
7
  6
BYLAYER
 10
50.902368057
 20
18.7415861078
 11
57.902368057
 21
18.7415861078
  0
LINE
  5
239
100
AcDbEntity
  8
0
100
AcDbLine
 62
7
  6
BYLAYER
 10
57.902368057
 20
18.7792934962
 11
50.902368057
 21
18.7792934962
  0
LINE
  5
23A
100
AcDbEntity
  8
0
100
AcDbLine
 62
7
  6
BYLAYER
 10
48.102368057
 20
18.7792934962
 11
41.102368057
 21
18.7792934962
  0
LINE
  5
23B
100
AcDbEntity
  8
0
100
AcDbLine
 62
7
  6
BYLAYER
 10
41.102368057
 20
18.7936805674
 11
48.102368057
 21
18.7936805674
  0
LINE
  5
23C
100
AcDbEntity
  8
0
100
AcDbLine
 62
7
  6
BYLAYER
 10
50.902368057
 20
18.7936805674
 11
57.902368057
 21
18.7936805674
  0
LINE
  5
23D
100
AcDbEntity
  8
0
100
AcDbLine
 62
7
  6
BYLAYER
 10
41.102368057
 20
16.8827343705
 11
48.102368057
 21
16.8823777345
  0
LINE
  5
23E
100
AcDbEntity
  8
0
100
AcDbLine
 62
7
  6
BYLAYER
 10
50.902368057
 20
16.8827343705
 11
57.902368057
 21
16.8823777345
  0
LINE
  5
23F
100
AcDbEntity
  8
0
100
AcDbLine
 62
7
  6
BYLAYER
 10
41.102368057
 20
19.286089439
 11
48.102368057
 21
19.286089439
  0
LINE
  5
240
100
AcDbEntity
  8
0
100
AcDbLine
 62
7
  6
BYLAYER
 10
50.902368057
 20
19.286089439
 11
57.902368057
 21
19.286089439
  0
LINE
  5
241
100
AcDbEntity
  8
0
100
AcDbLine
 62
7
  6
BYLAYER
 10
41.102368057
 20
19.3124942966
 11
48.102368057
 21
19.3124942966
  0
LINE
  5
242
100
AcDbEntity
  8
0
100
AcDbLine
 62
7
  6
BYLAYER
 10
50.902368057
 20
19.3124942966
 11
57.902368057
 21
19.3124942966
  0
LINE
  5
243
100
AcDbEntity
  8
0
100
AcDbLine
 62
7
  6
BYLAYER
 10
57.902368057
 20
19.3859873435
 11
50.902368057
 21
19.3859873435
  0
LINE
  5
244
100
AcDbEntity
  8
0
100
AcDbLine
 62
7
  6
BYLAYER
 10
48.102368057
 20
19.3859873435
 11
41.102368057
 21
19.3859873435
  0
LINE
  5
245
100
AcDbEntity
  8
0
100
AcDbLine
 62
7
  6
BYLAYER
 10
41.102368057
 20
19.5094578453
 11
48.102368057
 21
19.5094578453
  0
LINE
  5
246
100
AcDbEntity
  8
0
100
AcDbLine
 62
7
  6
BYLAYER
 10
50.902368057
 20
19.5094578453
 11
57.902368057
 21
19.5094578453
  0
LINE
  5
247
100
AcDbEntity
  8
0
100
AcDbLine
 62
7
  6
BYLAYER
 10
41.102368057
 20
19.5294328519
 11
48.102368057
 21
19.5294328519
  0
LINE
  5
248
100
AcDbEntity
  8
0
100
AcDbLine
 62
7
  6
BYLAYER
 10
50.902368057
 20
19.5294328519
 11
57.902368057
 21
19.5294328519
  0
LINE
  5
249
100
AcDbEntity
  8
0
100
AcDbLine
 62
7
  6
BYLAYER
 10
41.102368057
 20
19.6771555134
 11
48.102368057
 21
19.6771555134
  0
LINE
  5
24A
100
AcDbEntity
  8
0
100
AcDbLine
 62
7
  6
BYLAYER
 10
50.902368057
 20
19.6771555134
 11
57.902368057
 21
19.6771555134
  0
LINE
  5
24B
100
AcDbEntity
  8
0
100
AcDbLine
 62
7
  6
BYLAYER
 10
39.702368057
 20
19.7848988124
 11
41.102368057
 21
19.7848988124
  0
LINE
  5
24C
100
AcDbEntity
  8
0
100
AcDbLine
 62
7
  6
BYLAYER
 10
48.102368057
 20
19.7848988124
 11
50.902368057
 21
19.7848988124
  0
LINE
  5
24D
100
AcDbEntity
  8
0
100
AcDbLine
 62
7
  6
BYLAYER
 10
57.902368057
 20
19.7848988124
 11
59.302368057
 21
19.7848988124
  0
LINE
  5
24E
100
AcDbEntity
  8
0
100
AcDbLine
 62
7
  6
BYLAYER
 10
57.902368057
 20
19.7986179605
 11
50.902368057
 21
19.7986179605
  0
LINE
  5
24F
100
AcDbEntity
  8
0
100
AcDbLine
 62
7
  6
BYLAYER
 10
48.102368057
 20
19.7986179605
 11
41.102368057
 21
19.7986179605
  0
LINE
  5
250
100
AcDbEntity
  8
0
100
AcDbLine
 62
7
  6
BYLAYER
 10
57.302368057
 20
20.1227008687
 11
51.602368057
 21
20.1227008687
  0
LINE
  5
251
100
AcDbEntity
  8
0
100
AcDbLine
 62
7
  6
BYLAYER
 10
47.502368057
 20
20.1227008687
 11
41.802368057
 21
20.1227008687
  0
LINE
  5
252
100
AcDbEntity
  8
0
100
AcDbLine
 62
7
  6
BYLAYER
 10
44.402368057
 20
98.997879357
 11
42.8788131736
 21
98.1730064189
  0
LINE
  5
253
100
AcDbEntity
  8
0
100
AcDbLine
 62
7
  6
BYLAYER
 10
59.302368057
 20
29.5978764125
 11
58.302368057
 21
29.5978764125
  0
LINE
  5
254
100
AcDbEntity
  8
0
100
AcDbLine
 62
7
  6
BYLAYER
 10
39.702368057
 20
29.5978764125
 11
40.702368057
 21
29.5978764125
  0
LINE
  5
255
100
AcDbEntity
  8
0
100
AcDbLine
 62
7
  6
BYLAYER
 10
48.502368057
 20
29.5978764125
 11
50.502368057
 21
29.5978764125
  0
LINE
  5
256
100
AcDbEntity
  8
0
100
AcDbLine
 62
7
  6
BYLAYER
 10
59.302368057
 20
29.9822179678
 11
58.302368057
 21
29.9822162902
  0
LINE
  5
257
100
AcDbEntity
  8
0
100
AcDbLine
 62
7
  6
BYLAYER
 10
40.702368057
 20
29.9822172223
 11
39.702368057
 21
29.9822181543
  0
LINE
  5
258
100
AcDbEntity
  8
0
100
AcDbLine
 62
7
  6
BYLAYER
 10
48.502368057
 20
29.9822146126
 11
50.502368057
 21
29.9822146126
  0
LINE
  5
259
100
AcDbEntity
  8
0
100
AcDbLine
 62
7
  6
BYLAYER
 10
40.702368057
 20
30.1802655109
 11
48.502368057
 21
30.1802655109
  0
LINE
  5
25A
100
AcDbEntity
  8
0
100
AcDbLine
 62
7
  6
BYLAYER
 10
50.502368057
 20
30.1802655109
 11
58.302368057
 21
30.1802655109
  0
LINE
  5
25B
100
AcDbEntity
  8
0
100
AcDbLine
 62
7
  6
BYLAYER
 10
39.702368057
 20
30.9978802163
 11
59.302368057
 21
30.9978802163
  0
LINE
  5
25C
100
AcDbEntity
  8
0
100
AcDbLine
 62
7
  6
BYLAYER
 10
39.702368057
 20
31.0978790172
 11
59.302368057
 21
31.0978790172
  0
LINE
  5
25D
100
AcDbEntity
  8
0
100
AcDbLine
 62
7
  6
BYLAYER
 10
39.702368057
 20
33.3978806981
 11
59.302368057
 21
33.3978806981
  0
LINE
  5
25E
100
AcDbEntity
  8
0
100
AcDbLine
 62
7
  6
BYLAYER
 10
41.102368057
 20
35.1744249304
 11
48.102368057
 21
35.1744249304
  0
LINE
  5
25F
100
AcDbEntity
  8
0
100
AcDbLine
 62
7
  6
BYLAYER
 10
50.902368057
 20
35.1744249304
 11
57.902368057
 21
35.1744249304
  0
LINE
  5
260
100
AcDbEntity
  8
0
100
AcDbLine
 62
7
  6
BYLAYER
 10
59.302368057
 20
35.2658297736
 11
39.702368057
 21
35.2658297736
  0
LINE
  5
261
100
AcDbEntity
  8
0
100
AcDbLine
 62
7
  6
BYLAYER
 10
39.702368057
 20
35.7121390649
 11
59.302368057
 21
35.7121390649
  0
LINE
  5
262
100
AcDbEntity
  8
0
100
AcDbLine
 62
7
  6
BYLAYER
 10
41.102368057
 20
36.0978803583
 11
48.102368057
 21
36.0978803583
  0
LINE
  5
263
100
AcDbEntity
  8
0
100
AcDbLine
 62
7
  6
BYLAYER
 10
50.902368057
 20
36.0978803583
 11
57.902368057
 21
36.0978803583
  0
LINE
  5
264
100
AcDbEntity
  8
0
100
AcDbLine
 62
7
  6
BYLAYER
 10
39.702368057
 20
37.5190948494
 11
41.102368057
 21
37.5190948494
  0
LINE
  5
265
100
AcDbEntity
  8
0
100
AcDbLine
 62
7
  6
BYLAYER
 10
48.102368057
 20
37.5190948494
 11
50.902368057
 21
37.5190948494
  0
LINE
  5
266
100
AcDbEntity
  8
0
100
AcDbLine
 62
7
  6
BYLAYER
 10
41.102368057
 20
37.5190948494
 11
48.102368057
 21
37.5190948494
  0
LINE
  5
267
100
AcDbEntity
  8
0
100
AcDbLine
 62
7
  6
BYLAYER
 10
57.902368057
 20
37.5190948494
 11
59.302368057
 21
37.5190948494
  0
LINE
  5
268
100
AcDbEntity
  8
0
100
AcDbLine
 62
7
  6
BYLAYER
 10
50.902368057
 20
37.5190948494
 11
57.902368057
 21
37.5190948494
  0
LINE
  5
269
100
AcDbEntity
  8
0
100
AcDbLine
 62
7
  6
BYLAYER
 10
41.102368057
 20
39.6046749302
 11
48.102368057
 21
39.6046749302
  0
LINE
  5
26A
100
AcDbEntity
  8
0
100
AcDbLine
 62
7
  6
BYLAYER
 10
50.902368057
 20
39.6046749302
 11
57.902368057
 21
39.6046749302
  0
LINE
  5
26B
100
AcDbEntity
  8
0
100
AcDbLine
 62
7
  6
BYLAYER
 10
41.102368057
 20
40.109854097
 11
48.102368057
 21
40.109854097
  0
LINE
  5
26C
100
AcDbEntity
  8
0
100
AcDbLine
 62
7
  6
BYLAYER
 10
50.902368057
 20
40.109854097
 11
57.902368057
 21
40.109854097
  0
LINE
  5
26D
100
AcDbEntity
  8
0
100
AcDbLine
 62
7
  6
BYLAYER
 10
41.102368057
 20
40.2487724082
 11
48.102368057
 21
40.2487724082
  0
LINE
  5
26E
100
AcDbEntity
  8
0
100
AcDbLine
 62
7
  6
BYLAYER
 10
50.902368057
 20
40.2487724082
 11
57.902368057
 21
40.2487724082
  0
LINE
  5
26F
100
AcDbEntity
  8
0
100
AcDbLine
 62
7
  6
BYLAYER
 10
41.102368057
 20
40.3519905158
 11
48.102368057
 21
40.3519905158
  0
LINE
  5
270
100
AcDbEntity
  8
0
100
AcDbLine
 62
7
  6
BYLAYER
 10
50.902368057
 20
40.3519905158
 11
57.902368057
 21
40.3519905158
  0
LINE
  5
271
100
AcDbEntity
  8
0
100
AcDbLine
 62
7
  6
BYLAYER
 10
41.102368057
 20
40.4909140416
 11
48.102368057
 21
40.4909140416
  0
LINE
  5
272
100
AcDbEntity
  8
0
100
AcDbLine
 62
7
  6
BYLAYER
 10
50.902368057
 20
40.4909140416
 11
57.902368057
 21
40.4909140416
  0
LINE
  5
273
100
AcDbEntity
  8
0
100
AcDbLine
 62
7
  6
BYLAYER
 10
41.102368057
 20
40.6014194367
 11
48.102368057
 21
40.6014194367
  0
LINE
  5
274
100
AcDbEntity
  8
0
100
AcDbLine
 62
7
  6
BYLAYER
 10
50.902368057
 20
40.6014194367
 11
57.902368057
 21
40.6014194367
  0
LINE
  5
275
100
AcDbEntity
  8
0
100
AcDbLine
 62
7
  6
BYLAYER
 10
41.102368057
 20
40.7513863393
 11
48.102368057
 21
40.7513863393
  0
LINE
  5
276
100
AcDbEntity
  8
0
100
AcDbLine
 62
7
  6
BYLAYER
 10
50.902368057
 20
40.7513863393
 11
57.902368057
 21
40.7513863393
  0
LINE
  5
277
100
AcDbEntity
  8
0
100
AcDbLine
 62
7
  6
BYLAYER
 10
57.902368057
 20
40.99589768
 11
50.902368057
 21
40.99589768
  0
LINE
  5
278
100
AcDbEntity
  8
0
100
AcDbLine
 62
7
  6
BYLAYER
 10
41.102368057
 20
41.0266643965
 11
48.102368057
 21
41.0266643965
  0
LINE
  5
279
100
AcDbEntity
  8
0
100
AcDbLine
 62
7
  6
BYLAYER
 10
41.102368057
 20
41.1919351815
 11
48.102368057
 21
41.1919351815
  0
LINE
  5
27A
100
AcDbEntity
  8
0
100
AcDbLine
 62
7
  6
BYLAYER
 10
41.102368057
 20
41.3339491617
 11
48.102368057
 21
41.3339491617
  0
LINE
  5
27B
100
AcDbEntity
  8
0
100
AcDbLine
 62
7
  6
BYLAYER
 10
50.902368057
 20
41.3339491617
 11
57.902368057
 21
41.3339491617
  0
LINE
  5
27C
100
AcDbEntity
  8
0
100
AcDbLine
 62
7
  6
BYLAYER
 10
41.102368057
 20
42.127501125
 11
48.102368057
 21
42.127501125
  0
LINE
  5
27D
100
AcDbEntity
  8
0
100
AcDbLine
 62
7
  6
BYLAYER
 10
50.902368057
 20
42.127501125
 11
57.902368057
 21
42.127501125
  0
LINE
  5
27E
100
AcDbEntity
  8
0
100
AcDbLine
 62
7
  6
BYLAYER
 10
41.102368057
 20
42.1765021706
 11
48.102368057
 21
42.1765021706
  0
LINE
  5
27F
100
AcDbEntity
  8
0
100
AcDbLine
 62
7
  6
BYLAYER
 10
50.902368057
 20
42.1765021706
 11
57.902368057
 21
42.1765021706
  0
LINE
  5
280
100
AcDbEntity
  8
0
100
AcDbLine
 62
7
  6
BYLAYER
 10
41.102368057
 20
42.2199106761
 11
48.102368057
 21
42.2199106761
  0
LINE
  5
281
100
AcDbEntity
  8
0
100
AcDbLine
 62
7
  6
BYLAYER
 10
50.902368057
 20
42.2199106761
 11
57.902368057
 21
42.2199106761
  0
LINE
  5
282
100
AcDbEntity
  8
0
100
AcDbLine
 62
7
  6
BYLAYER
 10
41.102368057
 20
42.3415861078
 11
48.102368057
 21
42.3415861078
  0
LINE
  5
283
100
AcDbEntity
  8
0
100
AcDbLine
 62
7
  6
BYLAYER
 10
50.902368057
 20
42.3415861078
 11
57.902368057
 21
42.3415861078
  0
LINE
  5
284
100
AcDbEntity
  8
0
100
AcDbLine
 62
7
  6
BYLAYER
 10
57.902368057
 20
42.3792934963
 11
50.902368057
 21
42.3792934963
  0
LINE
  5
285
100
AcDbEntity
  8
0
100
AcDbLine
 62
7
  6
BYLAYER
 10
48.102368057
 20
42.3792934963
 11
41.102368057
 21
42.3792934963
  0
LINE
  5
286
100
AcDbEntity
  8
0
100
AcDbLine
 62
7
  6
BYLAYER
 10
41.102368057
 20
42.3936805674
 11
48.102368057
 21
42.3936805674
  0
LINE
  5
287
100
AcDbEntity
  8
0
100
AcDbLine
 62
7
  6
BYLAYER
 10
50.902368057
 20
42.3936805674
 11
57.902368057
 21
42.3936805674
  0
LINE
  5
288
100
AcDbEntity
  8
0
100
AcDbLine
 62
7
  6
BYLAYER
 10
41.102368057
 20
42.886089439
 11
48.102368057
 21
42.886089439
  0
LINE
  5
289
100
AcDbEntity
  8
0
100
AcDbLine
 62
7
  6
BYLAYER
 10
50.902368057
 20
42.886089439
 11
57.902368057
 21
42.886089439
  0
LINE
  5
28A
100
AcDbEntity
  8
0
100
AcDbLine
 62
7
  6
BYLAYER
 10
41.102368057
 20
42.9124942966
 11
48.102368057
 21
42.9124942966
  0
LINE
  5
28B
100
AcDbEntity
  8
0
100
AcDbLine
 62
7
  6
BYLAYER
 10
50.902368057
 20
42.9124942966
 11
57.902368057
 21
42.9124942966
  0
LINE
  5
28C
100
AcDbEntity
  8
0
100
AcDbLine
 62
7
  6
BYLAYER
 10
57.902368057
 20
42.9859873436
 11
50.902368057
 21
42.9859873436
  0
LINE
  5
28D
100
AcDbEntity
  8
0
100
AcDbLine
 62
7
  6
BYLAYER
 10
48.102368057
 20
42.9859873436
 11
41.102368057
 21
42.9859873436
  0
LINE
  5
28E
100
AcDbEntity
  8
0
100
AcDbLine
 62
7
  6
BYLAYER
 10
41.102368057
 20
43.1094578453
 11
48.102368057
 21
43.1094578453
  0
LINE
  5
28F
100
AcDbEntity
  8
0
100
AcDbLine
 62
7
  6
BYLAYER
 10
50.902368057
 20
43.1094578453
 11
57.902368057
 21
43.1094578453
  0
LINE
  5
290
100
AcDbEntity
  8
0
100
AcDbLine
 62
7
  6
BYLAYER
 10
41.102368057
 20
43.1294328519
 11
48.102368057
 21
43.1294328519
  0
LINE
  5
291
100
AcDbEntity
  8
0
100
AcDbLine
 62
7
  6
BYLAYER
 10
50.902368057
 20
43.1294328519
 11
57.902368057
 21
43.1294328519
  0
LINE
  5
292
100
AcDbEntity
  8
0
100
AcDbLine
 62
7
  6
BYLAYER
 10
41.102368057
 20
43.2771555134
 11
48.102368057
 21
43.2771555134
  0
LINE
  5
293
100
AcDbEntity
  8
0
100
AcDbLine
 62
7
  6
BYLAYER
 10
50.902368057
 20
43.2771555134
 11
57.902368057
 21
43.2771555134
  0
LINE
  5
294
100
AcDbEntity
  8
0
100
AcDbLine
 62
7
  6
BYLAYER
 10
39.702368057
 20
43.3849034258
 11
41.102368057
 21
43.3849034258
  0
LINE
  5
295
100
AcDbEntity
  8
0
100
AcDbLine
 62
7
  6
BYLAYER
 10
48.102368057
 20
43.3849034258
 11
50.902368057
 21
43.3849034258
  0
LINE
  5
296
100
AcDbEntity
  8
0
100
AcDbLine
 62
7
  6
BYLAYER
 10
57.902368057
 20
43.3849034258
 11
59.302368057
 21
43.3849034258
  0
LINE
  5
297
100
AcDbEntity
  8
0
100
AcDbLine
 62
7
  6
BYLAYER
 10
57.902368057
 20
43.3986184107
 11
50.902368057
 21
43.3986184107
  0
LINE
  5
298
100
AcDbEntity
  8
0
100
AcDbLine
 62
7
  6
BYLAYER
 10
48.102368057
 20
43.3986184107
 11
41.102368057
 21
43.3986184107
  0
LINE
  5
299
100
AcDbEntity
  8
0
100
AcDbLine
 62
7
  6
BYLAYER
 10
57.302368057
 20
43.7227008687
 11
51.602368057
 21
43.7227008687
  0
LINE
  5
29A
100
AcDbEntity
  8
0
100
AcDbLine
 62
7
  6
BYLAYER
 10
47.502368057
 20
43.7227008687
 11
41.802368057
 21
43.7227008687
  0
LINE
  5
29B
100
AcDbEntity
  8
0
100
AcDbLine
 62
7
  6
BYLAYER
 10
41.102368057
 20
40.4827343705
 11
48.102368057
 21
40.4823777345
  0
LINE
  5
29C
100
AcDbEntity
  8
0
100
AcDbLine
 62
7
  6
BYLAYER
 10
50.902368057
 20
40.4827343705
 11
57.902368057
 21
40.4823777345
  0
LINE
  5
29D
100
AcDbEntity
  8
0
100
AcDbLine
 62
7
  6
BYLAYER
 10
29.502368057
 20
87.297879357
 11
29.502368057
 21
56.9978796415
  0
LINE
  5
29E
100
AcDbEntity
  8
0
100
AcDbLine
 62
7
  6
BYLAYER
 10
29.7373679163
 20
87.297879357
 11
29.7373679163
 21
93.3978793616
  0
LINE
  5
29F
100
AcDbEntity
  8
0
100
AcDbLine
 62
7
  6
BYLAYER
 10
29.7934911447
 20
100.037879313
 11
29.7934911447
 21
103.487879357
  0
LINE
  5
2A0
100
AcDbEntity
  8
0
100
AcDbLine
 62
7
  6
BYLAYER
 10
29.7177555581
 20
110.9804976543
 11
29.6523679683
 21
103.4878793571
  0
LINE
  5
2A1
100
AcDbEntity
  8
0
100
AcDbLine
 62
7
  6
BYLAYER
 10
31.7431932453
 20
111.6469196171
 11
31.7335516994
 21
111.2787401088
  0
LINE
  5
2A2
100
AcDbEntity
  8
0
100
AcDbLine
 62
7
  6
BYLAYER
 10
42.8058075863
 20
98.1063608468
 11
42.4066676076
 21
97.0510236809
  0
LINE
  5
2A3
100
AcDbEntity
  8
0
100
AcDbLine
 62
7
  6
BYLAYER
 10
30.822368057
 20
98.787879357
 11
30.822368057
 21
100.037879313
  0
LINE
  5
2A4
100
AcDbEntity
  8
0
100
AcDbLine
 62
7
  6
BYLAYER
 10
30.879027387
 20
103.487879357
 11
30.879027387
 21
100.037879313
  0
LINE
  5
2A5
100
AcDbEntity
  8
0
100
AcDbLine
 62
7
  6
BYLAYER
 10
30.902368057
 20
58.7744248717
 11
30.902368057
 21
66.9986183157
  0
LINE
  5
2A6
100
AcDbEntity
  8
0
100
AcDbLine
 62
7
  6
BYLAYER
 10
31.002368057
 20
78.1978795721
 11
31.002368057
 21
66.9849011157
  0
LINE
  5
2A7
100
AcDbEntity
  8
0
100
AcDbLine
 62
7
  6
BYLAYER
 10
31.198993158
 20
103.977879357
 11
31.198993158
 21
111.2778793533
  0
LINE
  5
2A8
100
AcDbEntity
  8
0
100
AcDbLine
 62
7
  6
BYLAYER
 10
31.40236819
 20
86.9978797515
 11
31.40236819
 21
85.4978797384
  0
LINE
  5
2A9
100
AcDbEntity
  8
0
100
AcDbLine
 62
7
  6
BYLAYER
 10
31.7022907854
 20
103.977879357
 11
31.7022907854
 21
111.2809247039
  0
LINE
  5
2AA
100
AcDbEntity
  8
0
100
AcDbLine
 62
7
  6
BYLAYER
 10
31.7076655732
 20
111.2778795268
 11
31.7076655732
 21
103.977879357
  0
LINE
  5
2AB
100
AcDbEntity
  8
0
100
AcDbLine
 62
7
  6
BYLAYER
 10
31.8062535182
 20
103.977879357
 11
31.8062535182
 21
111.277879527
  0
LINE
  5
2AC
100
AcDbEntity
  8
0
100
AcDbLine
 62
7
  6
BYLAYER
 10
32.002368057
 20
67.3227008687
 11
32.002368057
 21
78.1978795705
  0
LINE
  5
2AD
100
AcDbEntity
  8
0
100
AcDbLine
 62
7
  6
BYLAYER
 10
32.112368057
 20
62.041379357
 11
32.112368057
 21
56.9978797235
  0
LINE
  5
2AE
100
AcDbEntity
  8
0
100
AcDbLine
 62
7
  6
BYLAYER
 10
32.237368057
 20
84.2225701185
 11
32.2373683261
 21
84.9921395927
  0
LINE
  5
2AF
100
AcDbEntity
  8
0
100
AcDbLine
 62
7
  6
BYLAYER
 10
32.237368057
 20
84.2225700278
 11
32.237368057
 21
83.017879357
  0
LINE
  5
2B0
100
AcDbEntity
  8
0
100
AcDbLine
 62
7
  6
BYLAYER
 10
32.2373683261
 20
87.297879357
 11
32.237368057
 21
93.397879357
  0
LINE
  5
2B1
100
AcDbEntity
  8
0
100
AcDbLine
 62
7
  6
BYLAYER
 10
32.2773676995
 20
93.597879357
 11
32.2773676995
 21
93.397879357
  0
LINE
  5
2B2
100
AcDbEntity
  8
0
100
AcDbLine
 62
7
  6
BYLAYER
 10
32.277368057
 20
93.397879357
 11
32.277368057
 21
87.3978797705
  0
LINE
  5
2B3
100
AcDbEntity
  8
0
100
AcDbLine
 62
7
  6
BYLAYER
 10
32.2773679473
 20
84.1842598259
 11
32.277368057
 21
83.017879357
  0
LINE
  5
2B4
100
AcDbEntity
  8
0
100
AcDbLine
 62
7
  6
BYLAYER
 10
32.2773676995
 20
87.3978797705
 11
32.2773679473
 21
84.1842598259
  0
LINE
  5
2B5
100
AcDbEntity
  8
0
100
AcDbLine
 62
7
  6
BYLAYER
 10
32.570261226
 20
93.597879357
 11
32.570261226
 21
87.297879357
  0
LINE
  5
2B6
100
AcDbEntity
  8
0
100
AcDbLine
 62
7
  6
BYLAYER
 10
33.0773684367
 20
83.8978797788
 11
33.0773684738
 21
87.3978797705
  0
LINE
  5
2B7
100
AcDbEntity
  8
0
100
AcDbLine
 62
7
  6
BYLAYER
 10
33.0773685375
 20
93.3978793655
 11
33.0773685396
 21
93.597879357
  0
LINE
  5
2B8
100
AcDbEntity
  8
0
100
AcDbLine
 62
7
  6
BYLAYER
 10
33.0773684835
 20
83.017879357
 11
33.0773684367
 21
83.8978797788
  0
LINE
  5
2B9
100
AcDbEntity
  8
0
100
AcDbLine
 62
7
  6
BYLAYER
 10
33.0773684738
 20
87.3978797705
 11
33.0773685375
 21
93.3978793655
  0
LINE
  5
2BA
100
AcDbEntity
  8
0
100
AcDbLine
 62
7
  6
BYLAYER
 10
33.2373685018
 20
87.3978797705
 11
33.2373685018
 21
93.397879357
  0
LINE
  5
2BB
100
AcDbEntity
  8
0
100
AcDbLine
 62
7
  6
BYLAYER
 10
33.2373698816
 20
83.8978797788
 11
33.2373698816
 21
83.017879357
  0
LINE
  5
2BC
100
AcDbEntity
  8
0
100
AcDbLine
 62
7
  6
BYLAYER
 10
33.5273683699
 20
98.787879357
 11
33.5273683699
 21
97.0778787948
  0
LINE
  5
2BD
100
AcDbEntity
  8
0
100
AcDbLine
 62
7
  6
BYLAYER
 10
34.0023687729
 20
103.487879357
 11
34.0023687729
 21
111.2778793193
  0
LINE
  5
2BE
100
AcDbEntity
  8
0
100
AcDbLine
 62
7
  6
BYLAYER
 10
41.7560681688
 20
78.219963485
 11
41.6717154779
 21
78.0954724736
  0
LINE
  5
2BF
100
AcDbEntity
  8
0
100
AcDbLine
 62
7
  6
BYLAYER
 10
41.8474345294
 20
76.1177449685
 11
41.927253776
 21
76.2348323809
  0
LINE
  5
2C0
100
AcDbEntity
  8
0
100
AcDbLine
 62
7
  6
BYLAYER
 10
34.1578119253
 20
103.977879357
 11
34.1578119253
 21
111.2778793535
  0
LINE
  5
2C1
100
AcDbEntity
  8
0
100
AcDbLine
 62
7
  6
BYLAYER
 10
34.2741959424
 20
111.2778793406
 11
34.2741959424
 21
103.977879357
  0
LINE
  5
2C2
100
AcDbEntity
  8
0
100
AcDbLine
 62
7
  6
BYLAYER
 10
34.3023684503
 20
96.777879329
 11
34.3023684503
 21
93.597879357
  0
LINE
  5
2C3
100
AcDbEntity
  8
0
100
AcDbLine
 62
7
  6
BYLAYER
 10
35.0375352431
 20
85.4978797384
 11
35.0375352431
 21
86.9978797515
  0
LINE
  5
2C4
100
AcDbEntity
  8
0
100
AcDbLine
 62
7
  6
BYLAYER
 10
35.335216102
 20
86.9978797515
 11
35.335216102
 21
85.4978797384
  0
LINE
  5
2C5
100
AcDbEntity
  8
0
100
AcDbLine
 62
7
  6
BYLAYER
 10
35.4622625865
 20
87.297879357
 11
35.4622625865
 21
86.9978797515
  0
LINE
  5
2C6
100
AcDbEntity
  8
0
100
AcDbLine
 62
7
  6
BYLAYER
 10
35.4622625865
 20
85.4978797384
 11
35.4622625865
 21
85.477879357
  0
LINE
  5
2C7
100
AcDbEntity
  8
0
100
AcDbLine
 62
7
  6
BYLAYER
 10
35.7523678498
 20
83.8978797788
 11
35.7523678498
 21
78.2214185084
  0
LINE
  5
2C8
100
AcDbEntity
  8
0
100
AcDbLine
 62
7
  6
BYLAYER
 10
35.8648036303
 20
83.8978797788
 11
35.8648036303
 21
87.3978797705
  0
LINE
  5
2C9
100
AcDbEntity
  8
0
100
AcDbLine
 62
7
  6
BYLAYER
 10
35.8648036303
 20
93.3978793687
 11
35.8648036303
 21
93.597879357
  0
LINE
  5
2CA
100
AcDbEntity
  8
0
100
AcDbLine
 62
7
  6
BYLAYER
 10
35.8648036303
 20
83.017879357
 11
35.8648036303
 21
83.8978797788
  0
LINE
  5
2CB
100
AcDbEntity
  8
0
100
AcDbLine
 62
7
  6
BYLAYER
 10
35.8648036303
 20
87.3978797705
 11
35.8648036303
 21
93.3978793687
  0
LINE
  5
2CC
100
AcDbEntity
  8
0
100
AcDbLine
 62
7
  6
BYLAYER
 10
35.8961745584
 20
87.297879357
 11
35.8961475426
 21
85.477879357
  0
LINE
  5
2CD
100
AcDbEntity
  8
0
100
AcDbLine
 62
7
  6
BYLAYER
 10
35.9023683141
 20
87.297879357
 11
35.9023683141
 21
93.597879357
  0
LINE
  5
2CE
100
AcDbEntity
  8
0
100
AcDbLine
 62
7
  6
BYLAYER
 10
36.3523671728
 20
93.397879357
 11
36.3523671728
 21
87.3978797705
  0
LINE
  5
2CF
100
AcDbEntity
  8
0
100
AcDbLine
 62
7
  6
BYLAYER
 10
36.3523671171
 20
83.017879357
 11
36.3523671171
 21
83.8978797788
  0
LINE
  5
2D0
100
AcDbEntity
  8
0
100
AcDbLine
 62
7
  6
BYLAYER
 10
36.692368057
 20
62.041379357
 11
36.692368057
 21
56.9978797235
  0
LINE
  5
2D1
100
AcDbEntity
  8
0
100
AcDbLine
 62
7
  6
BYLAYER
 10
36.8225050661
 20
85.477879357
 11
36.8225050661
 21
87.297879357
  0
LINE
  5
2D2
100
AcDbEntity
  8
0
100
AcDbLine
 62
7
  6
BYLAYER
 10
36.9316582564
 20
87.297879357
 11
36.9316582564
 21
86.9978797515
  0
LINE
  5
2D3
100
AcDbEntity
  8
0
100
AcDbLine
 62
7
  6
BYLAYER
 10
36.9316582564
 20
85.4978797384
 11
36.9316582564
 21
85.477879357
  0
LINE
  5
2D4
100
AcDbEntity
  8
0
100
AcDbLine
 62
7
  6
BYLAYER
 10
37.2477987597
 20
85.477879357
 11
37.2477987597
 21
87.297879357
  0
LINE
  5
2D5
100
AcDbEntity
  8
0
100
AcDbLine
 62
7
  6
BYLAYER
 10
37.4023678409
 20
86.9978797515
 11
37.4023678409
 21
85.4978797384
  0
LINE
  5
2D6
100
AcDbEntity
  8
0
100
AcDbLine
 62
7
  6
BYLAYER
 10
37.5079596852
 20
85.477879357
 11
37.5079596852
 21
87.297879357
  0
LINE
  5
2D7
100
AcDbEntity
  8
0
100
AcDbLine
 62
7
  6
BYLAYER
 10
37.6523678819
 20
93.3978793801
 11
37.6523678819
 21
87.3978797705
  0
LINE
  5
2D8
100
AcDbEntity
  8
0
100
AcDbLine
 62
7
  6
BYLAYER
 10
37.702368057
 20
78.1978795703
 11
37.702368057
 21
67.3227008687
  0
LINE
  5
2D9
100
AcDbEntity
  8
0
100
AcDbLine
 62
7
  6
BYLAYER
 10
42.4066676076
 20
97.0510236809
 11
42.4023690011
 21
97.0285700842
  0
LINE
  5
2DA
100
AcDbEntity
  8
0
100
AcDbLine
 62
7
  6
BYLAYER
 10
59.302368057
 20
53.1978764125
 11
58.302368057
 21
53.1978764125
  0
LINE
  5
2DB
100
AcDbEntity
  8
0
100
AcDbLine
 62
7
  6
BYLAYER
 10
39.702368057
 20
53.1978764125
 11
40.702368057
 21
53.1978764125
  0
LINE
  5
2DC
100
AcDbEntity
  8
0
100
AcDbLine
 62
7
  6
BYLAYER
 10
48.502368057
 20
53.1978764125
 11
50.502368057
 21
53.1978764125
  0
LINE
  5
2DD
100
AcDbEntity
  8
0
100
AcDbLine
 62
7
  6
BYLAYER
 10
59.302368057
 20
53.5822179678
 11
58.302368057
 21
53.5822162903
  0
LINE
  5
2DE
100
AcDbEntity
  8
0
100
AcDbLine
 62
7
  6
BYLAYER
 10
40.702368057
 20
53.5822172223
 11
39.702368057
 21
53.5822181543
  0
LINE
  5
2DF
100
AcDbEntity
  8
0
100
AcDbLine
 62
7
  6
BYLAYER
 10
48.502368057
 20
53.5822146126
 11
50.502368057
 21
53.5822146126
  0
LINE
  5
2E0
100
AcDbEntity
  8
0
100
AcDbLine
 62
7
  6
BYLAYER
 10
40.702368057
 20
53.780266399
 11
48.502368057
 21
53.780266399
  0
LINE
  5
2E1
100
AcDbEntity
  8
0
100
AcDbLine
 62
7
  6
BYLAYER
 10
50.502368057
 20
53.780266399
 11
58.302368057
 21
53.780266399
  0
LINE
  5
2E2
100
AcDbEntity
  8
0
100
AcDbLine
 62
7
  6
BYLAYER
 10
39.702368057
 20
54.597879813
 11
59.302368057
 21
54.597879813
  0
LINE
  5
2E3
100
AcDbEntity
  8
0
100
AcDbLine
 62
7
  6
BYLAYER
 10
39.702368057
 20
54.6978799053
 11
59.302368057
 21
54.6978799053
  0
LINE
  5
2E4
100
AcDbEntity
  8
0
100
AcDbLine
 62
7
  6
BYLAYER
 10
37.7523681777
 20
83.8978797788
 11
37.7523681777
 21
78.510093104
  0
LINE
  5
2E5
100
AcDbEntity
  8
0
100
AcDbLine
 62
7
  6
BYLAYER
 10
37.902368057
 20
58.7744248717
 11
37.902368057
 21
66.9986183157
  0
LINE
  5
2E6
100
AcDbEntity
  8
0
100
AcDbLine
 62
7
  6
BYLAYER
 10
38.802368057
 20
66.9849011157
 11
38.802368057
 21
78.1978795703
  0
LINE
  5
2E7
100
AcDbEntity
  8
0
100
AcDbLine
 62
7
  6
BYLAYER
 10
38.8250306823
 20
85.477879357
 11
38.8250255357
 21
87.297879357
  0
LINE
  5
2E8
100
AcDbEntity
  8
0
100
AcDbLine
 62
7
  6
BYLAYER
 10
38.9377100747
 20
93.597879357
 11
38.9377100747
 21
93.3978793801
  0
LINE
  5
2E9
100
AcDbEntity
  8
0
100
AcDbLine
 62
7
  6
BYLAYER
 10
38.9377100747
 20
93.3978793801
 11
38.9377100747
 21
87.3978797705
  0
LINE
  5
2EA
100
AcDbEntity
  8
0
100
AcDbLine
 62
7
  6
BYLAYER
 10
38.9377100747
 20
83.8978797788
 11
38.9377100747
 21
83.017879357
  0
LINE
  5
2EB
100
AcDbEntity
  8
0
100
AcDbLine
 62
7
  6
BYLAYER
 10
38.9377100747
 20
87.3978797705
 11
38.9377100747
 21
83.8978797788
  0
LINE
  5
2EC
100
AcDbEntity
  8
0
100
AcDbLine
 62
7
  6
BYLAYER
 10
39.402368057
 20
111.227879357
 11
39.402368057
 21
111.7378680614
  0
LINE
  5
2ED
100
AcDbEntity
  8
0
100
AcDbLine
 62
7
  6
BYLAYER
 10
39.702368057
 20
56.9978793042
 11
39.702368057
 21
9.79787981
  0
LINE
  5
2EE
100
AcDbEntity
  8
0
100
AcDbLine
 62
7
  6
BYLAYER
 10
39.902368057
 20
100.037879313
 11
39.902368057
 21
103.487879357
  0
LINE
  5
2EF
100
AcDbEntity
  8
0
100
AcDbLine
 62
7
  6
BYLAYER
 10
40.1523678693
 20
93.397879357
 11
40.1523678693
 21
87.3978797705
  0
LINE
  5
2F0
100
AcDbEntity
  8
0
100
AcDbLine
 62
7
  6
BYLAYER
 10
40.1523678713
 20
83.017879357
 11
40.1523678713
 21
83.8978797788
  0
LINE
  5
2F1
100
AcDbEntity
  8
0
100
AcDbLine
 62
7
  6
BYLAYER
 10
40.702368057
 20
29.5978764125
 11
40.702368057
 21
33.3978801821
  0
LINE
  5
2F2
100
AcDbEntity
  8
0
100
AcDbLine
 62
7
  6
BYLAYER
 10
40.702368057
 20
53.1978764125
 11
40.702368057
 21
56.9978793834
  0
LINE
  5
2F3
100
AcDbEntity
  8
0
100
AcDbLine
 62
7
  6
BYLAYER
 10
40.802368057
 20
78.1978795703
 11
40.802368057
 21
66.9849011157
  0
LINE
  5
2F4
100
AcDbEntity
  8
0
100
AcDbLine
 62
7
  6
BYLAYER
 10
40.802368057
 20
54.597880033
 11
40.802368057
 21
43.3849011157
  0
LINE
  5
2F5
100
AcDbEntity
  8
0
100
AcDbLine
 62
7
  6
BYLAYER
 10
40.802368057
 20
30.9978809157
 11
40.802368057
 21
19.7849011157
  0
LINE
  5
2F6
100
AcDbEntity
  8
0
100
AcDbLine
 62
7
  6
BYLAYER
 10
40.902368057
 20
58.7744248717
 11
40.902368057
 21
66.9986183157
  0
LINE
  5
2F7
100
AcDbEntity
  8
0
100
AcDbLine
 62
7
  6
BYLAYER
 10
40.902368057
 20
111.227879357
 11
40.902368057
 21
111.5595914443
  0
LINE
  5
2F8
100
AcDbEntity
  8
0
100
AcDbLine
 62
7
  6
BYLAYER
 10
41.102368057
 20
11.5744246267
 11
41.102368057
 21
19.7986179605
  0
LINE
  5
2F9
100
AcDbEntity
  8
0
100
AcDbLine
 62
7
  6
BYLAYER
 10
41.102368057
 20
35.1744249304
 11
41.102368057
 21
43.3986184107
  0
LINE
  5
2FA
100
AcDbEntity
  8
0
100
AcDbLine
 62
7
  6
BYLAYER
 10
29.502368057
 20
56.9978797235
 11
59.302368057
 21
56.9978797235
  0
LINE
  5
2FB
100
AcDbEntity
  8
0
100
AcDbLine
 62
7
  6
BYLAYER
 10
41.8474345314
 20
76.1177449462
 11
41.6717154779
 21
78.0954724736
  0
LINE
  5
2FC
100
AcDbEntity
  8
0
100
AcDbLine
 62
7
  6
BYLAYER
 10
42.5989080393
 20
78.6157333971
 11
42.5919708975
 21
79.2155915754
  0
LINE
  5
2FD
100
AcDbEntity
  8
0
100
AcDbLine
 62
7
  6
BYLAYER
 10
42.6023710104
 20
78.3162885266
 11
42.5989080393
 21
78.6157333971
  0
LINE
  5
2FE
100
AcDbEntity
  8
0
100
AcDbLine
 62
7
  6
BYLAYER
 10
42.5479988215
 20
83.017879357
 11
42.4973457089
 21
87.3978797705
  0
LINE
  5
2FF
100
AcDbEntity
  8
0
100
AcDbLine
 62
7
  6
BYLAYER
 10
42.4279578944
 20
93.3978793801
 11
42.3973708504
 21
96.0427566406
  0
LINE
  5
300
100
AcDbEntity
  8
0
100
AcDbLine
 62
7
  6
BYLAYER
 10
42.4973457089
 20
87.3978797705
 11
42.4279578944
 21
93.3978793801
  0
LINE
  5
301
100
AcDbEntity
  8
0
100
AcDbLine
 62
7
  6
BYLAYER
 10
42.3973675872
 20
96.0437628573
 11
42.3973708504
 21
96.0427566406
  0
LINE
  5
302
100
AcDbEntity
  8
0
100
AcDbLine
 62
7
  6
BYLAYER
 10
41.4197906265
 20
93.597879357
 11
41.4197906265
 21
93.3978793801
  0
LINE
  5
303
100
AcDbEntity
  8
0
100
AcDbLine
 62
7
  6
BYLAYER
 10
41.4197906265
 20
93.3978793801
 11
41.4197906265
 21
87.3978797705
  0
LINE
  5
304
100
AcDbEntity
  8
0
100
AcDbLine
 62
7
  6
BYLAYER
 10
41.4197906265
 20
87.3978797705
 11
41.4197906265
 21
83.017879357
  0
LINE
  5
305
100
AcDbEntity
  8
0
100
AcDbLine
 62
7
  6
BYLAYER
 10
41.802368057
 20
20.1227008687
 11
41.802368057
 21
30.9978809521
  0
LINE
  5
306
100
AcDbEntity
  8
0
100
AcDbLine
 62
7
  6
BYLAYER
 10
41.802368057
 20
43.7227008687
 11
41.802368057
 21
54.5978800445
  0
LINE
  5
307
100
AcDbEntity
  8
0
100
AcDbLine
 62
7
  6
BYLAYER
 10
41.802368057
 20
67.3227008687
 11
41.802368057
 21
78.1978795703
  0
LINE
  5
308
100
AcDbEntity
  8
0
100
AcDbLine
 62
7
  6
BYLAYER
 10
42.2123353159
 20
80.2808690035
 11
42.2123353159
 21
83.017879357
  0
LINE
  5
309
100
AcDbEntity
  8
0
100
AcDbLine
 62
7
  6
BYLAYER
 10
42.312368057
 20
14.841379357
 11
42.312368057
 21
9.79787981
  0
LINE
  5
30A
100
AcDbEntity
  8
0
100
AcDbLine
 62
7
  6
BYLAYER
 10
43.402368057
 20
111.227879357
 11
43.402368057
 21
111.7464277802
  0
LINE
  5
30B
100
AcDbEntity
  8
0
100
AcDbLine
 62
7
  6
BYLAYER
 10
43.8978642872
 20
100.037879313
 11
43.8978642872
 21
103.487879357
  0
LINE
  5
30C
100
AcDbEntity
  8
0
100
AcDbLine
 62
7
  6
BYLAYER
 10
42.4023690011
 20
97.0285700842
 11
42.3973675872
 21
96.0437628573
  0
LINE
  5
30D
100
AcDbEntity
  8
0
100
AcDbLine
 62
7
  6
BYLAYER
 10
30.902368057
 20
58.7744248717
 11
37.902368057
 21
58.7744248717
  0
LINE
  5
30E
100
AcDbEntity
  8
0
100
AcDbLine
 62
7
  6
BYLAYER
 10
40.902368057
 20
58.7744248717
 11
47.902368057
 21
58.7744248717
  0
LINE
  5
30F
100
AcDbEntity
  8
0
100
AcDbLine
 62
7
  6
BYLAYER
 10
50.902368057
 20
58.7744248717
 11
57.902368057
 21
58.7744248717
  0
LINE
  5
310
100
AcDbEntity
  8
0
100
AcDbLine
 62
7
  6
BYLAYER
 10
59.302368057
 20
58.8658296705
 11
29.502368057
 21
58.8658296705
  0
LINE
  5
311
100
AcDbEntity
  8
0
100
AcDbLine
 62
7
  6
BYLAYER
 10
29.502368057
 20
59.312139953
 11
59.302368057
 21
59.312139953
  0
LINE
  5
312
100
AcDbEntity
  8
0
100
AcDbLine
 62
7
  6
BYLAYER
 10
30.902368057
 20
59.6978803583
 11
37.902368057
 21
59.6978803583
  0
LINE
  5
313
100
AcDbEntity
  8
0
100
AcDbLine
 62
7
  6
BYLAYER
 10
40.902368057
 20
59.6978803583
 11
47.902368057
 21
59.6978803583
  0
LINE
  5
314
100
AcDbEntity
  8
0
100
AcDbLine
 62
7
  6
BYLAYER
 10
50.902368057
 20
59.6978803583
 11
57.902368057
 21
59.6978803583
  0
LINE
  5
315
100
AcDbEntity
  8
0
100
AcDbLine
 62
7
  6
BYLAYER
 10
29.502368057
 20
61.1190957376
 11
30.902368057
 21
61.1190957376
  0
LINE
  5
316
100
AcDbEntity
  8
0
100
AcDbLine
 62
7
  6
BYLAYER
 10
37.902368057
 20
61.1190957376
 11
40.902368057
 21
61.1190957376
  0
LINE
  5
317
100
AcDbEntity
  8
0
100
AcDbLine
 62
7
  6
BYLAYER
 10
30.902368057
 20
61.1190957376
 11
37.902368057
 21
61.1190957376
  0
LINE
  5
318
100
AcDbEntity
  8
0
100
AcDbLine
 62
7
  6
BYLAYER
 10
47.902368057
 20
61.1190957376
 11
50.902368057
 21
61.1190957376
  0
LINE
  5
319
100
AcDbEntity
  8
0
100
AcDbLine
 62
7
  6
BYLAYER
 10
40.902368057
 20
61.1190957376
 11
47.902368057
 21
61.1190957376
  0
LINE
  5
31A
100
AcDbEntity
  8
0
100
AcDbLine
 62
7
  6
BYLAYER
 10
57.902368057
 20
61.1190957376
 11
59.302368057
 21
61.1190957376
  0
LINE
  5
31B
100
AcDbEntity
  8
0
100
AcDbLine
 62
7
  6
BYLAYER
 10
50.902368057
 20
61.1190957376
 11
57.902368057
 21
61.1190957376
  0
LINE
  5
31C
100
AcDbEntity
  8
0
100
AcDbLine
 62
7
  6
BYLAYER
 10
46.4023671128
 20
97.0285700842
 11
46.4073685267
 21
96.0437628573
  0
LINE
  5
31D
100
AcDbEntity
  8
0
100
AcDbLine
 62
7
  6
BYLAYER
 10
44.9068718267
 20
103.487879357
 11
44.9068718267
 21
100.037879313
  0
LINE
  5
31E
100
AcDbEntity
  8
0
100
AcDbLine
 62
7
  6
BYLAYER
 10
45.4023680601
 20
111.227879357
 11
45.4023680669
 21
111.7464292608
  0
LINE
  5
31F
100
AcDbEntity
  8
0
100
AcDbLine
 62
7
  6
BYLAYER
 10
46.592400798
 20
83.017879357
 11
46.592400798
 21
80.2808690035
  0
LINE
  5
320
100
AcDbEntity
  8
0
100
AcDbLine
 62
7
  6
BYLAYER
 10
46.892368057
 20
14.841379357
 11
46.892368057
 21
9.79787981
  0
LINE
  5
321
100
AcDbEntity
  8
0
100
AcDbLine
 62
7
  6
BYLAYER
 10
47.3849438435
 20
83.017879357
 11
47.3849438435
 21
87.3978797705
  0
LINE
  5
322
100
AcDbEntity
  8
0
100
AcDbLine
 62
7
  6
BYLAYER
 10
47.3849438435
 20
93.3978793801
 11
47.3849438435
 21
93.597879357
  0
LINE
  5
323
100
AcDbEntity
  8
0
100
AcDbLine
 62
7
  6
BYLAYER
 10
47.3849438435
 20
87.3978797705
 11
47.3849438435
 21
93.3978793801
  0
LINE
  5
324
100
AcDbEntity
  8
0
100
AcDbLine
 62
7
  6
BYLAYER
 10
47.502368057
 20
78.1978795703
 11
47.502368057
 21
67.3227008687
  0
LINE
  5
325
100
AcDbEntity
  8
0
100
AcDbLine
 62
7
  6
BYLAYER
 10
47.502368057
 20
54.5978800464
 11
47.502368057
 21
43.7227008687
  0
LINE
  5
326
100
AcDbEntity
  8
0
100
AcDbLine
 62
7
  6
BYLAYER
 10
47.502368057
 20
30.9978809582
 11
47.502368057
 21
20.1227008687
  0
LINE
  5
327
100
AcDbEntity
  8
0
100
AcDbLine
 62
7
  6
BYLAYER
 10
47.902368057
 20
58.7744248717
 11
47.902368057
 21
66.9986183157
  0
LINE
  5
328
100
AcDbEntity
  8
0
100
AcDbLine
 62
7
  6
BYLAYER
 10
47.902368057
 20
111.227879357
 11
47.902368057
 21
111.5595939871
  0
LINE
  5
329
100
AcDbEntity
  8
0
100
AcDbLine
 62
7
  6
BYLAYER
 10
48.102368057
 20
11.5744246267
 11
48.102368057
 21
19.7986179605
  0
LINE
  5
32A
100
AcDbEntity
  8
0
100
AcDbLine
 62
7
  6
BYLAYER
 10
48.102368057
 20
35.1744249304
 11
48.102368057
 21
43.3986184107
  0
LINE
  5
32B
100
AcDbEntity
  8
0
100
AcDbLine
 62
7
  6
BYLAYER
 10
46.4073685267
 20
96.0437628573
 11
46.4073652636
 21
96.0427566406
  0
LINE
  5
32C
100
AcDbEntity
  8
0
100
AcDbLine
 62
7
  6
BYLAYER
 10
46.2058279348
 20
78.6157213095
 11
46.2127652164
 21
79.2155915754
  0
LINE
  5
32D
100
AcDbEntity
  8
0
100
AcDbLine
 62
7
  6
BYLAYER
 10
46.2023651036
 20
78.3162885266
 11
46.2058279348
 21
78.6157213095
  0
LINE
  5
32E
100
AcDbEntity
  8
0
100
AcDbLine
 62
7
  6
BYLAYER
 10
46.2567372924
 20
83.017879357
 11
46.307390405
 21
87.3978797705
  0
LINE
  5
32F
100
AcDbEntity
  8
0
100
AcDbLine
 62
7
  6
BYLAYER
 10
46.3767782195
 20
93.3978793801
 11
46.4073652636
 21
96.0427566406
  0
LINE
  5
330
100
AcDbEntity
  8
0
100
AcDbLine
 62
7
  6
BYLAYER
 10
46.307390405
 20
87.3978797705
 11
46.3767782195
 21
93.3978793801
  0
LINE
  5
331
100
AcDbEntity
  8
0
100
AcDbLine
 62
7
  6
BYLAYER
 10
46.9573015825
 20
76.1177449462
 11
47.133020636
 21
78.0954724736
  0
LINE
  5
332
100
AcDbEntity
  8
0
100
AcDbLine
 62
7
  6
BYLAYER
 10
30.902368057
 20
63.2046749302
 11
37.902368057
 21
63.2046749302
  0
LINE
  5
333
100
AcDbEntity
  8
0
100
AcDbLine
 62
7
  6
BYLAYER
 10
40.902368057
 20
63.2046749302
 11
47.902368057
 21
63.2046749302
  0
LINE
  5
334
100
AcDbEntity
  8
0
100
AcDbLine
 62
7
  6
BYLAYER
 10
50.902368057
 20
63.2046749302
 11
57.902368057
 21
63.2046749302
  0
LINE
  5
335
100
AcDbEntity
  8
0
100
AcDbLine
 62
7
  6
BYLAYER
 10
30.902368057
 20
63.709854097
 11
37.902368057
 21
63.709854097
  0
LINE
  5
336
100
AcDbEntity
  8
0
100
AcDbLine
 62
7
  6
BYLAYER
 10
40.902368057
 20
63.709854097
 11
47.902368057
 21
63.709854097
  0
LINE
  5
337
100
AcDbEntity
  8
0
100
AcDbLine
 62
7
  6
BYLAYER
 10
50.902368057
 20
63.709854097
 11
57.902368057
 21
63.709854097
  0
LINE
  5
338
100
AcDbEntity
  8
0
100
AcDbLine
 62
7
  6
BYLAYER
 10
30.902368057
 20
63.8487724082
 11
37.902368057
 21
63.8487724082
  0
LINE
  5
339
100
AcDbEntity
  8
0
100
AcDbLine
 62
7
  6
BYLAYER
 10
40.902368057
 20
63.8487724082
 11
47.902368057
 21
63.8487724082
  0
LINE
  5
33A
100
AcDbEntity
  8
0
100
AcDbLine
 62
7
  6
BYLAYER
 10
50.902368057
 20
63.8487724082
 11
57.902368057
 21
63.8487724082
  0
LINE
  5
33B
100
AcDbEntity
  8
0
100
AcDbLine
 62
7
  6
BYLAYER
 10
30.902368057
 20
63.9519905158
 11
37.902368057
 21
63.9519905158
  0
LINE
  5
33C
100
AcDbEntity
  8
0
100
AcDbLine
 62
7
  6
BYLAYER
 10
40.902368057
 20
63.9519905158
 11
47.902368057
 21
63.9519905158
  0
LINE
  5
33D
100
AcDbEntity
  8
0
100
AcDbLine
 62
7
  6
BYLAYER
 10
50.902368057
 20
63.9519905158
 11
57.902368057
 21
63.9519905158
  0
LINE
  5
33E
100
AcDbEntity
  8
0
100
AcDbLine
 62
7
  6
BYLAYER
 10
30.902368057
 20
64.0909140416
 11
37.902368057
 21
64.0909140416
  0
LINE
  5
33F
100
AcDbEntity
  8
0
100
AcDbLine
 62
7
  6
BYLAYER
 10
40.902368057
 20
64.0909140416
 11
47.902368057
 21
64.0909140416
  0
LINE
  5
340
100
AcDbEntity
  8
0
100
AcDbLine
 62
7
  6
BYLAYER
 10
50.902368057
 20
64.0909140416
 11
57.902368057
 21
64.0909140416
  0
LINE
  5
341
100
AcDbEntity
  8
0
100
AcDbLine
 62
7
  6
BYLAYER
 10
30.902368057
 20
64.2014194367
 11
37.902368057
 21
64.2014194367
  0
LINE
  5
342
100
AcDbEntity
  8
0
100
AcDbLine
 62
7
  6
BYLAYER
 10
40.902368057
 20
64.2014194367
 11
47.902368057
 21
64.2014194367
  0
LINE
  5
343
100
AcDbEntity
  8
0
100
AcDbLine
 62
7
  6
BYLAYER
 10
50.902368057
 20
64.2014194367
 11
57.902368057
 21
64.2014194367
  0
LINE
  5
344
100
AcDbEntity
  8
0
100
AcDbLine
 62
7
  6
BYLAYER
 10
30.902368057
 20
64.3513863393
 11
37.902368057
 21
64.3513863393
  0
LINE
  5
345
100
AcDbEntity
  8
0
100
AcDbLine
 62
7
  6
BYLAYER
 10
40.902368057
 20
64.3513863393
 11
47.902368057
 21
64.3513863393
  0
LINE
  5
346
100
AcDbEntity
  8
0
100
AcDbLine
 62
7
  6
BYLAYER
 10
50.902368057
 20
64.3513863393
 11
57.902368057
 21
64.3513863393
  0
LINE
  5
347
100
AcDbEntity
  8
0
100
AcDbLine
 62
7
  6
BYLAYER
 10
57.902368057
 20
64.59589768
 11
50.902368057
 21
64.59589768
  0
LINE
  5
348
100
AcDbEntity
  8
0
100
AcDbLine
 62
7
  6
BYLAYER
 10
47.902368057
 20
64.59589768
 11
40.902368057
 21
64.59589768
  0
LINE
  5
349
100
AcDbEntity
  8
0
100
AcDbLine
 62
7
  6
BYLAYER
 10
37.902368057
 20
64.59589768
 11
30.902368057
 21
64.59589768
  0
LINE
  5
34A
100
AcDbEntity
  8
0
100
AcDbLine
 62
7
  6
BYLAYER
 10
30.902368057
 20
64.9339491617
 11
37.902368057
 21
64.9339491617
  0
LINE
  5
34B
100
AcDbEntity
  8
0
100
AcDbLine
 62
7
  6
BYLAYER
 10
40.902368057
 20
64.9339491617
 11
47.902368057
 21
64.9339491617
  0
LINE
  5
34C
100
AcDbEntity
  8
0
100
AcDbLine
 62
7
  6
BYLAYER
 10
50.902368057
 20
64.9339491617
 11
57.902368057
 21
64.9339491617
  0
LINE
  5
34D
100
AcDbEntity
  8
0
100
AcDbLine
 62
7
  6
BYLAYER
 10
30.902368057
 20
64.0827343705
 11
37.902368057
 21
64.0823777345
  0
LINE
  5
34E
100
AcDbEntity
  8
0
100
AcDbLine
 62
7
  6
BYLAYER
 10
40.902368057
 20
64.0827343705
 11
47.902368057
 21
64.0823777345
  0
LINE
  5
34F
100
AcDbEntity
  8
0
100
AcDbLine
 62
7
  6
BYLAYER
 10
50.902368057
 20
64.0827343705
 11
57.902368057
 21
64.0823777345
  0
LINE
  5
350
100
AcDbEntity
  8
0
100
AcDbLine
 62
7
  6
BYLAYER
 10
48.502368057
 20
29.5978764125
 11
48.502368057
 21
33.3978801771
  0
LINE
  5
351
100
AcDbEntity
  8
0
100
AcDbLine
 62
7
  6
BYLAYER
 10
48.502368057
 20
53.1978764125
 11
48.502368057
 21
56.9978793604
  0
LINE
  5
352
100
AcDbEntity
  8
0
100
AcDbLine
 62
7
  6
BYLAYER
 10
48.602368057
 20
19.7849011157
 11
48.602368057
 21
30.9978809582
  0
LINE
  5
353
100
AcDbEntity
  8
0
100
AcDbLine
 62
7
  6
BYLAYER
 10
48.602368057
 20
43.3849011157
 11
48.602368057
 21
54.5978800464
  0
LINE
  5
354
100
AcDbEntity
  8
0
100
AcDbLine
 62
7
  6
BYLAYER
 10
48.602368057
 20
66.9849011157
 11
48.602368057
 21
78.1978795703
  0
LINE
  5
355
100
AcDbEntity
  8
0
100
AcDbLine
 62
7
  6
BYLAYER
 10
48.6523682879
 20
93.397879357
 11
48.6523682879
 21
87.3978797705
  0
LINE
  5
356
100
AcDbEntity
  8
0
100
AcDbLine
 62
7
  6
BYLAYER
 10
48.6523682879
 20
83.017879357
 11
48.6523682879
 21
83.8978797788
  0
LINE
  5
357
100
AcDbEntity
  8
0
100
AcDbLine
 62
7
  6
BYLAYER
 10
48.902368057
 20
103.487879357
 11
48.902368057
 21
100.037879313
  0
LINE
  5
358
100
AcDbEntity
  8
0
100
AcDbLine
 62
7
  6
BYLAYER
 10
49.402368057
 20
111.227879357
 11
49.402368057
 21
111.7378680614
  0
LINE
  5
359
100
AcDbEntity
  8
0
100
AcDbLine
 62
7
  6
BYLAYER
 10
49.8670260393
 20
93.597879357
 11
49.8670260393
 21
93.3978793801
  0
LINE
  5
35A
100
AcDbEntity
  8
0
100
AcDbLine
 62
7
  6
BYLAYER
 10
49.8670260393
 20
93.3978793801
 11
49.8670260393
 21
87.3978797705
  0
LINE
  5
35B
100
AcDbEntity
  8
0
100
AcDbLine
 62
7
  6
BYLAYER
 10
49.8670260393
 20
83.8978797788
 11
49.8670260393
 21
83.017879357
  0
LINE
  5
35C
100
AcDbEntity
  8
0
100
AcDbLine
 62
7
  6
BYLAYER
 10
49.8670260393
 20
87.3978797705
 11
49.8670260393
 21
83.8978797788
  0
LINE
  5
35D
100
AcDbEntity
  8
0
100
AcDbLine
 62
7
  6
BYLAYER
 10
50.502368057
 20
29.5978764125
 11
50.502368057
 21
33.3978801771
  0
LINE
  5
35E
100
AcDbEntity
  8
0
100
AcDbLine
 62
7
  6
BYLAYER
 10
50.502368057
 20
53.1978764125
 11
50.502368057
 21
56.9978793568
  0
LINE
  5
35F
100
AcDbEntity
  8
0
100
AcDbLine
 62
7
  6
BYLAYER
 10
50.5523678543
 20
80.5978796803
 11
50.5523678543
 21
87.297879357
  0
LINE
  5
360
100
AcDbEntity
  8
0
100
AcDbLine
 62
7
  6
BYLAYER
 10
50.602368057
 20
78.1978795703
 11
50.602368057
 21
66.9849011157
  0
LINE
  5
361
100
AcDbEntity
  8
0
100
AcDbLine
 62
7
  6
BYLAYER
 10
50.602368057
 20
54.5978800464
 11
50.602368057
 21
43.3849011158
  0
LINE
  5
362
100
AcDbEntity
  8
0
100
AcDbLine
 62
7
  6
BYLAYER
 10
50.602368057
 20
30.9978809582
 11
50.602368057
 21
19.7849011157
  0
LINE
  5
363
100
AcDbEntity
  8
0
100
AcDbLine
 62
7
  6
BYLAYER
 10
50.902368057
 20
11.5744246267
 11
50.902368057
 21
19.7986179605
  0
LINE
  5
364
100
AcDbEntity
  8
0
100
AcDbLine
 62
7
  6
BYLAYER
 10
50.902368057
 20
35.1744249304
 11
50.902368057
 21
43.3986184107
  0
LINE
  5
365
100
AcDbEntity
  8
0
100
AcDbLine
 62
7
  6
BYLAYER
 10
50.902368057
 20
58.7744248717
 11
50.902368057
 21
66.9986183157
  0
LINE
  5
366
100
AcDbEntity
  8
0
100
AcDbLine
 62
7
  6
BYLAYER
 10
51.0523679363
 20
83.8978797788
 11
51.0523679363
 21
79.0874433705
  0
LINE
  5
367
100
AcDbEntity
  8
0
100
AcDbLine
 62
7
  6
BYLAYER
 10
51.1339181138
 20
87.3978797705
 11
51.1339181138
 21
93.3978793801
  0
LINE
  5
368
100
AcDbEntity
  8
0
100
AcDbLine
 62
7
  6
BYLAYER
 10
51.1533095651
 20
87.3978797705
 11
51.1533095651
 21
93.3978793708
  0
LINE
  5
369
100
AcDbEntity
  8
0
100
AcDbLine
 62
7
  6
BYLAYER
 10
51.4023678401
 20
87.297879357
 11
51.4023687441
 21
93.597879357
  0
LINE
  5
36A
100
AcDbEntity
  8
0
100
AcDbLine
 62
7
  6
BYLAYER
 10
51.552367844
 20
87.297879357
 11
51.5523678373
 21
80.5978796803
  0
LINE
  5
36B
100
AcDbEntity
  8
0
100
AcDbLine
 62
7
  6
BYLAYER
 10
51.602368057
 20
20.1227008687
 11
51.602368057
 21
30.9978809582
  0
LINE
  5
36C
100
AcDbEntity
  8
0
100
AcDbLine
 62
7
  6
BYLAYER
 10
51.602368057
 20
43.7227008687
 11
51.602368057
 21
54.5978800464
  0
LINE
  5
36D
100
AcDbEntity
  8
0
100
AcDbLine
 62
7
  6
BYLAYER
 10
51.602368057
 20
67.3227008687
 11
51.602368057
 21
78.1978795703
  0
LINE
  5
36E
100
AcDbEntity
  8
0
100
AcDbLine
 62
7
  6
BYLAYER
 10
30.902368057
 20
65.727501125
 11
37.902368057
 21
65.727501125
  0
LINE
  5
36F
100
AcDbEntity
  8
0
100
AcDbLine
 62
7
  6
BYLAYER
 10
40.902368057
 20
65.727501125
 11
47.902368057
 21
65.727501125
  0
LINE
  5
370
100
AcDbEntity
  8
0
100
AcDbLine
 62
7
  6
BYLAYER
 10
50.902368057
 20
65.727501125
 11
57.902368057
 21
65.727501125
  0
LINE
  5
371
100
AcDbEntity
  8
0
100
AcDbLine
 62
7
  6
BYLAYER
 10
30.902368057
 20
65.7765021706
 11
37.902368057
 21
65.7765021706
  0
LINE
  5
372
100
AcDbEntity
  8
0
100
AcDbLine
 62
7
  6
BYLAYER
 10
40.902368057
 20
65.7765021706
 11
47.902368057
 21
65.7765021706
  0
LINE
  5
373
100
AcDbEntity
  8
0
100
AcDbLine
 62
7
  6
BYLAYER
 10
50.902368057
 20
65.7765021706
 11
57.902368057
 21
65.7765021706
  0
LINE
  5
374
100
AcDbEntity
  8
0
100
AcDbLine
 62
7
  6
BYLAYER
 10
30.902368057
 20
65.8199106761
 11
37.902368057
 21
65.8199106761
  0
LINE
  5
375
100
AcDbEntity
  8
0
100
AcDbLine
 62
7
  6
BYLAYER
 10
40.902368057
 20
65.8199106761
 11
47.902368057
 21
65.8199106761
  0
LINE
  5
376
100
AcDbEntity
  8
0
100
AcDbLine
 62
7
  6
BYLAYER
 10
50.902368057
 20
65.8199106761
 11
57.902368057
 21
65.8199106761
  0
LINE
  5
377
100
AcDbEntity
  8
0
100
AcDbLine
 62
7
  6
BYLAYER
 10
30.902368057
 20
65.9415861078
 11
37.902368057
 21
65.9415861078
  0
LINE
  5
378
100
AcDbEntity
  8
0
100
AcDbLine
 62
7
  6
BYLAYER
 10
40.902368057
 20
65.9415861078
 11
47.902368057
 21
65.9415861078
  0
LINE
  5
379
100
AcDbEntity
  8
0
100
AcDbLine
 62
7
  6
BYLAYER
 10
50.902368057
 20
65.9415861078
 11
57.902368057
 21
65.9415861078
  0
LINE
  5
37A
100
AcDbEntity
  8
0
100
AcDbLine
 62
7
  6
BYLAYER
 10
57.902368057
 20
65.9792934963
 11
50.902368057
 21
65.9792934963
  0
LINE
  5
37B
100
AcDbEntity
  8
0
100
AcDbLine
 62
7
  6
BYLAYER
 10
47.902368057
 20
65.9792934963
 11
40.902368057
 21
65.9792934963
  0
LINE
  5
37C
100
AcDbEntity
  8
0
100
AcDbLine
 62
7
  6
BYLAYER
 10
37.902368057
 20
65.9792934963
 11
30.902368057
 21
65.9792934963
  0
LINE
  5
37D
100
AcDbEntity
  8
0
100
AcDbLine
 62
7
  6
BYLAYER
 10
30.902368057
 20
65.9936805674
 11
37.902368057
 21
65.9936805674
  0
LINE
  5
37E
100
AcDbEntity
  8
0
100
AcDbLine
 62
7
  6
BYLAYER
 10
40.902368057
 20
65.9936805674
 11
47.902368057
 21
65.9936805674
  0
LINE
  5
37F
100
AcDbEntity
  8
0
100
AcDbLine
 62
7
  6
BYLAYER
 10
50.902368057
 20
65.9936805674
 11
57.902368057
 21
65.9936805674
  0
LINE
  5
380
100
AcDbEntity
  8
0
100
AcDbLine
 62
7
  6
BYLAYER
 10
30.902368057
 20
66.486089439
 11
37.902368057
 21
66.486089439
  0
LINE
  5
381
100
AcDbEntity
  8
0
100
AcDbLine
 62
7
  6
BYLAYER
 10
40.902368057
 20
66.486089439
 11
47.902368057
 21
66.486089439
  0
LINE
  5
382
100
AcDbEntity
  8
0
100
AcDbLine
 62
7
  6
BYLAYER
 10
50.902368057
 20
66.486089439
 11
57.902368057
 21
66.486089439
  0
LINE
  5
383
100
AcDbEntity
  8
0
100
AcDbLine
 62
7
  6
BYLAYER
 10
30.902368057
 20
66.5124942966
 11
37.902368057
 21
66.5124942966
  0
LINE
  5
384
100
AcDbEntity
  8
0
100
AcDbLine
 62
7
  6
BYLAYER
 10
40.902368057
 20
66.5124942966
 11
47.902368057
 21
66.5124942966
  0
LINE
  5
385
100
AcDbEntity
  8
0
100
AcDbLine
 62
7
  6
BYLAYER
 10
50.902368057
 20
66.5124942966
 11
57.902368057
 21
66.5124942966
  0
LINE
  5
386
100
AcDbEntity
  8
0
100
AcDbLine
 62
7
  6
BYLAYER
 10
57.902368057
 20
66.5859873436
 11
50.902368057
 21
66.5859873436
  0
LINE
  5
387
100
AcDbEntity
  8
0
100
AcDbLine
 62
7
  6
BYLAYER
 10
47.902368057
 20
66.5859873436
 11
40.902368057
 21
66.5859873436
  0
LINE
  5
388
100
AcDbEntity
  8
0
100
AcDbLine
 62
7
  6
BYLAYER
 10
37.902368057
 20
66.5859873436
 11
30.902368057
 21
66.5859873436
  0
LINE
  5
389
100
AcDbEntity
  8
0
100
AcDbLine
 62
7
  6
BYLAYER
 10
30.902368057
 20
66.7094578453
 11
37.902368057
 21
66.7094578453
  0
LINE
  5
38A
100
AcDbEntity
  8
0
100
AcDbLine
 62
7
  6
BYLAYER
 10
40.902368057
 20
66.7094578453
 11
47.902368057
 21
66.7094578453
  0
LINE
  5
38B
100
AcDbEntity
  8
0
100
AcDbLine
 62
7
  6
BYLAYER
 10
50.902368057
 20
66.7094578453
 11
57.902368057
 21
66.7094578453
  0
LINE
  5
38C
100
AcDbEntity
  8
0
100
AcDbLine
 62
7
  6
BYLAYER
 10
30.902368057
 20
66.7294328519
 11
37.902368057
 21
66.7294328519
  0
LINE
  5
38D
100
AcDbEntity
  8
0
100
AcDbLine
 62
7
  6
BYLAYER
 10
40.902368057
 20
66.7294328519
 11
47.902368057
 21
66.7294328519
  0
LINE
  5
38E
100
AcDbEntity
  8
0
100
AcDbLine
 62
7
  6
BYLAYER
 10
50.902368057
 20
66.7294328519
 11
57.902368057
 21
66.7294328519
  0
LINE
  5
38F
100
AcDbEntity
  8
0
100
AcDbLine
 62
7
  6
BYLAYER
 10
30.902368057
 20
66.8771555134
 11
37.902368057
 21
66.8771555134
  0
LINE
  5
390
100
AcDbEntity
  8
0
100
AcDbLine
 62
7
  6
BYLAYER
 10
40.902368057
 20
66.8771555134
 11
47.902368057
 21
66.8771555134
  0
LINE
  5
391
100
AcDbEntity
  8
0
100
AcDbLine
 62
7
  6
BYLAYER
 10
50.902368057
 20
66.8771555134
 11
57.902368057
 21
66.8771555134
  0
LINE
  5
392
100
AcDbEntity
  8
0
100
AcDbLine
 62
7
  6
BYLAYER
 10
29.502368057
 20
66.9849024513
 11
30.902368057
 21
66.9849024513
  0
LINE
  5
393
100
AcDbEntity
  8
0
100
AcDbLine
 62
7
  6
BYLAYER
 10
30.902368057
 20
66.9849024513
 11
31.002368057
 21
66.9849011157
  0
LINE
  5
394
100
AcDbEntity
  8
0
100
AcDbLine
 62
7
  6
BYLAYER
 10
37.902368057
 20
66.9849024513
 11
40.902368057
 21
66.9849024513
  0
LINE
  5
395
100
AcDbEntity
  8
0
100
AcDbLine
 62
7
  6
BYLAYER
 10
47.902368057
 20
66.9849024513
 11
50.902368057
 21
66.9849024513
  0
LINE
  5
396
100
AcDbEntity
  8
0
100
AcDbLine
 62
7
  6
BYLAYER
 10
57.902368057
 20
66.9849024513
 11
59.302368057
 21
66.9849024513
  0
LINE
  5
397
100
AcDbEntity
  8
0
100
AcDbLine
 62
7
  6
BYLAYER
 10
57.902368057
 20
66.9986183157
 11
50.902368057
 21
66.9986183157
  0
LINE
  5
398
100
AcDbEntity
  8
0
100
AcDbLine
 62
7
  6
BYLAYER
 10
47.902368057
 20
66.9986183157
 11
40.902368057
 21
66.9986183157
  0
LINE
  5
399
100
AcDbEntity
  8
0
100
AcDbLine
 62
7
  6
BYLAYER
 10
37.902368057
 20
66.9986183157
 11
30.902368057
 21
66.9986183157
  0
LINE
  5
39A
100
AcDbEntity
  8
0
100
AcDbLine
 62
7
  6
BYLAYER
 10
57.302368057
 20
67.3227008687
 11
51.602368057
 21
67.3227008687
  0
LINE
  5
39B
100
AcDbEntity
  8
0
100
AcDbLine
 62
7
  6
BYLAYER
 10
47.502368057
 20
67.3227008687
 11
41.802368057
 21
67.3227008687
  0
LINE
  5
39C
100
AcDbEntity
  8
0
100
AcDbLine
 62
7
  6
BYLAYER
 10
37.702368057
 20
67.3227008687
 11
32.002368057
 21
67.3227008687
  0
LINE
  5
39D
100
AcDbEntity
  8
0
100
AcDbLine
 62
7
  6
BYLAYER
 10
52.112368057
 20
14.841379357
 11
52.112368057
 21
9.79787981
  0
LINE
  5
39E
100
AcDbEntity
  8
0
100
AcDbLine
 62
7
  6
BYLAYER
 10
52.4523672373
 20
87.3978797705
 11
52.4523672373
 21
93.397879357
  0
LINE
  5
39F
100
AcDbEntity
  8
0
100
AcDbLine
 62
7
  6
BYLAYER
 10
52.4523672969
 20
83.8978797788
 11
52.4523672969
 21
83.017879357
  0
LINE
  5
3A0
100
AcDbEntity
  8
0
100
AcDbLine
 62
7
  6
BYLAYER
 10
52.9399324836
 20
93.597879357
 11
52.9399324836
 21
93.3978793687
  0
LINE
  5
3A1
100
AcDbEntity
  8
0
100
AcDbLine
 62
7
  6
BYLAYER
 10
52.9399324836
 20
93.3978793687
 11
52.9399324836
 21
87.3978797705
  0
LINE
  5
3A2
100
AcDbEntity
  8
0
100
AcDbLine
 62
7
  6
BYLAYER
 10
52.9399324836
 20
83.8978797788
 11
52.9399324836
 21
83.017879357
  0
LINE
  5
3A3
100
AcDbEntity
  8
0
100
AcDbLine
 62
7
  6
BYLAYER
 10
52.9399324836
 20
87.3978797705
 11
52.9399324836
 21
83.8978797788
  0
LINE
  5
3A4
100
AcDbEntity
  8
0
100
AcDbLine
 62
7
  6
BYLAYER
 10
53.0523682641
 20
78.2214185084
 11
53.0523682641
 21
83.8978797788
  0
LINE
  5
3A5
100
AcDbEntity
  8
0
100
AcDbLine
 62
7
  6
BYLAYER
 10
54.5023676636
 20
96.777879329
 11
54.5023676636
 21
93.597879357
  0
LINE
  5
3A6
100
AcDbEntity
  8
0
100
AcDbLine
 62
7
  6
BYLAYER
 10
54.5299646141
 20
111.2778793567
 11
54.5299646141
 21
103.977879357
  0
LINE
  5
3A7
100
AcDbEntity
  8
0
100
AcDbLine
 62
7
  6
BYLAYER
 10
54.6458575321
 20
103.977879357
 11
54.6458575321
 21
111.2778793356
  0
LINE
  5
3A8
100
AcDbEntity
  8
0
100
AcDbLine
 62
7
  6
BYLAYER
 10
54.6526136407
 20
103.977879357
 11
54.6526136407
 21
111.2778793533
  0
LINE
  5
3A9
100
AcDbEntity
  8
0
100
AcDbLine
 62
7
  6
BYLAYER
 10
54.8023673262
 20
111.2778793193
 11
54.8023673262
 21
103.487879357
  0
LINE
  5
3AA
100
AcDbEntity
  8
0
100
AcDbLine
 62
7
  6
BYLAYER
 10
55.277367744
 20
98.787879357
 11
55.277367744
 21
97.0778787948
  0
LINE
  5
3AB
100
AcDbEntity
  8
0
100
AcDbLine
 62
7
  6
BYLAYER
 10
55.5673686383
 20
87.3978797705
 11
55.5673686383
 21
93.397879357
  0
LINE
  5
3AC
100
AcDbEntity
  8
0
100
AcDbLine
 62
7
  6
BYLAYER
 10
55.5673696614
 20
83.017879357
 11
55.5673696614
 21
83.8978797788
  0
LINE
  5
3AD
100
AcDbEntity
  8
0
100
AcDbLine
 62
7
  6
BYLAYER
 10
46.8785885735
 20
76.2340807327
 11
46.9573015845
 21
76.1177449687
  0
LINE
  5
3AE
100
AcDbEntity
  8
0
100
AcDbLine
 62
7
  6
BYLAYER
 10
46.3980685063
 20
97.0510236809
 11
46.4023671128
 21
97.0285700842
  0
LINE
  5
3AF
100
AcDbEntity
  8
0
100
AcDbLine
 62
7
  6
BYLAYER
 10
57.0615431156
 20
111.6469191955
 11
57.0711761821
 21
111.2778802746
  0
LINE
  5
3B0
100
AcDbEntity
  8
0
100
AcDbLine
 62
7
  6
BYLAYER
 10
55.7273674307
 20
93.597879357
 11
55.7273674352
 21
93.3978793655
  0
LINE
  5
3B1
100
AcDbEntity
  8
0
100
AcDbLine
 62
7
  6
BYLAYER
 10
55.7273674352
 20
93.3978793655
 11
55.7273675714
 21
87.3978797705
  0
LINE
  5
3B2
100
AcDbEntity
  8
0
100
AcDbLine
 62
7
  6
BYLAYER
 10
55.7273676508
 20
83.897879777
 11
55.7273675508
 21
83.017879357
  0
LINE
  5
3B3
100
AcDbEntity
  8
0
100
AcDbLine
 62
7
  6
BYLAYER
 10
55.7273675714
 20
87.3978797705
 11
55.7273676508
 21
83.897879777
  0
LINE
  5
3B4
100
AcDbEntity
  8
0
100
AcDbLine
 62
7
  6
BYLAYER
 10
56.2380490633
 20
87.297879357
 11
56.2380490633
 21
93.597879357
  0
LINE
  5
3B5
100
AcDbEntity
  8
0
100
AcDbLine
 62
7
  6
BYLAYER
 10
56.5273680571
 20
93.397879357
 11
56.5273680571
 21
93.597879357
  0
LINE
  5
3B6
100
AcDbEntity
  8
0
100
AcDbLine
 62
7
  6
BYLAYER
 10
56.5273680571
 20
87.3978797644
 11
56.5273680571
 21
93.397879357
  0
LINE
  5
3B7
100
AcDbEntity
  8
0
100
AcDbLine
 62
7
  6
BYLAYER
 10
56.5273692192
 20
84.1841072085
 11
56.5273684146
 21
83.017879357
  0
LINE
  5
3B8
100
AcDbEntity
  8
0
100
AcDbLine
 62
7
  6
BYLAYER
 10
56.5273692192
 20
84.1841072085
 11
56.5273680571
 21
87.3978797644
  0
LINE
  5
3B9
100
AcDbEntity
  8
0
100
AcDbLine
 62
7
  6
BYLAYER
 10
56.5673677878
 20
93.397879357
 11
56.5673677878
 21
87.297879357
  0
LINE
  5
3BA
100
AcDbEntity
  8
0
100
AcDbLine
 62
7
  6
BYLAYER
 10
56.5673677878
 20
84.9921812942
 11
56.567368057
 21
84.222570214
  0
LINE
  5
3BB
100
AcDbEntity
  8
0
100
AcDbLine
 62
7
  6
BYLAYER
 10
56.567368057
 20
84.222570214
 11
56.5673678551
 21
83.017879357
  0
LINE
  5
3BC
100
AcDbEntity
  8
0
100
AcDbLine
 62
7
  6
BYLAYER
 10
56.692368057
 20
14.841379357
 11
56.692368057
 21
9.79787981
  0
LINE
  5
3BD
100
AcDbEntity
  8
0
100
AcDbLine
 62
7
  6
BYLAYER
 10
56.9059874428
 20
111.2778795268
 11
56.9059874428
 21
103.977879357
  0
LINE
  5
3BE
100
AcDbEntity
  8
0
100
AcDbLine
 62
7
  6
BYLAYER
 10
57.0970407618
 20
103.977879357
 11
57.0970705407
 21
111.2778795211
  0
LINE
  5
3BF
100
AcDbEntity
  8
0
100
AcDbLine
 62
7
  6
BYLAYER
 10
57.1023679035
 20
111.2778796005
 11
57.1023679035
 21
103.977879357
  0
LINE
  5
3C0
100
AcDbEntity
  8
0
100
AcDbLine
 62
7
  6
BYLAYER
 10
57.302368057
 20
78.1978795705
 11
57.302368057
 21
67.3227008687
  0
LINE
  5
3C1
100
AcDbEntity
  8
0
100
AcDbLine
 62
7
  6
BYLAYER
 10
57.302368057
 20
54.5978800445
 11
57.302368057
 21
43.7227008687
  0
LINE
  5
3C2
100
AcDbEntity
  8
0
100
AcDbLine
 62
7
  6
BYLAYER
 10
57.302368057
 20
30.9978809521
 11
57.302368057
 21
20.1227008687
  0
LINE
  5
3C3
100
AcDbEntity
  8
0
100
AcDbLine
 62
7
  6
BYLAYER
 10
57.6056099193
 20
111.2778793533
 11
57.6056099193
 21
103.977879357
  0
LINE
  5
3C4
100
AcDbEntity
  8
0
100
AcDbLine
 62
7
  6
BYLAYER
 10
57.902368057
 20
11.5744246267
 11
57.902368057
 21
19.7986179605
  0
LINE
  5
3C5
100
AcDbEntity
  8
0
100
AcDbLine
 62
7
  6
BYLAYER
 10
57.902368057
 20
35.1744249304
 11
57.902368057
 21
43.3986184107
  0
LINE
  5
3C6
100
AcDbEntity
  8
0
100
AcDbLine
 62
7
  6
BYLAYER
 10
57.902368057
 20
58.7744248717
 11
57.902368057
 21
66.9986183157
  0
LINE
  5
3C7
100
AcDbEntity
  8
0
100
AcDbLine
 62
7
  6
BYLAYER
 10
57.9257087269
 20
103.487879357
 11
57.9257087269
 21
100.037879313
  0
LINE
  5
3C8
100
AcDbEntity
  8
0
100
AcDbLine
 62
7
  6
BYLAYER
 10
57.982368057
 20
98.787879357
 11
57.982368057
 21
100.037879313
  0
LINE
  5
3C9
100
AcDbEntity
  8
0
100
AcDbLine
 62
7
  6
BYLAYER
 10
58.302368057
 20
29.5978764125
 11
58.302368057
 21
33.3978801821
  0
LINE
  5
3CA
100
AcDbEntity
  8
0
100
AcDbLine
 62
7
  6
BYLAYER
 10
58.302368057
 20
53.1978764125
 11
58.302368057
 21
56.9978793604
  0
LINE
  5
3CB
100
AcDbEntity
  8
0
100
AcDbLine
 62
7
  6
BYLAYER
 10
58.3523676427
 20
103.487879357
 11
58.3523676427
 21
100.037879313
  0
LINE
  5
3CC
100
AcDbEntity
  8
0
100
AcDbLine
 62
7
  6
BYLAYER
 10
58.402368057
 20
19.7849011157
 11
58.402368057
 21
30.9978809157
  0
LINE
  5
3CD
100
AcDbEntity
  8
0
100
AcDbLine
 62
7
  6
BYLAYER
 10
58.402368057
 20
43.3849011157
 11
58.402368057
 21
54.597880033
  0
LINE
  5
3CE
100
AcDbEntity
  8
0
100
AcDbLine
 62
7
  6
BYLAYER
 10
58.402368057
 20
66.9849011157
 11
58.402368057
 21
78.1978795721
  0
LINE
  5
3CF
100
AcDbEntity
  8
0
100
AcDbLine
 62
7
  6
BYLAYER
 10
59.067368096
 20
87.297879357
 11
59.0673680403
 21
93.3978793616
  0
LINE
  5
3D0
100
AcDbEntity
  8
0
100
AcDbLine
 62
7
  6
BYLAYER
 10
47.133020636
 20
78.0954724729
 11
47.04793048
 21
78.2204645534
  0
LINE
  5
3D1
100
AcDbEntity
  8
0
100
AcDbLine
 62
7
  6
BYLAYER
 10
45.9989285276
 20
98.1063608468
 11
46.3980685063
 21
97.0510236809
  0
LINE
  5
3D2
100
AcDbEntity
  8
0
100
AcDbLine
 62
7
  6
BYLAYER
 10
59.0869805558
 20
110.9804976543
 11
59.1523681456
 21
103.4878793571
  0
LINE
  5
3D3
100
AcDbEntity
  8
0
100
AcDbLine
 62
7
  6
BYLAYER
 10
59.302368057
 20
9.79787981
 11
59.302368057
 21
87.297879357
  0
LINE
  5
3D4
100
AcDbEntity
  8
0
100
AcDbLine
 62
7
  6
BYLAYER
 10
29.502368057
 20
77.5978801199
 11
41.7159260459
 21
77.5978801199
  0
LINE
  5
3D5
100
AcDbEntity
  8
0
100
AcDbLine
 62
7
  6
BYLAYER
 10
41.7159260459
 20
77.5978801199
 11
47.088810068
 21
77.5978801199
  0
LINE
  5
3D6
100
AcDbEntity
  8
0
100
AcDbLine
 62
7
  6
BYLAYER
 10
47.088810068
 20
77.5978801199
 11
59.302368057
 21
77.5978801199
  0
LINE
  5
3D7
100
AcDbEntity
  8
0
100
AcDbLine
 62
7
  6
BYLAYER
 10
44.7132614111
 20
77.8806116697
 11
44.0914747036
 21
77.8806116697
  0
LINE
  5
3D8
100
AcDbEntity
  8
0
100
AcDbLine
 62
7
  6
BYLAYER
 10
29.502368057
 20
78.1978796024
 11
59.302368057
 21
78.1978796024
  0
LINE
  5
3D9
100
AcDbEntity
  8
0
100
AcDbLine
 62
7
  6
BYLAYER
 10
59.302368057
 20
78.2214185084
 11
53.0523682641
 21
78.2214185084
  0
LINE
  5
3DA
100
AcDbEntity
  8
0
100
AcDbLine
 62
7
  6
BYLAYER
 10
29.502368057
 20
78.2214185084
 11
35.7523678498
 21
78.2214185084
  0
LINE
  5
3DB
100
AcDbEntity
  8
0
100
AcDbLine
 62
7
  6
BYLAYER
 10
29.502368057
 20
78.2978798621
 11
59.302368057
 21
78.2978798621
  0
LINE
  5
3DC
100
AcDbEntity
  8
0
100
AcDbLine
 62
7
  6
BYLAYER
 10
35.7523678498
 20
78.510093104
 11
37.7523681777
 21
78.510093104
  0
LINE
  5
3DD
100
AcDbEntity
  8
0
100
AcDbLine
 62
7
  6
BYLAYER
 10
51.0523679363
 20
79.0874433705
 11
53.0523682641
 21
79.0874433705
  0
LINE
  5
3DE
100
AcDbEntity
  8
0
100
AcDbLine
 62
7
  6
BYLAYER
 10
29.502368057
 20
79.0978799001
 11
59.302368057
 21
79.0978799001
  0
LINE
  5
3DF
100
AcDbEntity
  8
0
100
AcDbLine
 62
7
  6
BYLAYER
 10
29.502368057
 20
79.3978798561
 11
59.302368057
 21
79.3978798561
  0
LINE
  5
3E0
100
AcDbEntity
  8
0
100
AcDbLine
 62
7
  6
BYLAYER
 10
37.7523681777
 20
79.0874433705
 11
42.2123353158
 21
80.2808690034
  0
LINE
  5
3E1
100
AcDbEntity
  8
0
100
AcDbLine
 62
7
  6
BYLAYER
 10
29.502368057
 20
80.5978796803
 11
59.302368057
 21
80.5978796803
  0
LINE
  5
3E2
100
AcDbEntity
  8
0
100
AcDbLine
 62
7
  6
BYLAYER
 10
48.6523682879
 20
83.017879357
 11
40.1523679183
 21
83.017879357
  0
LINE
  5
3E3
100
AcDbEntity
  8
0
100
AcDbLine
 62
7
  6
BYLAYER
 10
40.152368057
 20
83.017879357
 11
32.237368057
 21
83.017879357
  0
LINE
  5
3E4
100
AcDbEntity
  8
0
100
AcDbLine
 62
7
  6
BYLAYER
 10
48.6523682879
 20
83.017879357
 11
56.567368057
 21
83.017879357
  0
LINE
  5
3E5
100
AcDbEntity
  8
0
100
AcDbLine
 62
7
  6
BYLAYER
 10
46.592400798
 20
80.2808690035
 11
51.0523679363
 21
79.0874433705
  0
LINE
  5
3E6
100
AcDbEntity
  8
0
100
AcDbLine
 62
7
  6
BYLAYER
 10
29.502368057
 20
83.8978797788
 11
40.1523679183
 21
83.8978797788
  0
LINE
  5
3E7
100
AcDbEntity
  8
0
100
AcDbLine
 62
7
  6
BYLAYER
 10
48.6523682879
 20
83.8978797788
 11
59.302368057
 21
83.8978797788
  0
LINE
  5
3E8
100
AcDbEntity
  8
0
100
AcDbLine
 62
7
  6
BYLAYER
 10
32.2373682588
 20
84.9921395927
 11
32.2773678942
 21
84.9921395972
  0
LINE
  5
3E9
100
AcDbEntity
  8
0
100
AcDbLine
 62
7
  6
BYLAYER
 10
35.4622625865
 20
85.477879357
 11
38.825031802
 21
85.477879357
  0
LINE
  5
3EA
100
AcDbEntity
  8
0
100
AcDbLine
 62
7
  6
BYLAYER
 10
31.4023680811
 20
85.4978797384
 11
37.4023678409
 21
85.4978797384
  0
LINE
  5
3EB
100
AcDbEntity
  8
0
100
AcDbLine
 62
7
  6
BYLAYER
 10
56.5273684199
 20
84.9921960076
 11
56.5673678551
 21
84.9921812942
  0
LINE
  5
3EC
100
AcDbEntity
  8
0
100
AcDbLine
 62
7
  6
BYLAYER
 10
31.4023678465
 20
86.9978797515
 11
37.4023678409
 21
86.9978797515
  0
LINE
  5
3ED
100
AcDbEntity
  8
0
100
AcDbLine
 62
7
  6
BYLAYER
 10
29.502368057
 20
87.297879357
 11
29.7373679163
 21
87.297879357
  0
LINE
  5
3EE
100
AcDbEntity
  8
0
100
AcDbLine
 62
7
  6
BYLAYER
 10
32.2373683261
 20
87.297879357
 11
38.8250266514
 21
87.297879357
  0
LINE
  5
3EF
100
AcDbEntity
  8
0
100
AcDbLine
 62
7
  6
BYLAYER
 10
50.5523678543
 20
87.297879357
 11
56.5673677878
 21
87.297879357
  0
LINE
  5
3F0
100
AcDbEntity
  8
0
100
AcDbLine
 62
7
  6
BYLAYER
 10
59.0673681107
 20
87.297879357
 11
59.302368057
 21
87.297879357
  0
LINE
  5
3F1
100
AcDbEntity
  8
0
100
AcDbLine
 62
7
  6
BYLAYER
 10
59.0673680588
 20
87.3978797705
 11
29.7373679163
 21
87.3978797705
  0
LINE
  5
3F2
100
AcDbEntity
  8
0
100
AcDbLine
 62
7
  6
BYLAYER
 10
29.7373679163
 20
87.777879357
 11
32.2373683261
 21
87.777879357
  0
LINE
  5
3F3
100
AcDbEntity
  8
0
100
AcDbLine
 62
7
  6
BYLAYER
 10
29.7373679163
 20
87.8178797089
 11
32.2373683261
 21
87.8178797089
  0
LINE
  5
3F4
100
AcDbEntity
  8
0
100
AcDbLine
 62
7
  6
BYLAYER
 10
56.5673677878
 20
87.8178797147
 11
59.0673681781
 21
87.8178797101
  0
LINE
  5
3F5
100
AcDbEntity
  8
0
100
AcDbLine
 62
7
  6
BYLAYER
 10
59.0673681868
 20
90.8978801608
 11
56.5673677878
 21
90.8978801608
  0
LINE
  5
3F6
100
AcDbEntity
  8
0
100
AcDbLine
 62
7
  6
BYLAYER
 10
32.2373683261
 20
90.8978801608
 11
29.7373679163
 21
90.8978801608
  0
LINE
  5
3F7
100
AcDbEntity
  8
0
100
AcDbLine
 62
7
  6
BYLAYER
 10
29.7373679163
 20
93.3978793616
 11
59.0673680746
 21
93.3978793616
  0
LINE
  5
3F8
100
AcDbEntity
  8
0
100
AcDbLine
 62
7
  6
BYLAYER
 10
32.2773678947
 20
93.597879357
 11
42.4256449674
 21
93.597879357
  0
LINE
  5
3F9
100
AcDbEntity
  8
0
100
AcDbLine
 62
7
  6
BYLAYER
 10
42.4256449674
 20
93.597879357
 11
46.3790911465
 21
93.597879357
  0
LINE
  5
3FA
100
AcDbEntity
  8
0
100
AcDbLine
 62
7
  6
BYLAYER
 10
46.3790911465
 20
93.597879357
 11
56.5273682135
 21
93.597879357
  0
LINE
  5
3FB
100
AcDbEntity
  8
0
100
AcDbLine
 62
7
  6
BYLAYER
 10
54.9773682782
 20
96.777879329
 11
46.4036402637
 21
96.777879329
  0
LINE
  5
3FC
100
AcDbEntity
  8
0
100
AcDbLine
 62
7
  6
BYLAYER
 10
42.4010958502
 20
96.777879329
 11
33.8273678357
 21
96.777879329
  0
LINE
  5
3FD
100
AcDbEntity
  8
0
100
AcDbLine
 62
7
  6
BYLAYER
 10
42.4010958502
 20
96.777879329
 11
46.4036402637
 21
96.777879329
  0
LINE
  5
3FE
100
AcDbEntity
  8
0
100
AcDbLine
 62
7
  6
BYLAYER
 10
33.5273683699
 20
97.0778787948
 11
42.4066676076
 21
97.0778787948
  0
LINE
  5
3FF
100
AcDbEntity
  8
0
100
AcDbLine
 62
7
  6
BYLAYER
 10
42.4066676076
 20
97.0778787948
 11
46.3980685063
 21
97.0778787948
  0
LINE
  5
400
100
AcDbEntity
  8
0
100
AcDbLine
 62
7
  6
BYLAYER
 10
46.3980685063
 20
97.0778787948
 11
55.277367744
 21
97.0778787948
  0
LINE
  5
401
100
AcDbEntity
  8
0
100
AcDbLine
 62
7
  6
BYLAYER
 10
44.402368057
 20
98.997879357
 11
45.9259229403
 21
98.1730064189
  0
LINE
  5
402
100
AcDbEntity
  8
0
100
AcDbLine
 62
7
  6
BYLAYER
 10
30.822368057
 20
98.787879357
 11
44.0144943485
 21
98.787879357
  0
LINE
  5
403
100
AcDbEntity
  8
0
100
AcDbLine
 62
7
  6
BYLAYER
 10
44.0144943485
 20
98.787879357
 11
44.7902417655
 21
98.787879357
  0
LINE
  5
404
100
AcDbEntity
  8
0
100
AcDbLine
 62
7
  6
BYLAYER
 10
44.7902417655
 20
98.787879357
 11
57.982368057
 21
98.787879357
  0
LINE
  5
405
100
AcDbEntity
  8
0
100
AcDbLine
 62
7
  6
BYLAYER
 10
29.7934911447
 20
100.037879313
 11
58.3523676427
 21
100.037879313
  0
LINE
  5
406
100
AcDbEntity
  8
0
100
AcDbLine
 62
7
  6
BYLAYER
 10
29.6523679751
 20
103.487879357
 11
59.1523681388
 21
103.487879357
  0
LINE
  5
407
100
AcDbEntity
  8
0
100
AcDbLine
 62
7
  6
BYLAYER
 10
57.6069647047
 20
103.977879357
 11
31.1991257942
 21
103.977879357
  0
LINE
  5
408
100
AcDbEntity
  8
0
100
AcDbLine
 62
7
  6
BYLAYER
 10
37.3625834297
 20
111.5837205502
 11
35.9021558066
 21
111.2778796946
  0
LINE
  5
409
100
AcDbEntity
  8
0
100
AcDbLine
 62
7
  6
BYLAYER
 10
39.0023701217
 20
111.7535791942
 11
37.362796673
 21
111.5837652043
  0
LINE
  5
40A
100
AcDbEntity
  8
0
100
AcDbLine
 62
7
  6
BYLAYER
 10
49.402368057
 20
111.227879357
 11
39.402368057
 21
111.227879357
  0
LINE
  5
40B
100
AcDbEntity
  8
0
100
AcDbLine
 62
7
  6
BYLAYER
 10
58.7869919156
 20
111.2778797718
 11
30.0177441985
 21
111.2778797718
  0
LINE
  5
40C
100
AcDbEntity
  8
0
100
AcDbLine
 62
7
  6
BYLAYER
 10
40.9025412725
 20
111.5595874934
 11
47.902194835
 21
111.5595874929
  0
LINE
  5
40D
100
AcDbEntity
  8
0
100
AcDbLine
 62
7
  6
BYLAYER
 10
51.4419025388
 20
111.5837729353
 11
37.3628335743
 21
111.5837729352
  0
LINE
  5
40E
100
AcDbEntity
  8
0
100
AcDbLine
 62
7
  6
BYLAYER
 10
43.4023699827
 20
111.6673738389
 11
39.8188398032
 21
111.6673738388
  0
LINE
  5
40F
100
AcDbEntity
  8
0
100
AcDbLine
 62
7
  6
BYLAYER
 10
45.4023661279
 20
111.6673738387
 11
48.9858963101
 21
111.6673738388
  0
LINE
  5
410
100
AcDbEntity
  8
0
100
AcDbLine
 62
7
  6
BYLAYER
 10
49.402368057
 20
111.7378680613
 11
39.4023680569
 21
111.7378680613
  0
LINE
  5
411
100
AcDbEntity
  8
0
100
AcDbLine
 62
7
  6
BYLAYER
 10
49.8021691586
 20
111.7535791988
 11
39.0025669561
 21
111.7535791988
  0
LINE
  5
412
100
AcDbEntity
  8
0
100
AcDbLine
 62
7
  6
BYLAYER
 10
45.2117091485
 20
113.0109544233
 11
43.5930792266
 21
113.0109544233
  0
LINE
  5
413
100
AcDbEntity
  8
0
100
AcDbLine
 62
7
  6
BYLAYER
 10
49.8023659918
 20
111.7535791941
 11
51.4419394427
 21
111.5837652038
  0
LINE
  5
414
100
AcDbEntity
  8
0
100
AcDbLine
 62
7
  6
BYLAYER
 10
51.4421526839
 20
111.5837205503
 11
52.9025803073
 21
111.2778796946
  0
ARC
  5
415
100
AcDbEntity
  8
0
100
AcDbCircle
 62
7
  6
BYLAYER
 10
44.402368057
 20
53.8260184157
 40
59.1904663213
100
AcDbArc
 50
90.7833391986
 51
102.3493498973
  0
ARC
  5
416
100
AcDbEntity
  8
0
100
AcDbCircle
 62
7
  6
BYLAYER
 10
44.402368057
 20
53.8260184157
 40
59.1904663213
100
AcDbArc
 50
77.6506498596
 51
89.2166253281
  0
ARC
  5
417
100
AcDbEntity
  8
0
100
AcDbCircle
 62
7
  6
BYLAYER
 10
43.9156686832
 20
157.1425193133
 40
45.7569236739
100
AcDbArc
 50
270.6094453827
 51
276.3618882813
  0
ARC
  5
418
100
AcDbEntity
  8
0
100
AcDbCircle
 62
7
  6
BYLAYER
 10
44.889067429
 20
157.1425193031
 40
45.7569236638
100
AcDbArc
 50
263.6381117126
 51
269.3905546193
  0
ARC
  5
419
100
AcDbEntity
  8
0
100
AcDbCircle
 62
7
  6
BYLAYER
 10
44.4022721644
 20
88.3532081857
 40
12.8901275863
100
AcDbArc
 50
269.1618581227
 51
270.858324195
  0
ARC
  5
41A
100
AcDbEntity
  8
0
100
AcDbCircle
 62
7
  6
BYLAYER
 10
44.4350842046
 20
87.1973764261
 40
11.7339442232
100
AcDbArc
 50
270.7826685199
 51
273.8796293088
  0
ARC
  5
41B
100
AcDbEntity
  8
0
100
AcDbCircle
 62
7
  6
BYLAYER
 10
49.8023659918
 20
103.753537835
 40
8.0000413592
100
AcDbArc
 50
78.1736841786
 51
90.0
  0
ARC
  5
41C
100
AcDbEntity
  8
0
100
AcDbCircle
 62
7
  6
BYLAYER
 10
39.0023701215
 20
103.753537837
 40
8.0000413572
100
AcDbArc
 50
90.0
 51
101.8263158065
  0
ARC
  5
41D
100
AcDbEntity
  8
0
100
AcDbCircle
 62
7
  6
BYLAYER
 10
43.4817568867
 20
79.5132827539
 40
3.9928215742
100
AcDbArc
 50
258.3483516182
 51
259.3296390659
  0
ARC
  5
41E
100
AcDbEntity
  8
0
100
AcDbCircle
 62
7
  6
BYLAYER
 10
45.3580574013
 20
79.3375349024
 40
3.8136102215
100
AcDbArc
 50
280.8710643131
 51
281.7622219415
  0
ARC
  5
41F
100
AcDbEntity
  8
0
100
AcDbCircle
 62
7
  6
BYLAYER
 10
49.7279277229
 20
108.5490183913
 40
3.2054252937
100
AcDbArc
 50
91.3307106173
 51
103.3849481752
  0
ARC
  5
420
100
AcDbEntity
  8
0
100
AcDbCircle
 62
7
  6
BYLAYER
 10
39.076808391
 20
108.5490183913
 40
3.2054252937
100
AcDbArc
 50
76.6150518439
 51
88.6692893827
  0
ARC
  5
421
100
AcDbEntity
  8
0
100
AcDbCircle
 62
7
  6
BYLAYER
 10
30.0177441357
 20
110.977879765
 40
0.3
100
AcDbArc
 50
89.9999999704
 51
179.4999948952
  0
ARC
  5
422
100
AcDbEntity
  8
0
100
AcDbCircle
 62
7
  6
BYLAYER
 10
58.7869919782
 20
110.9778797651
 40
0.3
100
AcDbArc
 50
0.5000030777
 51
89.9999999746
  0
ARC
  5
423
100
AcDbEntity
  8
0
100
AcDbCircle
 62
7
  6
BYLAYER
 10
33.8273678357
 20
97.0778787948
 40
0.2999994658
100
AcDbArc
 50
180.0
 51
270.0
  0
ARC
  5
424
100
AcDbEntity
  8
0
100
AcDbCircle
 62
7
  6
BYLAYER
 10
54.9773682782
 20
97.0778787948
 40
0.2999994658
100
AcDbArc
 50
270.0
 51
360.0
  0
SPLINE
  5
425
100
AcDbEntity
  8
0
100
AcDbSpline
 62
7
  6
BYLAYER
 70
0
 71
3
 72
15
 73
11
 74
0
 42
0.0000001
 43
0.0000001
 44
0.0000000001
 40
0.0
 40
0.0
 40
0.0
 40
0.0
 40
0.0638040297
 40
0.1393677113
 40
0.2334421293
 40
0.3485604087
 40
0.4849598919
 40
0.6411223269
 40
0.8144277266
 40
1.0
 40
1.0
 40
1.0
 40
1.0
 10
56.5673680146
 20
84.2225702097
 30
0.0
 10
56.5673680146
 20
84.204037343
 30
0.0
 10
56.5563661562
 20
84.1633131144
 30
0.0
 10
56.5132319398
 20
84.1095117897
 30
0.0
 10
56.4463167076
 20
84.0599514202
 30
0.0
 10
56.3563952794
 20
84.0145881505
 30
0.0
 10
56.2447847022
 20
83.9743886119
 30
0.0
 10
56.1136359273
 20
83.9404253712
 30
0.0
 10
55.9662543462
 20
83.9140766736
 30
0.0
 10
55.8625964212
 20
83.9023529512
 30
0.0
 10
55.8088800133
 20
83.8978797788
 30
0.0
  0
SPLINE
  5
426
100
AcDbEntity
  8
0
100
AcDbSpline
 62
7
  6
BYLAYER
 70
0
 71
3
 72
19
 73
15
 74
0
 42
0.0000001
 43
0.0000001
 44
0.0000000001
 40
0.0
 40
0.0
 40
0.0
 40
0.0
 40
0.1667219703
 40
0.327312966
 40
0.4756034638
 40
0.6068918624
 40
0.718159335
 40
0.7663471873
 40
0.8103534072
 40
0.8521828842
 40
0.8957804405
 40
0.9439530441
 40
0.9708147696
 40
1.0
 40
1.0
 40
1.0
 40
1.0
 10
44.402368057
 20
75.45852291
 30
0.0
 10
44.2476420688
 20
75.45852291
 30
0.0
 10
43.9438505197
 20
75.463802599
 30
0.0
 10
43.5029980444
 20
75.4872543222
 30
0.0
 10
43.0961326964
 20
75.5254341681
 30
0.0
 10
42.7369939587
 20
75.5772058323
 30
0.0
 10
42.4726153292
 20
75.6332102915
 30
0.0
 10
42.291848288
 20
75.6881391422
 30
0.0
 10
42.1754839236
 20
75.7325183022
 30
0.0
 10
42.0684222725
 20
75.7877060302
 30
0.0
 10
41.9681589391
 20
75.8620217038
 30
0.0
 10
41.8987053944
 20
75.9499889035
 30
0.0
 10
41.860111019
 20
76.0392516781
 30
0.0
 10
41.8498316404
 20
76.0907653156
 30
0.0
 10
41.847434586
 20
76.1177443314
 30
0.0
  0
SPLINE
  5
427
100
AcDbEntity
  8
0
100
AcDbSpline
 62
7
  6
BYLAYER
 70
0
 71
3
 72
19
 73
15
 74
0
 42
0.0000001
 43
0.0000001
 44
0.0000000001
 40
0.0
 40
0.0
 40
0.0
 40
0.0
 40
0.0291978834
 40
0.0560610753
 40
0.1042204951
 40
0.1478200044
 40
0.1896649565
 40
0.2336612471
 40
0.2818520703
 40
0.3931250731
 40
0.5244158918
 40
0.6727101646
 40
0.8332878051
 40
1.0
 40
1.0
 40
1.0
 40
1.0
 10
46.9573015279
 20
76.1177443316
 30
0.0
 10
46.9549034317
 20
76.0907535898
 30
0.0
 10
46.9446234852
 20
76.0392252282
 30
0.0
 10
46.9060105802
 20
75.9499714851
 30
0.0
 10
46.8365880607
 20
75.8619881174
 30
0.0
 10
46.7362798811
 20
75.7877251639
 30
0.0
 10
46.6292413465
 20
75.7324825997
 30
0.0
 10
46.5128527776
 20
75.6881364734
 30
0.0
 10
46.3320909412
 20
75.6332016858
 30
0.0
 10
46.0677002569
 20
75.577195693
 30
0.0
 10
45.7085499749
 20
75.5254291983
 30
0.0
 10
45.3016905004
 20
75.4872523125
 30
0.0
 10
44.8608556348
 20
75.4637991679
 30
0.0
 10
44.557085142
 20
75.45852291
 30
0.0
 10
44.402368057
 20
75.45852291
 30
0.0
  0
SPLINE
  5
428
100
AcDbEntity
  8
0
100
AcDbSpline
 62
7
  6
BYLAYER
 70
0
 71
3
 72
15
 73
11
 74
0
 42
0.0000001
 43
0.0000001
 44
0.0000000001
 40
0.0
 40
0.0
 40
0.0
 40
0.0
 40
0.066469873
 40
0.127473051
 40
0.238159604
 40
0.3425083562
 40
0.4478871899
 40
0.5631500425
 40
0.6930835654
 40
1.0
 40
1.0
 40
1.0
 40
1.0
 10
41.671715477
 20
78.0954724833
 30
0.0
 10
41.6696103399
 20
78.119165915
 30
0.0
 10
41.6713458855
 20
78.1653841753
 30
0.0
 10
41.6959267311
 20
78.2476884144
 30
0.0
 10
41.7528605879
 20
78.3313798399
 30
0.0
 10
41.8438690857
 20
78.4026678044
 30
0.0
 10
41.9465188859
 20
78.4580383331
 30
0.0
 10
42.0634747685
 20
78.5039683378
 30
0.0
 10
42.2521422668
 20
78.5629611453
 30
0.0
 10
42.4052460135
 20
78.5961398613
 30
0.0
 10
42.5132225139
 20
78.6162457162
 30
0.0
  0
SPLINE
  5
429
100
AcDbEntity
  8
0
100
AcDbSpline
 62
7
  6
BYLAYER
 70
0
 71
3
 72
10
 73
6
 74
0
 42
0.0000001
 43
0.0000001
 44
0.0000000001
 40
0.0
 40
0.0
 40
0.0
 40
0.0
 40
0.2140577754
 40
0.4581939631
 40
1.0
 40
1.0
 40
1.0
 40
1.0
 10
42.5132225139
 20
78.6162457162
 30
0.0
 10
42.6462652245
 20
78.6410190457
 30
0.0
 10
42.9330875256
 20
78.6831570844
 30
0.0
 10
43.5625700377
 20
78.743248338
 30
0.0
 10
44.0598327102
 20
78.759586385
 30
0.0
 10
44.402368057
 20
78.759586385
 30
0.0
  0
SPLINE
  5
42A
100
AcDbEntity
  8
0
100
AcDbSpline
 62
7
  6
BYLAYER
 70
0
 71
3
 72
10
 73
6
 74
0
 42
0.0000001
 43
0.0000001
 44
0.0000000001
 40
0.0
 40
0.0
 40
0.0
 40
0.0
 40
0.5418241158
 40
0.7859562762
 40
1.0
 40
1.0
 40
1.0
 40
1.0
 10
44.402368057
 20
78.759586385
 30
0.0
 10
44.7449559795
 20
78.759586385
 30
0.0
 10
45.242287369
 20
78.7432433809
 30
0.0
 10
45.8718447142
 20
78.6831355352
 30
0.0
 10
46.1586887519
 20
78.6409837562
 30
0.0
 10
46.2917376677
 20
78.6162034868
 30
0.0
  0
SPLINE
  5
42B
100
AcDbEntity
  8
0
100
AcDbSpline
 62
7
  6
BYLAYER
 70
0
 71
3
 72
15
 73
11
 74
0
 42
0.0000001
 43
0.0000001
 44
0.0000000001
 40
0.0
 40
0.0
 40
0.0
 40
0.0
 40
0.3068987616
 40
0.436827687
 40
0.5520972337
 40
0.6574622842
 40
0.7618224244
 40
0.8725306307
 40
0.9335395354
 40
1.0
 40
1.0
 40
1.0
 40
1.0
 10
46.2917376677
 20
78.6162034868
 30
0.0
 10
46.3996840266
 20
78.5960985515
 30
0.0
 10
46.5527460317
 20
78.5629232573
 30
0.0
 10
46.7413644141
 20
78.5039318713
 30
0.0
 10
46.8582856147
 20
78.4580006384
 30
0.0
 10
46.9609178208
 20
78.4026445064
 30
0.0
 10
47.0518942282
 20
78.3313453537
 30
0.0
 10
47.1088242383
 20
78.2476607246
 30
0.0
 10
47.1333886606
 20
78.1653637454
 30
0.0
 10
47.1351250261
 20
78.1191574975
 30
0.0
 10
47.1330206369
 20
78.0954724833
 30
0.0
  0
SPLINE
  5
42C
100
AcDbEntity
  8
0
100
AcDbSpline
 62
7
  6
BYLAYER
 70
0
 71
3
 72
9
 73
5
 74
0
 42
0.0000001
 43
0.0000001
 44
0.0000000001
 40
0.0
 40
0.0
 40
0.0
 40
0.0
 40
0.5829456898
 40
1.0
 40
1.0
 40
1.0
 40
1.0
 10
45.9258963178
 20
98.1730049366
 30
0.0
 10
45.9430265486
 20
98.1637277461
 30
0.0
 10
45.9714695378
 20
98.146054637
 30
0.0
 10
45.9939928139
 20
98.1194010954
 30
0.0
 10
45.9989115023
 20
98.1063606532
 30
0.0
  0
SPLINE
  5
42D
100
AcDbEntity
  8
0
100
AcDbSpline
 62
7
  6
BYLAYER
 70
0
 71
3
 72
9
 73
5
 74
0
 42
0.0000001
 43
0.0000001
 44
0.0000000001
 40
0.0
 40
0.0
 40
0.0
 40
0.0
 40
0.5829456898
 40
1.0
 40
1.0
 40
1.0
 40
1.0
 10
42.8788397961
 20
98.1730049366
 30
0.0
 10
42.8617095653
 20
98.1637277461
 30
0.0
 10
42.8332665761
 20
98.146054637
 30
0.0
 10
42.8107433
 20
98.1194010954
 30
0.0
 10
42.8058246116
 20
98.1063606532
 30
0.0
  0
SPLINE
  5
42E
100
AcDbEntity
  8
0
100
AcDbSpline
 62
7
  6
BYLAYER
 70
0
 71
3
 72
15
 73
11
 74
0
 42
0.0000001
 43
0.0000001
 44
0.0000000001
 40
0.0
 40
0.0
 40
0.0
 40
0.0
 40
0.1855819571
 40
0.358902269
 40
0.5150517616
 40
0.6514231142
 40
0.7665324141
 40
0.8606095921
 40
0.9361875074
 40
1.0
 40
1.0
 40
1.0
 40
1.0
 10
32.9958564772
 20
83.8978797788
 30
0.0
 10
32.9421373587
 20
83.9023531663
 30
0.0
 10
32.8384727368
 20
83.9140797425
 30
0.0
 10
32.6910878651
 20
83.940426765
 30
0.0
 10
32.5599456804
 20
83.9743853465
 30
0.0
 10
32.4483510768
 20
84.0145850853
 30
0.0
 10
32.3584359323
 20
84.0599372786
 30
0.0
 10
32.2915179289
 20
84.1094996042
 30
0.0
 10
32.2483821253
 20
84.1633064422
 30
0.0
 10
32.2373681492
 20
84.2040348255
 30
0.0
 10
32.2373680993
 20
84.2225701181
 30
0.0
  0
SPLINE
  5
42F
100
AcDbEntity
  8
0
100
AcDbSpline
 62
7
  6
BYLAYER
 70
0
 71
3
 72
26
 73
22
 74
0
 42
0.0000001
 43
0.0000001
 44
0.0000000001
 40
0.0
 40
0.0
 40
0.0
 40
0.0
 40
0.2138066179
 40
0.3155537551
 40
0.4111435314
 40
0.4988182196
 40
0.5769754891
 40
0.6441719364
 40
0.6993848937
 40
0.7419925826
 40
0.7586583301
 40
0.7724458976
 40
0.793247206
 40
0.8027235065
 40
0.8133482206
 40
0.8261619924
 40
0.8417295522
 40
0.8603172018
 40
0.8820432591
 40
0.9349532716
 40
1.0
 40
1.0
 40
1.0
 40
1.0
 10
44.402368057
 20
76.2467129105
 30
0.0
 10
44.6126160612
 20
76.2467129105
 30
0.0
 10
44.9230062376
 20
76.2393584014
 30
0.0
 10
45.3265331926
 20
76.2137559529
 30
0.0
 10
45.605650518
 20
76.1878749274
 30
0.0
 10
45.8607381227
 20
76.155532354
 30
0.0
 10
46.0867825642
 20
76.1175094031
 30
0.0
 10
46.2794374413
 20
76.074610593
 30
0.0
 10
46.4349456058
 20
76.0277663515
 30
0.0
 10
46.5390659098
 20
75.9837495463
 30
0.0
 10
46.6000007078
 20
75.945000277
 30
0.0
 10
46.638070416
 20
75.9123972138
 30
0.0
 10
46.6621209758
 20
75.8716617719
 30
0.0
 10
46.6563854241
 20
75.8305267964
 30
0.0
 10
46.6400045184
 20
75.8019930578
 30
0.0
 10
46.6127394743
 20
75.7746188087
 30
0.0
 10
46.5748691552
 20
75.7479174425
 30
0.0
 10
46.5264367742
 20
75.7217647639
 30
0.0
 10
46.4422292453
 20
75.6853221723
 30
0.0
 10
46.3110510486
 20
75.6436392379
 30
0.0
 10
46.1980839732
 20
75.6170471744
 30
0.0
 10
46.135464094
 20
75.6040028273
 30
0.0
  0
SPLINE
  5
430
100
AcDbEntity
  8
0
100
AcDbSpline
 62
7
  6
BYLAYER
 70
0
 71
3
 72
9
 73
5
 74
0
 42
0.0000001
 43
0.0000001
 44
0.0000000001
 40
0.0
 40
0.0
 40
0.0
 40
0.0
 40
0.4617151976
 40
1.0
 40
1.0
 40
1.0
 40
1.0
 10
46.0773024096
 20
75.5923634057
 30
0.0
 10
45.9481148156
 20
75.5675199283
 30
0.0
 10
45.6659065595
 20
75.5263025501
 30
0.0
 10
45.3820235457
 20
75.5007862134
 30
0.0
 10
45.2290096068
 20
75.4903217372
 30
0.0
  0
SPLINE
  5
431
100
AcDbEntity
  8
0
100
AcDbSpline
 62
7
  6
BYLAYER
 70
0
 71
3
 72
9
 73
5
 74
0
 42
0.0000001
 43
0.0000001
 44
0.0000000001
 40
0.0
 40
0.0
 40
0.0
 40
0.0
 40
0.2555273668
 40
1.0
 40
1.0
 40
1.0
 40
1.0
 10
44.2139041241
 20
75.4644597921
 30
0.0
 10
44.1589256344
 20
75.4652636892
 30
0.0
 10
43.9437929772
 20
75.4697893866
 30
0.0
 10
43.7287597949
 20
75.4797543245
 30
0.0
 10
43.5689446052
 20
75.4907874942
 30
0.0
  0
SPLINE
  5
432
100
AcDbEntity
  8
0
100
AcDbSpline
 62
7
  6
BYLAYER
 70
0
 71
3
 72
9
 73
5
 74
0
 42
0.0000001
 43
0.0000001
 44
0.0000000001
 40
0.0
 40
0.0
 40
0.0
 40
0.0
 40
0.5369287497
 40
1.0
 40
1.0
 40
1.0
 40
1.0
 10
43.5689446052
 20
75.4907874942
 30
0.0
 10
43.4202644431
 20
75.5010519344
 30
0.0
 10
43.1437192796
 20
75.5259453438
 30
0.0
 10
42.8687614965
 20
75.5656899831
 30
0.0
 10
42.7424528891
 20
75.5895022144
 30
0.0
  0
SPLINE
  5
433
100
AcDbEntity
  8
0
100
AcDbSpline
 62
7
  6
BYLAYER
 70
0
 71
3
 72
27
 73
23
 74
0
 42
0.0000001
 43
0.0000001
 44
0.0000000001
 40
0.0
 40
0.0
 40
0.0
 40
0.0
 40
0.06534517
 40
0.1185606624
 40
0.1404364475
 40
0.159167993
 40
0.1748668845
 40
0.1877892242
 40
0.1984856807
 40
0.2079779402
 40
0.2176824911
 40
0.2289370443
 40
0.2426182663
 40
0.2591693945
 40
0.3015515155
 40
0.3565595636
 40
0.4235797571
 40
0.5015912533
 40
0.5891472932
 40
0.6846443926
 40
0.7863174707
 40
1.0
 40
1.0
 40
1.0
 40
1.0
 10
42.6753631995
 20
75.6027388858
 30
0.0
 10
42.6122832228
 20
75.6157676351
 30
0.0
 10
42.4984160823
 20
75.6423449886
 30
0.0
 10
42.3661135739
 20
75.6840133229
 30
0.0
 10
42.2810259541
 20
75.7204577243
 30
0.0
 10
42.2319805951
 20
75.7466263799
 30
0.0
 10
42.1935289066
 20
75.7733499657
 30
0.0
 10
42.165728679
 20
75.8007296552
 30
0.0
 10
42.1488083872
 20
75.8292804355
 30
0.0
 10
42.1440898724
 20
75.8592365639
 30
0.0
 10
42.1525022908
 20
75.8888822044
 30
0.0
 10
42.1726262178
 20
75.9170157074
 30
0.0
 10
42.2034870633
 20
75.9441847381
 30
0.0
 10
42.263963934
 20
75.9828180331
 30
0.0
 10
42.367800996
 20
76.0271100342
 30
0.0
 10
42.5230305851
 20
76.0740159788
 30
0.0
 10
42.715618229
 20
76.1170685525
 30
0.0
 10
42.9417555665
 20
76.1552070944
 30
0.0
 10
43.1970960209
 20
76.1876642862
 30
0.0
 10
43.476596421
 20
76.2136355902
 30
0.0
 10
43.8808005132
 20
76.2393330396
 30
0.0
 10
44.1917389262
 20
76.2467129105
 30
0.0
 10
44.402368057
 20
76.2467129105
 30
0.0
  0
SPLINE
  5
434
100
AcDbEntity
  8
0
100
AcDbSpline
 62
7
  6
BYLAYER
 70
0
 71
3
 72
15
 73
11
 74
0
 42
0.0000001
 43
0.0000001
 44
0.0000000001
 40
0.0
 40
0.0
 40
0.0
 40
0.0
 40
0.0278364676
 40
0.0613647431
 40
0.1453948247
 40
0.2509782934
 40
0.3758797642
 40
0.5169944279
 40
0.6707556514
 40
1.0
 40
1.0
 40
1.0
 40
1.0
 10
41.927253776
 20
76.2348323809
 30
0.0
 10
41.9465827216
 20
76.2479180225
 30
0.0
 10
41.991638106
 20
76.2731372526
 30
0.0
 10
42.1036592399
 20
76.321540016
 30
0.0
 10
42.2832314744
 20
76.3758765941
 30
0.0
 10
42.5411539738
 20
76.4314639367
 30
0.0
 10
42.8492072818
 20
76.4793624748
 30
0.0
 10
43.1991315722
 20
76.518279077
 30
0.0
 10
43.7211023095
 20
76.557272949
 30
0.0
 10
44.1262851271
 20
76.568302282
 30
0.0
 10
44.402368057
 20
76.568302282
 30
0.0
  0
SPLINE
  5
435
100
AcDbEntity
  8
0
100
AcDbSpline
 62
7
  6
BYLAYER
 70
0
 71
3
 72
15
 73
11
 74
0
 42
0.0000001
 43
0.0000001
 44
0.0000000001
 40
0.0
 40
0.0
 40
0.0
 40
0.0
 40
0.3294903654
 40
0.4833377263
 40
0.6244965343
 40
0.7493901983
 40
0.8549069758
 40
0.9388102805
 40
0.9722554941
 40
1.0
 40
1.0
 40
1.0
 40
1.0
 10
44.402368057
 20
76.568302282
 30
0.0
 10
44.6788037336
 20
76.568302282
 30
0.0
 10
45.0844806359
 20
76.5572464729
 30
0.0
 10
45.6070391178
 20
76.5181526398
 30
0.0
 10
45.9572443299
 20
76.4791418758
 30
0.0
 10
46.265423395
 20
76.4311342379
 30
0.0
 10
46.5232906768
 20
76.375429072
 30
0.0
 10
46.7026962626
 20
76.3209797843
 30
0.0
 10
46.8144666746
 20
76.2724693782
 30
0.0
 10
46.8593575939
 20
76.2471952874
 30
0.0
 10
46.8785885735
 20
76.2340807327
 30
0.0
  0
SPLINE
  5
436
100
AcDbEntity
  8
0
100
AcDbSpline
 62
7
  6
BYLAYER
 70
0
 71
3
 72
15
 73
11
 74
0
 42
0.0000001
 43
0.0000001
 44
0.0000000001
 40
0.0
 40
0.0
 40
0.0
 40
0.0
 40
0.3294431537
 40
0.4832739864
 40
0.6244243266
 40
0.7493194938
 40
0.8548490746
 40
0.9387767095
 40
0.9722378587
 40
1.0
 40
1.0
 40
1.0
 40
1.0
 10
44.402368057
 20
78.5770175074
 30
0.0
 10
44.1069924262
 20
78.5770175074
 30
0.0
 10
43.6735157838
 20
78.5652067476
 30
0.0
 10
43.1151380469
 20
78.5234446782
 30
0.0
 10
42.7409045071
 20
78.4817701994
 30
0.0
 10
42.4115556937
 20
78.4304831332
 30
0.0
 10
42.1359418057
 20
78.3709709147
 30
0.0
 10
41.944163097
 20
78.3127998989
 30
0.0
 10
41.8246540276
 20
78.2609751901
 30
0.0
 10
41.7766419045
 20
78.2339740862
 30
0.0
 10
41.7560681688
 20
78.219963485
 30
0.0
  0
SPLINE
  5
437
100
AcDbEntity
  8
0
100
AcDbSpline
 62
7
  6
BYLAYER
 70
0
 71
3
 72
15
 73
11
 74
0
 42
0.0000001
 43
0.0000001
 44
0.0000000001
 40
0.0
 40
0.0
 40
0.0
 40
0.0
 40
0.0278195005
 40
0.0613324576
 40
0.1453391664
 40
0.2509103441
 40
0.3758103804
 40
0.5169331865
 40
0.6707102931
 40
1.0
 40
1.0
 40
1.0
 40
1.0
 10
47.04793048
 20
78.2204645534
 30
0.0
 10
47.0272914388
 20
78.2344558803
 30
0.0
 10
46.9791696805
 20
78.2614204127
 30
0.0
 10
46.8594934763
 20
78.3131733641
 30
0.0
 10
46.6676036781
 20
78.3712692445
 30
0.0
 10
46.3919529838
 20
78.4307029188
 30
0.0
 10
46.0626880061
 20
78.4819172563
 30
0.0
 10
45.688641738
 20
78.5235289644
 30
0.0
 10
45.1306558086
 20
78.5652243973
 30
0.0
 10
44.697508537
 20
78.5770175074
 30
0.0
 10
44.402368057
 20
78.5770175074
 30
0.0
  0
SPLINE
  5
438
100
AcDbEntity
  8
0
100
AcDbSpline
 62
7
  6
BYLAYER
 70
0
 71
3
 72
13
 73
9
 74
0
 42
0.0000001
 43
0.0000001
 44
0.0000000001
 40
0.0
 40
0.0
 40
0.0
 40
0.0
 40
0.321220435
 40
0.6117819671
 40
0.736915339
 40
0.8446747054
 40
0.9328323019
 40
1.0
 40
1.0
 40
1.0
 40
1.0
 10
44.402368057
 20
98.3659900286
 30
0.0
 10
44.2370042219
 20
98.3659900286
 30
0.0
 10
43.9220152328
 20
98.3576516704
 30
0.0
 10
43.5436270665
 20
98.3260926915
 30
0.0
 10
43.2769039195
 20
98.2872010424
 30
0.0
 10
43.1146725965
 20
98.2549178714
 30
0.0
 10
42.9840207519
 20
98.2190204946
 30
0.0
 10
42.9092450633
 20
98.1894714665
 30
0.0
 10
42.8788397961
 20
98.1730049366
 30
0.0
  0
SPLINE
  5
439
100
AcDbEntity
  8
0
100
AcDbSpline
 62
7
  6
BYLAYER
 70
0
 71
3
 72
16
 73
12
 74
0
 42
0.0000001
 43
0.0000001
 44
0.0000000001
 40
0.0
 40
0.0
 40
0.0
 40
0.0
 40
0.3453247631
 40
0.5046546815
 40
0.6485326491
 40
0.7727589477
 40
0.8738101444
 40
0.9149153914
 40
0.9495162558
 40
0.9777308744
 40
1.0
 40
1.0
 40
1.0
 40
1.0
 10
44.402368057
 20
97.3755601355
 30
0.0
 10
44.1692546732
 20
97.3755601355
 30
0.0
 10
43.8284096142
 20
97.3656208406
 30
0.0
 10
43.3919881885
 20
97.3300745087
 30
0.0
 10
43.1054716551
 20
97.2949802127
 30
0.0
 10
42.8598987823
 20
97.2520560219
 30
0.0
 10
42.6850502272
 20
97.2087151753
 30
0.0
 10
42.5722786301
 20
97.1694768461
 30
0.0
 10
42.5080190888
 20
97.141012511
 30
0.0
 10
42.4584343311
 20
97.1117933052
 30
0.0
 10
42.4323128106
 20
97.0892680174
 30
0.0
 10
42.4227253379
 20
97.0776892296
 30
0.0
  0
SPLINE
  5
43A
100
AcDbEntity
  8
0
100
AcDbSpline
 62
7
  6
BYLAYER
 70
0
 71
3
 72
9
 73
5
 74
0
 42
0.0000001
 43
0.0000001
 44
0.0000000001
 40
0.0
 40
0.0
 40
0.0
 40
0.0
 40
0.2689950655
 40
1.0
 40
1.0
 40
1.0
 40
1.0
 10
42.4227253379
 20
97.0776892296
 30
0.0
 10
42.4209415741
 20
97.0755349785
 30
0.0
 10
42.4145785918
 20
97.0673177553
 30
0.0
 10
42.4093712948
 20
97.0581350407
 30
0.0
 10
42.4066888893
 20
97.0510234388
 30
0.0
  0
SPLINE
  5
43B
100
AcDbEntity
  8
0
100
AcDbSpline
 62
7
  6
BYLAYER
 70
0
 71
3
 72
13
 73
9
 74
0
 42
0.0000001
 43
0.0000001
 44
0.0000000001
 40
0.0
 40
0.0
 40
0.0
 40
0.0
 40
0.321220435
 40
0.6117819671
 40
0.736915339
 40
0.8446747054
 40
0.9328323019
 40
1.0
 40
1.0
 40
1.0
 40
1.0
 10
44.402368057
 20
98.3659900286
 30
0.0
 10
44.567731892
 20
98.3659900286
 30
0.0
 10
44.8827208811
 20
98.3576516704
 30
0.0
 10
45.2611090474
 20
98.3260926915
 30
0.0
 10
45.5278321944
 20
98.2872010424
 30
0.0
 10
45.6900635174
 20
98.2549178714
 30
0.0
 10
45.820715362
 20
98.2190204946
 30
0.0
 10
45.8954910506
 20
98.1894714665
 30
0.0
 10
45.9258963178
 20
98.1730049366
 30
0.0
  0
SPLINE
  5
43C
100
AcDbEntity
  8
0
100
AcDbSpline
 62
7
  6
BYLAYER
 70
0
 71
3
 72
16
 73
12
 74
0
 42
0.0000001
 43
0.0000001
 44
0.0000000001
 40
0.0
 40
0.0
 40
0.0
 40
0.0
 40
0.3453247631
 40
0.5046546815
 40
0.6485326491
 40
0.7727589477
 40
0.8738101444
 40
0.9149153914
 40
0.9495162558
 40
0.9777308744
 40
1.0
 40
1.0
 40
1.0
 40
1.0
 10
44.402368057
 20
97.3755601355
 30
0.0
 10
44.6354814407
 20
97.3755601355
 30
0.0
 10
44.9763264997
 20
97.3656208406
 30
0.0
 10
45.4127479254
 20
97.3300745087
 30
0.0
 10
45.6992644589
 20
97.2949802127
 30
0.0
 10
45.9448373316
 20
97.2520560219
 30
0.0
 10
46.1196858868
 20
97.2087151753
 30
0.0
 10
46.2324574839
 20
97.1694768461
 30
0.0
 10
46.2967170252
 20
97.141012511
 30
0.0
 10
46.3463017828
 20
97.1117933052
 30
0.0
 10
46.3724233033
 20
97.0892680174
 30
0.0
 10
46.382010776
 20
97.0776892296
 30
0.0
  0
SPLINE
  5
43D
100
AcDbEntity
  8
0
100
AcDbSpline
 62
7
  6
BYLAYER
 70
0
 71
3
 72
9
 73
5
 74
0
 42
0.0000001
 43
0.0000001
 44
0.0000000001
 40
0.0
 40
0.0
 40
0.0
 40
0.0
 40
0.2689950655
 40
1.0
 40
1.0
 40
1.0
 40
1.0
 10
46.382010776
 20
97.0776892296
 30
0.0
 10
46.3837945398
 20
97.0755349785
 30
0.0
 10
46.3901575221
 20
97.0673177553
 30
0.0
 10
46.3953648191
 20
97.0581350407
 30
0.0
 10
46.3980472246
 20
97.0510234388
 30
0.0
  0
SPLINE
  5
43E
100
AcDbEntity
  8
0
100
AcDbSpline
 62
7
  6
BYLAYER
 70
0
 71
3
 72
19
 73
15
 74
0
 42
0.0000001
 43
0.0000001
 44
0.0000000001
 40
0.0
 40
0.0
 40
0.0
 40
0.0
 40
0.1875016375
 40
0.3682598812
 40
0.5351828509
 40
0.6823900409
 40
0.7469481388
 40
0.8047023665
 40
0.8552537586
 40
0.8982783283
 40
0.9336525994
 40
0.9616117898
 40
0.9829748774
 40
1.0
 40
1.0
 40
1.0
 40
1.0
 10
44.402368057
 20
96.3916206293
 30
0.0
 10
44.272105055
 20
96.3916206293
 30
0.0
 10
44.0162429642
 20
96.3873066599
 30
0.0
 10
43.6448452
 20
96.3681773304
 30
0.0
 10
43.3023474954
 20
96.3371116014
 30
0.0
 10
43.041580497
 20
96.3011046769
 30
0.0
 10
42.8575660217
 20
96.2662728277
 30
0.0
 10
42.7405219355
 20
96.2392094414
 30
0.0
 10
42.6393482768
 20
96.2104092132
 30
0.0
 10
42.5549435628
 20
96.1801409481
 30
0.0
 10
42.4878861089
 20
96.1486899645
 30
0.0
 10
42.4385306254
 20
96.1161962672
 30
0.0
 10
42.4062357782
 20
96.0822703037
 30
0.0
 10
42.3974620558
 20
96.0555905629
 30
0.0
 10
42.3974021944
 20
96.043762852
 30
0.0
  0
SPLINE
  5
43F
100
AcDbEntity
  8
0
100
AcDbSpline
 62
7
  6
BYLAYER
 70
0
 71
3
 72
19
 73
15
 74
0
 42
0.0000001
 43
0.0000001
 44
0.0000000001
 40
0.0
 40
0.0
 40
0.0
 40
0.0
 40
0.1875016375
 40
0.3682598812
 40
0.5351828509
 40
0.6823900409
 40
0.7469481388
 40
0.8047023665
 40
0.8552537586
 40
0.8982783283
 40
0.9336525994
 40
0.9616117898
 40
0.9829748774
 40
1.0
 40
1.0
 40
1.0
 40
1.0
 10
44.402368057
 20
96.3916206293
 30
0.0
 10
44.5326310589
 20
96.3916206293
 30
0.0
 10
44.7884931497
 20
96.3873066599
 30
0.0
 10
45.1598909139
 20
96.3681773304
 30
0.0
 10
45.5023886186
 20
96.3371116014
 30
0.0
 10
45.7631556169
 20
96.3011046769
 30
0.0
 10
45.9471700922
 20
96.2662728277
 30
0.0
 10
46.0642141784
 20
96.2392094414
 30
0.0
 10
46.1653878371
 20
96.2104092132
 30
0.0
 10
46.2497925511
 20
96.1801409481
 30
0.0
 10
46.316850005
 20
96.1486899645
 30
0.0
 10
46.3662054886
 20
96.1161962672
 30
0.0
 10
46.3985003357
 20
96.0822703037
 30
0.0
 10
46.4072740582
 20
96.0555905629
 30
0.0
 10
46.4073339195
 20
96.043762852
 30
0.0
  0
SPLINE
  5
440
100
AcDbEntity
  8
0
100
AcDbSpline
 62
7
  6
BYLAYER
 70
0
 71
3
 72
33
 73
29
 74
0
 42
0.0000001
 43
0.0000001
 44
0.0000000001
 40
0.0
 40
0.0
 40
0.0
 40
0.0
 40
0.0854818875
 40
0.1328329689
 40
0.164240409
 40
0.1856275074
 40
0.2005762233
 40
0.2217612299
 40
0.2512130102
 40
0.2738692573
 40
0.2903867703
 40
0.3024852462
 40
0.3219426415
 40
0.3410711777
 40
0.3735408763
 40
0.4089004334
 40
0.4444578698
 40
0.480430335
 40
0.4976240478
 40
0.5095986879
 40
0.5243954947
 40
0.5432643825
 40
0.5681187747
 40
0.601648604
 40
0.6486533781
 40
0.7178421761
 40
0.8241582457
 40
1.0
 40
1.0
 40
1.0
 40
1.0
 10
44.0914747036
 20
77.8806116697
 30
0.0
 10
44.0698313978
 20
77.8806116697
 30
0.0
 10
44.0361972608
 20
77.8805130993
 30
0.0
 10
43.9946203254
 20
77.879816197
 30
0.0
 10
43.9692694187
 20
77.8790796736
 30
0.0
 10
43.9521447228
 20
77.8782868774
 30
0.0
 10
43.9375732028
 20
77.8775719185
 30
0.0
 10
43.921158694
 20
77.8762017262
 30
0.0
 10
43.9020242776
 20
77.8741169213
 30
0.0
 10
43.8867871846
 20
77.8717355886
 30
0.0
 10
43.8700764369
 20
77.8650179814
 30
0.0
 10
43.8798286579
 20
77.8525772883
 30
0.0
 10
43.8917091446
 20
77.8493543895
 30
0.0
 10
43.9086100199
 20
77.8425731207
 30
0.0
 10
43.9300276197
 20
77.8375792059
 30
0.0
 10
43.955516272
 20
77.8315605277
 30
0.0
 10
43.9821306572
 20
77.8266242791
 30
0.0
 10
44.004284633
 20
77.822899771
 30
0.0
 10
44.0205933928
 20
77.8204386089
 30
0.0
 10
44.0316081116
 20
77.8188295287
 30
0.0
 10
44.0430539013
 20
77.8172382776
 30
0.0
 10
44.0577442252
 20
77.8153054645
 30
0.0
 10
44.0771577083
 20
77.8129145895
 30
0.0
 10
44.1036767462
 20
77.8099499007
 30
0.0
 10
44.1414042056
 20
77.8062323426
 30
0.0
 10
44.197566739
 20
77.8017441228
 30
0.0
 10
44.2863927175
 20
77.7967238593
 30
0.0
 10
44.3578463814
 20
77.7952777703
 30
0.0
 10
44.402368057
 20
77.7952777703
 30
0.0
  0
SPLINE
  5
441
100
AcDbEntity
  8
0
100
AcDbSpline
 62
7
  6
BYLAYER
 70
0
 71
3
 72
18
 73
14
 74
0
 42
0.0000001
 43
0.0000001
 44
0.0000000001
 40
0.0
 40
0.0
 40
0.0
 40
0.0
 40
0.1362941224
 40
0.2617968316
 40
0.3662204721
 40
0.4427028348
 40
0.4877402381
 40
0.5114391795
 40
0.5555676479
 40
0.6316047411
 40
0.736578803
 40
0.8631751205
 40
1.0
 40
1.0
 40
1.0
 40
1.0
 10
34.402368057
 20
61.6437250301
 30
0.0
 10
34.186720244
 20
61.6437250301
 30
0.0
 10
33.7714089275
 20
61.6532303568
 30
0.0
 10
33.1973451884
 20
61.6990043149
 30
0.0
 10
32.7057604887
 20
61.7618872519
 30
0.0
 10
32.3834374845
 20
61.8583417344
 30
0.0
 10
32.1236365473
 20
61.9315946331
 30
0.0
 10
32.1176618274
 20
62.1462140498
 30
0.0
 10
32.3772881427
 20
62.2231528807
 30
0.0
 10
32.696519094
 20
62.3189600469
 30
0.0
 10
33.1907632649
 20
62.383277365
 30
0.0
 10
33.7679188706
 20
62.4293786789
 30
0.0
 10
34.1858804675
 20
62.4390336838
 30
0.0
 10
34.402368057
 20
62.4390336838
 30
0.0
  0
SPLINE
  5
442
100
AcDbEntity
  8
0
100
AcDbSpline
 62
7
  6
BYLAYER
 70
0
 71
3
 72
18
 73
14
 74
0
 42
0.0000001
 43
0.0000001
 44
0.0000000001
 40
0.0
 40
0.0
 40
0.0
 40
0.0
 40
0.1362941224
 40
0.2617968316
 40
0.3662204721
 40
0.4427028348
 40
0.4877402381
 40
0.5114391795
 40
0.5555676479
 40
0.6316047411
 40
0.736578803
 40
0.8631751205
 40
1.0
 40
1.0
 40
1.0
 40
1.0
 10
34.402368057
 20
62.4390336838
 30
0.0
 10
34.6180158699
 20
62.4390336838
 30
0.0
 10
35.0333271864
 20
62.4295283571
 30
0.0
 10
35.6073909255
 20
62.383754399
 30
0.0
 10
36.0989756252
 20
62.320871462
 30
0.0
 10
36.4212986294
 20
62.2244169795
 30
0.0
 10
36.6810995666
 20
62.1511640808
 30
0.0
 10
36.6870742865
 20
61.9365446641
 30
0.0
 10
36.4274479712
 20
61.8596058332
 30
0.0
 10
36.1082170199
 20
61.763798667
 30
0.0
 10
35.6139728491
 20
61.6994813489
 30
0.0
 10
35.0368172433
 20
61.653380035
 30
0.0
 10
34.6188556464
 20
61.6437250301
 30
0.0
 10
34.402368057
 20
61.6437250301
 30
0.0
  0
SPLINE
  5
443
100
AcDbEntity
  8
0
100
AcDbSpline
 62
7
  6
BYLAYER
 70
0
 71
3
 72
18
 73
14
 74
0
 42
0.0000001
 43
0.0000001
 44
0.0000000001
 40
0.0
 40
0.0
 40
0.0
 40
0.0
 40
0.1362941224
 40
0.2617968316
 40
0.3662204721
 40
0.4427028348
 40
0.4877402381
 40
0.5114391795
 40
0.5555676479
 40
0.6316047411
 40
0.736578803
 40
0.8631751205
 40
1.0
 40
1.0
 40
1.0
 40
1.0
 10
34.402368057
 20
62.3215336838
 30
0.0
 10
34.186720244
 20
62.3215336838
 30
0.0
 10
33.7714089275
 20
62.3120283571
 30
0.0
 10
33.1973451884
 20
62.266254399
 30
0.0
 10
32.7057604887
 20
62.203371462
 30
0.0
 10
32.3834374845
 20
62.1069169795
 30
0.0
 10
32.1236365473
 20
62.0336640808
 30
0.0
 10
32.1176618274
 20
61.8190446641
 30
0.0
 10
32.3772881427
 20
61.7421058332
 30
0.0
 10
32.696519094
 20
61.646298667
 30
0.0
 10
33.1907632649
 20
61.5819813489
 30
0.0
 10
33.7679188706
 20
61.535880035
 30
0.0
 10
34.1858804675
 20
61.5262250301
 30
0.0
 10
34.402368057
 20
61.5262250301
 30
0.0
  0
SPLINE
  5
444
100
AcDbEntity
  8
0
100
AcDbSpline
 62
7
  6
BYLAYER
 70
0
 71
3
 72
18
 73
14
 74
0
 42
0.0000001
 43
0.0000001
 44
0.0000000001
 40
0.0
 40
0.0
 40
0.0
 40
0.0
 40
0.1362941224
 40
0.2617968316
 40
0.3662204721
 40
0.4427028348
 40
0.4877402381
 40
0.5114391795
 40
0.5555676479
 40
0.6316047411
 40
0.736578803
 40
0.8631751205
 40
1.0
 40
1.0
 40
1.0
 40
1.0
 10
34.402368057
 20
61.5262250301
 30
0.0
 10
34.6180158699
 20
61.5262250301
 30
0.0
 10
35.0333271864
 20
61.5357303568
 30
0.0
 10
35.6073909255
 20
61.5815043149
 30
0.0
 10
36.0989756252
 20
61.6443872519
 30
0.0
 10
36.4212986294
 20
61.7408417344
 30
0.0
 10
36.6810995666
 20
61.8140946331
 30
0.0
 10
36.6870742865
 20
62.0287140498
 30
0.0
 10
36.4274479712
 20
62.1056528807
 30
0.0
 10
36.1082170199
 20
62.2014600469
 30
0.0
 10
35.6139728491
 20
62.265777365
 30
0.0
 10
35.0368172433
 20
62.3118786789
 30
0.0
 10
34.6188556464
 20
62.3215336838
 30
0.0
 10
34.402368057
 20
62.3215336838
 30
0.0
  0
SPLINE
  5
445
100
AcDbEntity
  8
0
100
AcDbSpline
 62
7
  6
BYLAYER
 70
0
 71
3
 72
18
 73
14
 74
0
 42
0.0000001
 43
0.0000001
 44
0.0000000001
 40
0.0
 40
0.0
 40
0.0
 40
0.0
 40
0.1362941224
 40
0.2617968316
 40
0.3662204721
 40
0.4427028348
 40
0.4877402381
 40
0.5114391795
 40
0.5555676479
 40
0.6316047411
 40
0.736578803
 40
0.8631751205
 40
1.0
 40
1.0
 40
1.0
 40
1.0
 10
44.602368057
 20
14.4437250301
 30
0.0
 10
44.386720244
 20
14.4437250301
 30
0.0
 10
43.9714089275
 20
14.4532303568
 30
0.0
 10
43.3973451884
 20
14.499004315
 30
0.0
 10
42.9057604887
 20
14.5618872519
 30
0.0
 10
42.5834374845
 20
14.6583417344
 30
0.0
 10
42.3236365473
 20
14.7315946331
 30
0.0
 10
42.3176618274
 20
14.9462140498
 30
0.0
 10
42.5772881427
 20
15.0231528807
 30
0.0
 10
42.896519094
 20
15.118960047
 30
0.0
 10
43.3907632649
 20
15.183277365
 30
0.0
 10
43.9679188706
 20
15.2293786789
 30
0.0
 10
44.3858804675
 20
15.2390336838
 30
0.0
 10
44.602368057
 20
15.2390336838
 30
0.0
  0
SPLINE
  5
446
100
AcDbEntity
  8
0
100
AcDbSpline
 62
7
  6
BYLAYER
 70
0
 71
3
 72
18
 73
14
 74
0
 42
0.0000001
 43
0.0000001
 44
0.0000000001
 40
0.0
 40
0.0
 40
0.0
 40
0.0
 40
0.1362941224
 40
0.2617968316
 40
0.3662204721
 40
0.4427028348
 40
0.4877402381
 40
0.5114391795
 40
0.5555676479
 40
0.6316047411
 40
0.736578803
 40
0.8631751205
 40
1.0
 40
1.0
 40
1.0
 40
1.0
 10
44.602368057
 20
15.2390336838
 30
0.0
 10
44.8180158699
 20
15.2390336838
 30
0.0
 10
45.2333271864
 20
15.2295283571
 30
0.0
 10
45.8073909255
 20
15.183754399
 30
0.0
 10
46.2989756252
 20
15.120871462
 30
0.0
 10
46.6212986294
 20
15.0244169796
 30
0.0
 10
46.8810995666
 20
14.9511640808
 30
0.0
 10
46.8870742865
 20
14.7365446641
 30
0.0
 10
46.6274479712
 20
14.6596058332
 30
0.0
 10
46.3082170199
 20
14.563798667
 30
0.0
 10
45.8139728491
 20
14.4994813489
 30
0.0
 10
45.2368172433
 20
14.453380035
 30
0.0
 10
44.8188556464
 20
14.4437250301
 30
0.0
 10
44.602368057
 20
14.4437250301
 30
0.0
  0
SPLINE
  5
447
100
AcDbEntity
  8
0
100
AcDbSpline
 62
7
  6
BYLAYER
 70
0
 71
3
 72
18
 73
14
 74
0
 42
0.0000001
 43
0.0000001
 44
0.0000000001
 40
0.0
 40
0.0
 40
0.0
 40
0.0
 40
0.1362941224
 40
0.2617968316
 40
0.3662204721
 40
0.4427028348
 40
0.4877402381
 40
0.5114391795
 40
0.5555676479
 40
0.6316047411
 40
0.736578803
 40
0.8631751205
 40
1.0
 40
1.0
 40
1.0
 40
1.0
 10
54.402368057
 20
14.4437250301
 30
0.0
 10
54.186720244
 20
14.4437250301
 30
0.0
 10
53.7714089275
 20
14.4532303568
 30
0.0
 10
53.1973451884
 20
14.499004315
 30
0.0
 10
52.7057604887
 20
14.5618872519
 30
0.0
 10
52.3834374845
 20
14.6583417344
 30
0.0
 10
52.1236365473
 20
14.7315946331
 30
0.0
 10
52.1176618274
 20
14.9462140498
 30
0.0
 10
52.3772881427
 20
15.0231528807
 30
0.0
 10
52.696519094
 20
15.118960047
 30
0.0
 10
53.1907632649
 20
15.183277365
 30
0.0
 10
53.7679188706
 20
15.2293786789
 30
0.0
 10
54.1858804675
 20
15.2390336838
 30
0.0
 10
54.402368057
 20
15.2390336838
 30
0.0
  0
SPLINE
  5
448
100
AcDbEntity
  8
0
100
AcDbSpline
 62
7
  6
BYLAYER
 70
0
 71
3
 72
18
 73
14
 74
0
 42
0.0000001
 43
0.0000001
 44
0.0000000001
 40
0.0
 40
0.0
 40
0.0
 40
0.0
 40
0.1362941224
 40
0.2617968316
 40
0.3662204721
 40
0.4427028348
 40
0.4877402381
 40
0.5114391795
 40
0.5555676479
 40
0.6316047411
 40
0.736578803
 40
0.8631751205
 40
1.0
 40
1.0
 40
1.0
 40
1.0
 10
54.402368057
 20
15.2390336838
 30
0.0
 10
54.6180158699
 20
15.2390336838
 30
0.0
 10
55.0333271864
 20
15.2295283571
 30
0.0
 10
55.6073909255
 20
15.183754399
 30
0.0
 10
56.0989756252
 20
15.120871462
 30
0.0
 10
56.4212986294
 20
15.0244169796
 30
0.0
 10
56.6810995666
 20
14.9511640808
 30
0.0
 10
56.6870742865
 20
14.7365446641
 30
0.0
 10
56.4274479712
 20
14.6596058332
 30
0.0
 10
56.1082170199
 20
14.563798667
 30
0.0
 10
55.6139728491
 20
14.4994813489
 30
0.0
 10
55.0368172433
 20
14.453380035
 30
0.0
 10
54.6188556464
 20
14.4437250301
 30
0.0
 10
54.402368057
 20
14.4437250301
 30
0.0
  0
SPLINE
  5
449
100
AcDbEntity
  8
0
100
AcDbSpline
 62
7
  6
BYLAYER
 70
0
 71
3
 72
18
 73
14
 74
0
 42
0.0000001
 43
0.0000001
 44
0.0000000001
 40
0.0
 40
0.0
 40
0.0
 40
0.0
 40
0.1362941224
 40
0.2617968316
 40
0.3662204721
 40
0.4427028348
 40
0.4877402381
 40
0.5114391795
 40
0.5555676479
 40
0.6316047411
 40
0.736578803
 40
0.8631751205
 40
1.0
 40
1.0
 40
1.0
 40
1.0
 10
44.602368057
 20
15.1215336838
 30
0.0
 10
44.386720244
 20
15.1215336838
 30
0.0
 10
43.9714089275
 20
15.1120283571
 30
0.0
 10
43.3973451884
 20
15.066254399
 30
0.0
 10
42.9057604887
 20
15.003371462
 30
0.0
 10
42.5834374845
 20
14.9069169796
 30
0.0
 10
42.3236365473
 20
14.8336640808
 30
0.0
 10
42.3176618274
 20
14.6190446641
 30
0.0
 10
42.5772881427
 20
14.5421058332
 30
0.0
 10
42.896519094
 20
14.446298667
 30
0.0
 10
43.3907632649
 20
14.3819813489
 30
0.0
 10
43.9679188706
 20
14.335880035
 30
0.0
 10
44.3858804675
 20
14.3262250301
 30
0.0
 10
44.602368057
 20
14.3262250301
 30
0.0
  0
SPLINE
  5
44A
100
AcDbEntity
  8
0
100
AcDbSpline
 62
7
  6
BYLAYER
 70
0
 71
3
 72
18
 73
14
 74
0
 42
0.0000001
 43
0.0000001
 44
0.0000000001
 40
0.0
 40
0.0
 40
0.0
 40
0.0
 40
0.1362941224
 40
0.2617968316
 40
0.3662204721
 40
0.4427028348
 40
0.4877402381
 40
0.5114391795
 40
0.5555676479
 40
0.6316047411
 40
0.736578803
 40
0.8631751205
 40
1.0
 40
1.0
 40
1.0
 40
1.0
 10
44.602368057
 20
14.3262250301
 30
0.0
 10
44.8180158699
 20
14.3262250301
 30
0.0
 10
45.2333271864
 20
14.3357303568
 30
0.0
 10
45.8073909255
 20
14.381504315
 30
0.0
 10
46.2989756252
 20
14.4443872519
 30
0.0
 10
46.6212986294
 20
14.5408417344
 30
0.0
 10
46.8810995666
 20
14.6140946331
 30
0.0
 10
46.8870742865
 20
14.8287140498
 30
0.0
 10
46.6274479712
 20
14.9056528807
 30
0.0
 10
46.3082170199
 20
15.001460047
 30
0.0
 10
45.8139728491
 20
15.065777365
 30
0.0
 10
45.2368172433
 20
15.1118786789
 30
0.0
 10
44.8188556464
 20
15.1215336838
 30
0.0
 10
44.602368057
 20
15.1215336838
 30
0.0
  0
SPLINE
  5
44B
100
AcDbEntity
  8
0
100
AcDbSpline
 62
7
  6
BYLAYER
 70
0
 71
3
 72
18
 73
14
 74
0
 42
0.0000001
 43
0.0000001
 44
0.0000000001
 40
0.0
 40
0.0
 40
0.0
 40
0.0
 40
0.1362941224
 40
0.2617968316
 40
0.3662204721
 40
0.4427028348
 40
0.4877402381
 40
0.5114391795
 40
0.5555676479
 40
0.6316047411
 40
0.736578803
 40
0.8631751205
 40
1.0
 40
1.0
 40
1.0
 40
1.0
 10
54.402368057
 20
15.1215336838
 30
0.0
 10
54.186720244
 20
15.1215336838
 30
0.0
 10
53.7714089275
 20
15.1120283571
 30
0.0
 10
53.1973451884
 20
15.066254399
 30
0.0
 10
52.7057604887
 20
15.003371462
 30
0.0
 10
52.3834374845
 20
14.9069169796
 30
0.0
 10
52.1236365473
 20
14.8336640808
 30
0.0
 10
52.1176618274
 20
14.6190446641
 30
0.0
 10
52.3772881427
 20
14.5421058332
 30
0.0
 10
52.696519094
 20
14.446298667
 30
0.0
 10
53.1907632649
 20
14.3819813489
 30
0.0
 10
53.7679188706
 20
14.335880035
 30
0.0
 10
54.1858804675
 20
14.3262250301
 30
0.0
 10
54.402368057
 20
14.3262250301
 30
0.0
  0
SPLINE
  5
44C
100
AcDbEntity
  8
0
100
AcDbSpline
 62
7
  6
BYLAYER
 70
0
 71
3
 72
18
 73
14
 74
0
 42
0.0000001
 43
0.0000001
 44
0.0000000001
 40
0.0
 40
0.0
 40
0.0
 40
0.0
 40
0.1362941224
 40
0.2617968316
 40
0.3662204721
 40
0.4427028348
 40
0.4877402381
 40
0.5114391795
 40
0.5555676479
 40
0.6316047411
 40
0.736578803
 40
0.8631751205
 40
1.0
 40
1.0
 40
1.0
 40
1.0
 10
54.402368057
 20
14.3262250301
 30
0.0
 10
54.6180158699
 20
14.3262250301
 30
0.0
 10
55.0333271864
 20
14.3357303568
 30
0.0
 10
55.6073909255
 20
14.381504315
 30
0.0
 10
56.0989756252
 20
14.4443872519
 30
0.0
 10
56.4212986294
 20
14.5408417344
 30
0.0
 10
56.6810995666
 20
14.6140946331
 30
0.0
 10
56.6870742865
 20
14.8287140498
 30
0.0
 10
56.4274479712
 20
14.9056528807
 30
0.0
 10
56.1082170199
 20
15.001460047
 30
0.0
 10
55.6139728491
 20
15.065777365
 30
0.0
 10
55.0368172433
 20
15.1118786789
 30
0.0
 10
54.6188556464
 20
15.1215336838
 30
0.0
 10
54.402368057
 20
15.1215336838
 30
0.0
  0
SPLINE
  5
44D
100
AcDbEntity
  8
0
100
AcDbSpline
 62
7
  6
BYLAYER
 70
0
 71
3
 72
18
 73
14
 74
0
 42
0.0000001
 43
0.0000001
 44
0.0000000001
 40
0.0
 40
0.0
 40
0.0
 40
0.0
 40
0.1359679956
 40
0.2612739151
 40
0.3662242647
 40
0.4431293473
 40
0.4880770216
 40
0.5119229784
 40
0.5568706527
 40
0.6337757353
 40
0.7387260849
 40
0.8640320044
 40
1.0
 40
1.0
 40
1.0
 40
1.0
 10
44.402368057
 20
96.3916206293
 30
0.0
 10
44.590718109
 20
96.3916206293
 30
0.0
 10
44.953634018
 20
96.3833200178
 30
0.0
 10
45.4561088024
 20
96.3434062374
 30
0.0
 10
45.887979374
 20
96.2881416848
 30
0.0
 10
46.1703023167
 20
96.203746017
 30
0.0
 10
46.3999919614
 20
96.1382264006
 30
0.0
 10
46.3999919614
 20
95.9486852318
 30
0.0
 10
46.1703023167
 20
95.8831656153
 30
0.0
 10
45.887979374
 20
95.7987699475
 30
0.0
 10
45.4561088024
 20
95.7435053949
 30
0.0
 10
44.953634018
 20
95.7035916145
 30
0.0
 10
44.590718109
 20
95.695291003
 30
0.0
 10
44.402368057
 20
95.695291003
 30
0.0
  0
SPLINE
  5
44E
100
AcDbEntity
  8
0
100
AcDbSpline
 62
7
  6
BYLAYER
 70
0
 71
3
 72
18
 73
14
 74
0
 42
0.0000001
 43
0.0000001
 44
0.0000000001
 40
0.0
 40
0.0
 40
0.0
 40
0.0
 40
0.1359679956
 40
0.2612739151
 40
0.3662242647
 40
0.4431293473
 40
0.4880770216
 40
0.5119229784
 40
0.5568706527
 40
0.6337757353
 40
0.7387260849
 40
0.8640320044
 40
1.0
 40
1.0
 40
1.0
 40
1.0
 10
44.402368057
 20
96.3916206293
 30
0.0
 10
44.2140180049
 20
96.3916206293
 30
0.0
 10
43.8511020959
 20
96.3833200178
 30
0.0
 10
43.3486273115
 20
96.3434062374
 30
0.0
 10
42.91675674
 20
96.2881416848
 30
0.0
 10
42.6344337973
 20
96.203746017
 30
0.0
 10
42.4047441525
 20
96.1382264006
 30
0.0
 10
42.4047441525
 20
95.9486852318
 30
0.0
 10
42.6344337973
 20
95.8831656153
 30
0.0
 10
42.91675674
 20
95.7987699475
 30
0.0
 10
43.3486273115
 20
95.7435053949
 30
0.0
 10
43.8511020959
 20
95.7035916145
 30
0.0
 10
44.2140180049
 20
95.695291003
 30
0.0
 10
44.402368057
 20
95.695291003
 30
0.0
  0
SPLINE
  5
44F
100
AcDbEntity
  8
0
100
AcDbSpline
 62
7
  6
BYLAYER
 70
0
 71
3
 72
18
 73
14
 74
0
 42
0.0000001
 43
0.0000001
 44
0.0000000001
 40
0.0
 40
0.0
 40
0.0
 40
0.0
 40
0.1359679956
 40
0.2612739151
 40
0.3662242647
 40
0.4431293473
 40
0.4880770216
 40
0.5119229784
 40
0.5568706527
 40
0.6337757353
 40
0.7387260849
 40
0.8640320044
 40
1.0
 40
1.0
 40
1.0
 40
1.0
 10
44.402368057
 20
97.3755601355
 30
0.0
 10
44.5902482754
 20
97.3755601355
 30
0.0
 10
44.9522589015
 20
97.3672802296
 30
0.0
 10
45.4534802775
 20
97.3274660129
 30
0.0
 10
45.8842735608
 20
97.2723393161
 30
0.0
 10
46.1658922573
 20
97.1881541708
 30
0.0
 10
46.3950089481
 20
97.122797991
 30
0.0
 10
46.3950089481
 20
96.933729627
 30
0.0
 10
46.1658922573
 20
96.8683734473
 30
0.0
 10
45.8842735608
 20
96.784188302
 30
0.0
 10
45.4534802775
 20
96.7290616052
 30
0.0
 10
44.9522589015
 20
96.6892473885
 30
0.0
 10
44.5902482754
 20
96.6809674826
 30
0.0
 10
44.402368057
 20
96.6809674826
 30
0.0
  0
SPLINE
  5
450
100
AcDbEntity
  8
0
100
AcDbSpline
 62
7
  6
BYLAYER
 70
0
 71
3
 72
18
 73
14
 74
0
 42
0.0000001
 43
0.0000001
 44
0.0000000001
 40
0.0
 40
0.0
 40
0.0
 40
0.0
 40
0.1359679956
 40
0.2612739151
 40
0.3662242647
 40
0.4431293473
 40
0.4880770216
 40
0.5119229784
 40
0.5568706527
 40
0.6337757353
 40
0.7387260849
 40
0.8640320044
 40
1.0
 40
1.0
 40
1.0
 40
1.0
 10
44.402368057
 20
98.3659900286
 30
0.0
 10
44.5526722422
 20
98.3659900286
 30
0.0
 10
44.8422807632
 20
98.3593661034
 30
0.0
 10
45.243257892
 20
98.3275147279
 30
0.0
 10
45.5878925426
 20
98.2834133674
 30
0.0
 10
45.8131875155
 20
98.2160652464
 30
0.0
 10
45.9964808809
 20
98.163780299
 30
0.0
 10
45.9964808809
 20
98.0125255972
 30
0.0
 10
45.8131875155
 20
97.9602406498
 30
0.0
 10
45.5878925426
 20
97.8928925289
 30
0.0
 10
45.243257892
 20
97.8487911683
 30
0.0
 10
44.8422807632
 20
97.8169397928
 30
0.0
 10
44.5526722422
 20
97.8103158676
 30
0.0
 10
44.402368057
 20
97.8103158676
 30
0.0
  0
SPLINE
  5
451
100
AcDbEntity
  8
0
100
AcDbSpline
 62
7
  6
BYLAYER
 70
0
 71
3
 72
18
 73
14
 74
0
 42
0.0000001
 43
0.0000001
 44
0.0000000001
 40
0.0
 40
0.0
 40
0.0
 40
0.0
 40
0.1359679956
 40
0.2612739151
 40
0.3662242647
 40
0.4431293473
 40
0.4880770216
 40
0.5119229784
 40
0.5568706527
 40
0.6337757353
 40
0.7387260849
 40
0.8640320044
 40
1.0
 40
1.0
 40
1.0
 40
1.0
 10
44.402368057
 20
97.3755601355
 30
0.0
 10
44.2144878385
 20
97.3755601355
 30
0.0
 10
43.8524772124
 20
97.3672802296
 30
0.0
 10
43.3512558364
 20
97.3274660129
 30
0.0
 10
42.9204625531
 20
97.2723393161
 30
0.0
 10
42.6388438566
 20
97.1881541708
 30
0.0
 10
42.4097271658
 20
97.122797991
 30
0.0
 10
42.4097271658
 20
96.933729627
 30
0.0
 10
42.6388438566
 20
96.8683734473
 30
0.0
 10
42.9204625531
 20
96.784188302
 30
0.0
 10
43.3512558364
 20
96.7290616052
 30
0.0
 10
43.8524772124
 20
96.6892473885
 30
0.0
 10
44.2144878385
 20
96.6809674826
 30
0.0
 10
44.402368057
 20
96.6809674826
 30
0.0
  0
SPLINE
  5
452
100
AcDbEntity
  8
0
100
AcDbSpline
 62
7
  6
BYLAYER
 70
0
 71
3
 72
18
 73
14
 74
0
 42
0.0000001
 43
0.0000001
 44
0.0000000001
 40
0.0
 40
0.0
 40
0.0
 40
0.0
 40
0.1359679956
 40
0.2612739151
 40
0.3662242647
 40
0.4431293473
 40
0.4880770216
 40
0.5119229784
 40
0.5568706527
 40
0.6337757353
 40
0.7387260849
 40
0.8640320044
 40
1.0
 40
1.0
 40
1.0
 40
1.0
 10
44.402368057
 20
98.3659900286
 30
0.0
 10
44.2520638717
 20
98.3659900286
 30
0.0
 10
43.9624553507
 20
98.3593661034
 30
0.0
 10
43.5614782219
 20
98.3275147279
 30
0.0
 10
43.2168435713
 20
98.2834133673
 30
0.0
 10
42.9915485984
 20
98.2160652464
 30
0.0
 10
42.808255233
 20
98.163780299
 30
0.0
 10
42.808255233
 20
98.0125255972
 30
0.0
 10
42.9915485984
 20
97.9602406498
 30
0.0
 10
43.2168435713
 20
97.8928925288
 30
0.0
 10
43.5614782219
 20
97.8487911683
 30
0.0
 10
43.9624553507
 20
97.8169397928
 30
0.0
 10
44.2520638717
 20
97.8103158676
 30
0.0
 10
44.402368057
 20
97.8103158676
 30
0.0
  0
SPLINE
  5
453
100
AcDbEntity
  8
0
100
AcDbSpline
 62
7
  6
BYLAYER
 70
0
 71
3
 72
10
 73
6
 74
0
 42
0.0000001
 43
0.0000001
 44
0.0000000001
 40
0.0
 40
0.0
 40
0.0
 40
0.0
 40
0.3345613056
 40
0.6678125049
 40
1.0
 40
1.0
 40
1.0
 40
1.0
 10
45.4023680691
 20
111.7464289984
 30
0.0
 10
45.2908513549
 20
111.7448794683
 30
0.0
 10
45.0682961911
 20
111.7380850385
 30
0.0
 10
44.7349104735
 20
111.7422854293
 30
0.0
 10
44.5131042159
 20
111.7378680614
 30
0.0
 10
44.402368057
 20
111.7378680614
 30
0.0
  0
SPLINE
  5
454
100
AcDbEntity
  8
0
100
AcDbSpline
 62
7
  6
BYLAYER
 70
0
 71
3
 72
10
 73
6
 74
0
 42
0.0000001
 43
0.0000001
 44
0.0000000001
 40
0.0
 40
0.0
 40
0.0
 40
0.0
 40
0.3321903205
 40
0.6654414946
 40
1.0
 40
1.0
 40
1.0
 40
1.0
 10
44.402368057
 20
111.7378680614
 30
0.0
 10
44.5131051584
 20
111.7378680614
 30
0.0
 10
44.7349123524
 20
111.7422851109
 30
0.0
 10
45.0682980767
 20
111.7380845461
 30
0.0
 10
45.2908522855
 20
111.7448797437
 30
0.0
 10
45.4023680669
 20
111.7464292608
 30
0.0
  0
SPLINE
  5
455
100
AcDbEntity
  8
0
100
AcDbSpline
 62
7
  6
BYLAYER
 70
0
 71
3
 72
10
 73
6
 74
0
 42
0.0000001
 43
0.0000001
 44
0.0000000001
 40
0.0
 40
0.0
 40
0.0
 40
0.0
 40
0.3321903192
 40
0.6654414934
 40
1.0
 40
1.0
 40
1.0
 40
1.0
 10
44.402368057
 20
111.7378680614
 30
0.0
 10
44.291630956
 20
111.7378680614
 30
0.0
 10
44.0698237623
 20
111.7422851112
 30
0.0
 10
43.7364380381
 20
111.7380845454
 30
0.0
 10
43.5138838288
 20
111.7448797453
 30
0.0
 10
43.402368047
 20
111.7464292624
 30
0.0
  0
SPLINE
  5
456
100
AcDbEntity
  8
0
100
AcDbSpline
 62
7
  6
BYLAYER
 70
0
 71
3
 72
10
 73
6
 74
0
 42
0.0000001
 43
0.0000001
 44
0.0000000001
 40
0.0
 40
0.0
 40
0.0
 40
0.0
 40
0.3345613041
 40
0.6678125034
 40
1.0
 40
1.0
 40
1.0
 40
1.0
 10
43.4023680448
 20
111.7464289967
 30
0.0
 10
43.5138847585
 20
111.7448794666
 30
0.0
 10
43.7364399219
 20
111.7380850392
 30
0.0
 10
44.0698256395
 20
111.742285429
 30
0.0
 10
44.2916318976
 20
111.7378680614
 30
0.0
 10
44.402368057
 20
111.7378680614
 30
0.0
  0
SPLINE
  5
457
100
AcDbEntity
  8
0
100
AcDbSpline
 62
7
  6
BYLAYER
 70
0
 71
3
 72
10
 73
6
 74
0
 42
0.0000001
 43
0.0000001
 44
0.0000000001
 40
0.0
 40
0.0
 40
0.0
 40
0.0
 40
0.338516752
 40
0.6714518052
 40
1.0
 40
1.0
 40
1.0
 40
1.0
 10
31.7431932435
 20
111.646919248
 30
0.0
 10
31.7421043672
 20
111.6053385741
 30
0.0
 10
31.7396881817
 20
111.5228724087
 30
0.0
 10
31.7377047171
 20
111.3999955426
 30
0.0
 10
31.7323105377
 20
111.3188602911
 30
0.0
 10
31.7312537263
 20
111.2785040746
 30
0.0
  0
SPLINE
  5
458
100
AcDbEntity
  8
0
100
AcDbSpline
 62
7
  6
BYLAYER
 70
0
 71
3
 72
18
 73
14
 74
0
 42
0.0000001
 43
0.0000001
 44
0.0000000001
 40
0.0
 40
0.0
 40
0.0
 40
0.0
 40
0.1362115227
 40
0.2576045216
 40
0.3557736197
 40
0.4245821973
 40
0.4624008831
 40
0.4881152743
 40
0.5395237039
 40
0.622040772
 40
0.7314527863
 40
0.8604699502
 40
1.0
 40
1.0
 40
1.0
 40
1.0
 10
44.7132614058
 20
77.8806117083
 30
0.0
 10
44.9374642519
 20
77.885429004
 30
0.0
 10
45.3626819768
 20
77.9045898908
 30
0.0
 10
45.9408588876
 20
77.9610818172
 30
0.0
 10
46.4228559204
 20
78.0435856414
 30
0.0
 10
46.7181544884
 20
78.1322361259
 30
0.0
 10
46.9646901492
 20
78.2519972652
 30
0.0
 10
46.8708789523
 20
78.4628426836
 30
0.0
 10
46.6025013147
 20
78.529452394
 30
0.0
 10
46.2228588022
 20
78.6354138721
 30
0.0
 10
45.6939097549
 20
78.6991079151
 30
0.0
 10
45.0747205754
 20
78.746894108
 30
0.0
 10
44.6320861743
 20
78.7565480131
 30
0.0
 10
44.402368057
 20
78.7565480131
 30
0.0
  0
SPLINE
  5
459
100
AcDbEntity
  8
0
100
AcDbSpline
 62
7
  6
BYLAYER
 70
0
 71
3
 72
18
 73
14
 74
0
 42
0.0000001
 43
0.0000001
 44
0.0000000001
 40
0.0
 40
0.0
 40
0.0
 40
0.0
 40
0.1395373641
 40
0.2685589458
 40
0.3779718525
 40
0.4604865569
 40
0.5118906295
 40
0.5376030149
 40
0.5754257302
 40
0.6442372243
 40
0.7424061869
 40
0.8637954436
 40
1.0
 40
1.0
 40
1.0
 40
1.0
 10
44.402368057
 20
78.7565480131
 30
0.0
 10
44.1726379388
 20
78.7565480131
 30
0.0
 10
43.7299838051
 20
78.7468932075
 30
0.0
 10
43.1107760377
 20
78.6991029577
 30
0.0
 10
42.5818175334
 20
78.635404596
 30
0.0
 10
42.2021977869
 20
78.5294394073
 30
0.0
 10
41.9338143477
 20
78.4628243093
 30
0.0
 10
41.8400660477
 20
78.2519614927
 30
0.0
 10
42.0866188975
 20
78.1322314766
 30
0.0
 10
42.3819278727
 20
78.0435709792
 30
0.0
 10
42.8639240307
 20
77.9610778966
 30
0.0
 10
43.4420834158
 20
77.9045877447
 30
0.0
 10
43.8672833685
 20
77.8854287568
 30
0.0
 10
44.0914747079
 20
77.8806117083
 30
0.0
  0
SPLINE
  5
45A
100
AcDbEntity
  8
0
100
AcDbSpline
 62
7
  6
BYLAYER
 70
0
 71
3
 72
18
 73
14
 74
0
 42
0.0000001
 43
0.0000001
 44
0.0000000001
 40
0.0
 40
0.0
 40
0.0
 40
0.0
 40
0.1364349627
 40
0.2615967675
 40
0.3657659256
 40
0.4423893738
 40
0.4876913072
 40
0.5114735014
 40
0.5558436663
 40
0.6320161804
 40
0.7367348203
 40
0.862997165
 40
1.0
 40
1.0
 40
1.0
 40
1.0
 10
44.402368057
 20
78.6294830524
 30
0.0
 10
44.5720433531
 20
78.6294830524
 30
0.0
 10
44.8982330751
 20
78.6220150509
 30
0.0
 10
45.3488873691
 20
78.5860728611
 30
0.0
 10
45.7347191947
 20
78.5368284083
 30
0.0
 10
45.9881997148
 20
78.4610322836
 30
0.0
 10
46.1933679266
 20
78.4037074027
 30
0.0
 10
46.1981669993
 20
78.2340900996
 30
0.0
 10
45.9931285273
 20
78.1738118323
 30
0.0
 10
45.7421436168
 20
78.0985371423
 30
0.0
 10
45.3542119105
 20
78.0481490282
 30
0.0
 10
44.9010786641
 20
78.0119387975
 30
0.0
 10
44.572749579
 20
78.004349378
 30
0.0
 10
44.402368057
 20
78.004349378
 30
0.0
  0
SPLINE
  5
45B
100
AcDbEntity
  8
0
100
AcDbSpline
 62
7
  6
BYLAYER
 70
0
 71
3
 72
18
 73
14
 74
0
 42
0.0000001
 43
0.0000001
 44
0.0000000001
 40
0.0
 40
0.0
 40
0.0
 40
0.0
 40
0.1364349627
 40
0.2615967675
 40
0.3657659256
 40
0.4423893738
 40
0.4876913072
 40
0.5114735014
 40
0.5558436663
 40
0.6320161804
 40
0.7367348203
 40
0.862997165
 40
1.0
 40
1.0
 40
1.0
 40
1.0
 10
44.402368057
 20
78.004349378
 30
0.0
 10
44.2326927608
 20
78.004349378
 30
0.0
 10
43.9065030388
 20
78.0118173795
 30
0.0
 10
43.4558487448
 20
78.0477595693
 30
0.0
 10
43.0700169192
 20
78.0970040221
 30
0.0
 10
42.8165363991
 20
78.1728001468
 30
0.0
 10
42.6113681873
 20
78.2301250277
 30
0.0
 10
42.6065691146
 20
78.3997423308
 30
0.0
 10
42.8116075866
 20
78.4600205982
 30
0.0
 10
43.0625924971
 20
78.5352952881
 30
0.0
 10
43.4505242035
 20
78.5856834022
 30
0.0
 10
43.9036574498
 20
78.6218936329
 30
0.0
 10
44.2319865349
 20
78.6294830524
 30
0.0
 10
44.402368057
 20
78.6294830524
 30
0.0
  0
SPLINE
  5
45C
100
AcDbEntity
  8
0
100
AcDbSpline
 62
7
  6
BYLAYER
 70
0
 71
3
 72
33
 73
29
 74
0
 42
0.0000001
 43
0.0000001
 44
0.0000000001
 40
0.0
 40
0.0
 40
0.0
 40
0.0
 40
0.0869299432
 40
0.1360460444
 40
0.1667533464
 40
0.1872691526
 40
0.201028968
 40
0.2134749071
 40
0.2427421334
 40
0.2657219984
 40
0.2854328025
 40
0.2961509164
 40
0.3140253651
 40
0.3359399381
 40
0.3634459626
 40
0.4036235675
 40
0.437205065
 40
0.4770596117
 40
0.496997153
 40
0.5088760276
 40
0.5234574521
 40
0.54223095
 40
0.5669330757
 40
0.6002841692
 40
0.6470548551
 40
0.7161650646
 40
0.8226681977
 40
1.0
 40
1.0
 40
1.0
 40
1.0
 10
44.7132614111
 20
77.8806116697
 30
0.0
 10
44.7352665336
 20
77.8806116697
 30
0.0
 10
44.7697063331
 20
77.8805129124
 30
0.0
 10
44.8119109546
 20
77.8797757159
 30
0.0
 10
44.8373023499
 20
77.8790152271
 30
0.0
 10
44.8537293963
 20
77.8782326525
 30
0.0
 10
44.8655493056
 20
77.8776055697
 30
0.0
 10
44.8795160616
 20
77.8766151162
 30
0.0
 10
44.8961740782
 20
77.8752853649
 30
0.0
 10
44.9130364272
 20
77.8715946106
 30
0.0
 10
44.9291243967
 20
77.8704668404
 30
0.0
 10
44.9316299602
 20
77.8553675788
 30
0.0
 10
44.9165380224
 20
77.8508977662
 30
0.0
 10
44.90191358
 20
77.8446026863
 30
0.0
 10
44.879550607
 20
77.8385351244
 30
0.0
 10
44.854759224
 20
77.8327612171
 30
0.0
 10
44.8264606771
 20
77.8273488883
 30
0.0
 10
44.8031924418
 20
77.8232503554
 30
0.0
 10
44.7852379648
 20
77.8206282456
 30
0.0
 10
44.7736230302
 20
77.8188865854
 30
0.0
 10
44.7622797929
 20
77.8173221881
 30
0.0
 10
44.7477099902
 20
77.815397631
 30
0.0
 10
44.7284087222
 20
77.8130132872
 30
0.0
 10
44.7020389559
 20
77.8100537635
 30
0.0
 10
44.6644452836
 20
77.8063316139
 30
0.0
 10
44.6083285503
 20
77.801824218
 30
0.0
 10
44.5191200994
 20
77.7967450471
 30
0.0
 10
44.44725717
 20
77.7952777703
 30
0.0
 10
44.402368057
 20
77.7952777703
 30
0.0
  0
SPLINE
  5
45D
100
AcDbEntity
  8
0
100
AcDbSpline
 62
7
  6
BYLAYER
 70
0
 71
3
 72
14
 73
10
 74
0
 42
0.0000001
 43
0.0000001
 44
0.0000000001
 40
0.0
 40
0.0
 40
0.0
 40
0.0
 40
0.2360230967
 40
0.4566578626
 40
0.6476712879
 40
0.7971875021
 40
0.8973302322
 40
0.949967209
 40
1.0
 40
1.0
 40
1.0
 40
1.0
 10
44.402368057
 20
77.6285589549
 30
0.0
 10
44.6366514303
 20
77.6285589549
 30
0.0
 10
45.0898027062
 20
77.6382166206
 30
0.0
 10
45.7323091884
 20
77.6836789211
 30
0.0
 10
46.2828171432
 20
77.7495944842
 30
0.0
 10
46.7183221985
 20
77.8482688252
 30
0.0
 10
46.9890123606
 20
77.9286642738
 30
0.0
 10
47.1801494285
 20
78.091184083
 30
0.0
 10
47.089038945
 20
78.1925968841
 30
0.0
 10
47.04793048
 20
78.2204645534
 30
0.0
  0
SPLINE
  5
45E
100
AcDbEntity
  8
0
100
AcDbSpline
 62
7
  6
BYLAYER
 70
0
 71
3
 72
14
 73
10
 74
0
 42
0.0000001
 43
0.0000001
 44
0.0000000001
 40
0.0
 40
0.0
 40
0.0
 40
0.0
 40
0.0498852449
 40
0.1026296628
 40
0.2028799191
 40
0.3524478819
 40
0.5434574737
 40
0.7640459624
 40
1.0
 40
1.0
 40
1.0
 40
1.0
 10
41.7560681688
 20
78.219963485
 30
0.0
 10
41.7151517272
 20
78.1920996126
 30
0.0
 10
41.6247417052
 20
78.090303063
 30
0.0
 10
41.816486769
 20
77.9285581262
 30
0.0
 10
42.0871363864
 20
77.8479663777
 30
0.0
 10
42.5227944484
 20
77.7495057259
 30
0.0
 10
43.0731052266
 20
77.6836052557
 30
0.0
 10
43.7153213951
 20
77.6382102819
 30
0.0
 10
44.1682218433
 20
77.6285589549
 30
0.0
 10
44.402368057
 20
77.6285589549
 30
0.0
  0
SPLINE
  5
45F
100
AcDbEntity
  8
0
100
AcDbSpline
 62
7
  6
BYLAYER
 70
0
 71
3
 72
14
 73
10
 74
0
 42
0.0000001
 43
0.0000001
 44
0.0000000001
 40
0.0
 40
0.0
 40
0.0
 40
0.0
 40
0.0498400413
 40
0.1026175545
 40
0.2029008318
 40
0.3524846566
 40
0.5434930223
 40
0.764067238
 40
1.0
 40
1.0
 40
1.0
 40
1.0
 10
46.8785885735
 20
76.2340807327
 30
0.0
 10
46.9168168976
 20
76.2080109508
 30
0.0
 10
47.0012068618
 20
76.1126549466
 30
0.0
 10
46.8216272358
 20
75.961541267
 30
0.0
 10
46.5684049772
 20
75.8860789663
 30
0.0
 10
46.1607382358
 20
75.7940158398
 30
0.0
 10
45.6458968748
 20
75.7323604325
 30
0.0
 10
45.0450912756
 20
75.6899060154
 30
0.0
 10
44.6214073734
 20
75.6808775792
 30
0.0
 10
44.402368057
 20
75.6808775792
 30
0.0
  0
SPLINE
  5
460
100
AcDbEntity
  8
0
100
AcDbSpline
 62
7
  6
BYLAYER
 70
0
 71
3
 72
14
 73
10
 74
0
 42
0.0000001
 43
0.0000001
 44
0.0000000001
 40
0.0
 40
0.0
 40
0.0
 40
0.0
 40
0.2360434839
 40
0.456691896
 40
0.6477064098
 40
0.7972072707
 40
0.8973181572
 40
0.9499234119
 40
1.0
 40
1.0
 40
1.0
 40
1.0
 10
44.402368057
 20
75.6808775792
 30
0.0
 10
44.1831229888
 20
75.6808775792
 30
0.0
 10
43.7590628231
 20
75.6899155241
 30
0.0
 10
43.1578217238
 20
75.7324709368
 30
0.0
 10
42.6426845858
 20
75.7941489851
 30
0.0
 10
42.2352473451
 20
75.886532665
 30
0.0
 10
41.9819643024
 20
75.9617004924
 30
0.0
 10
41.8032966573
 20
76.1139765442
 30
0.0
 10
41.8887374051
 20
76.2087569065
 30
0.0
 10
41.927253776
 20
76.2348323809
 30
0.0
  0
SPLINE
  5
461
100
AcDbEntity
  8
0
100
AcDbSpline
 62
7
  6
BYLAYER
 70
0
 71
3
 72
18
 73
14
 74
0
 42
0.0000001
 43
0.0000001
 44
0.0000000001
 40
0.0
 40
0.0
 40
0.0
 40
0.0
 40
0.1364349627
 40
0.2615967675
 40
0.3657659256
 40
0.4423893738
 40
0.4876913072
 40
0.5114735014
 40
0.5558436663
 40
0.6320161804
 40
0.7367348203
 40
0.862997165
 40
1.0
 40
1.0
 40
1.0
 40
1.0
 10
44.402368057
 20
75.4630805998
 30
0.0
 10
44.189672677
 20
75.4630805998
 30
0.0
 10
43.7807796417
 20
75.4724420653
 30
0.0
 10
43.2158648399
 20
75.5174971668
 30
0.0
 10
42.732207828
 20
75.579227235
 30
0.0
 10
42.4144589467
 20
75.6742409813
 30
0.0
 10
42.1572716498
 20
75.7461002184
 30
0.0
 10
42.151255803
 20
75.9587229015
 30
0.0
 10
42.4082804654
 20
76.0342843372
 30
0.0
 10
42.7229009913
 20
76.1286444423
 30
0.0
 10
43.2091902953
 20
76.1918081398
 30
0.0
 10
43.7772125718
 20
76.2371992423
 30
0.0
 10
44.188787392
 20
76.2467129105
 30
0.0
 10
44.402368057
 20
76.2467129105
 30
0.0
  0
SPLINE
  5
462
100
AcDbEntity
  8
0
100
AcDbSpline
 62
7
  6
BYLAYER
 70
0
 71
3
 72
11
 73
7
 74
0
 42
0.0000001
 43
0.0000001
 44
0.0000000001
 40
0.0
 40
0.0
 40
0.0
 40
0.0
 40
0.011953838
 40
0.2931261197
 40
0.6321438114
 40
1.0
 40
1.0
 40
1.0
 40
1.0
 10
46.1353693787
 20
75.604412129
 30
0.0
 10
46.1288375665
 20
75.6029006209
 30
0.0
 10
45.9682863575
 20
75.5664003171
 30
0.0
 10
45.5955458186
 20
75.5179853706
 30
0.0
 10
45.0275235421
 20
75.472594268
 30
0.0
 10
44.6159487219
 20
75.4630805998
 30
0.0
 10
44.402368057
 20
75.4630805998
 30
0.0
  0
SPLINE
  5
463
100
AcDbEntity
  8
0
100
AcDbSpline
 62
7
  6
BYLAYER
 70
0
 71
3
 72
11
 73
7
 74
0
 42
0.0000001
 43
0.0000001
 44
0.0000000001
 40
0.0
 40
0.0
 40
0.0
 40
0.0
 40
0.3614307834
 40
0.6957542676
 40
0.9565924337
 40
1.0
 40
1.0
 40
1.0
 40
1.0
 10
44.402368057
 20
78.759586385
 30
0.0
 10
44.6309061906
 20
78.759586385
 30
0.0
 10
45.0709161461
 20
78.7495446889
 30
0.0
 10
45.6745205828
 20
78.7064403199
 30
0.0
 10
46.0752535681
 20
78.6548610851
 30
0.0
 10
46.2647477892
 20
78.6212437454
 30
0.0
 10
46.2917417281
 20
78.6162253272
 30
0.0
  0
ELLIPSE
  5
464
100
AcDbEntity
  8
0
100
AcDbEllipse
 62
7
  6
BYLAYER
 10
44.4023681384
 20
-11616.9622148067
 30
0.0
 11
-0.0
 21
11735.9983744191
 31
0.0
 40
0.0274970219
 41
-0.0363631608
 42
-0.0347672374
  0
ELLIPSE
  5
465
100
AcDbEntity
  8
0
100
AcDbEllipse
 62
7
  6
BYLAYER
 10
44.4023681384
 20
-11616.9622148067
 30
0.0
 11
0.0
 21
11735.9983744191
 31
0.0
 40
0.0274970219
 41
0.034767233
 42
0.0363631604
  0
ELLIPSE
  5
466
100
AcDbEntity
  8
0
100
AcDbEllipse
 62
7
  6
BYLAYER
 10
44.402368057
 20
79.2215192118
 30
0.0
 11
1.8104314346
 21
0.0
 31
0.0
 40
0.5320933763
 41
6.2770318381
 42
9.4309318003
  0
ELLIPSE
  5
467
100
AcDbEntity
  8
0
100
AcDbEllipse
 62
7
  6
BYLAYER
 10
44.402368057
 20
77.542984738
 30
0.0
 11
5.2234358174
 21
0.0
 31
0.0
 40
0.5773501719
 41
1.1381546518
 42
2.0034380018
  0
ELLIPSE
  5
468
100
AcDbEntity
  8
0
100
AcDbEllipse
 62
7
  6
BYLAYER
 10
44.4023679763
 20
-11733.4577052796
 30
0.0
 11
-0.0
 21
11852.5681374561
 31
0.0
 40
0.0272265893
 41
-0.0363566902
 42
-0.0347781739
  0
ELLIPSE
  5
469
100
AcDbEntity
  8
0
100
AcDbEllipse
 62
7
  6
BYLAYER
 10
44.4023679763
 20
-11733.4577052796
 30
0.0
 11
-0.0
 21
11852.5681374561
 31
0.0
 40
0.0272265893
 41
0.0347781784
 42
0.0363566909
  0
ELLIPSE
  5
46A
100
AcDbEntity
  8
0
100
AcDbEllipse
 62
7
  6
BYLAYER
 10
44.402368057
 20
79.2215192118
 30
0.0
 11
1.8104314346
 21
0.0
 31
0.0
 40
0.5320933763
 41
9.4309318003
 42
12.5602171453
  0
ENDSEC
  0
SECTION
  2
OBJECTS
  0
DICTIONARY
  5
C
100
AcDbDictionary
280
0
281
1
  3
ACAD_GROUP
350
D
  3
ACAD_MLINESTYLE
350
17
  3
ACAD_LAYOUT
350
1A
  3
ACAD_PLOTSETTINGS
350
19
  3
ACAD_PLOTSTYLENAME
350
E
  0
DICTIONARY
  5
D
102
{ACAD_REACTORS
330
C
102
}
100
AcDbDictionary
280
0
281
1
  0
ACDBDICTIONARYWDFLT
  5
E
102
{ACAD_REACTORS
330
C
102
}
100
AcDbDictionary
281
1
  3
Normal
350
F
100
AcDbDictionaryWithDefault
340
F
  0
DICTIONARY
  5
17
102
{ACAD_REACTORS
330
C
102
}
100
AcDbDictionary
280
0
281
1
  3
Standard
350
18
  0
DICTIONARY
  5
19
102
{ACAD_REACTORS
330
C
102
}
100
AcDbDictionary
281
1
  0
DICTIONARY
  5
1A
102
{ACAD_REACTORS
330
C
102
}
100
AcDbDictionary
281
1
  3
Model
350
46B
  3
Layout1
350
46C
  0
ACDBPLACEHOLDER
  5
F
102
{ACAD_REACTORS
330
E
102
}
  0
MLINESTYLE
  5
18
102
{ACAD_REACTORS
330
17
102
}
100
AcDbMlineStyle
  2
STANDARD
 70
0
  3

 62
256
 51
90.0
 52
90.0
 71
2
 49
0.5
 62
256
  6
BYLAYER
 49
-0.5
 62
256
  6
BYLAYER
  0
LAYOUT
  5
46B
102
{ACAD_REACTORS
330
1A
102
}
100
AcDbPlotSettings
  1

  2
none_device
  4

  6

 40
0.0
 41
0.0
 42
0.0
 43
0.0
 44
210.0
 45
297.0
 46
0.0
 47
0.0
 48
0.0
 49
0.0
140
0.0
141
0.0
142
1.0
143
1.0
 70
1024
 72
1
 73
0
 74
0
  7

 75
0
147
1.0
148
0.0
149
0.0
100
AcDbLayout
  1
Model
 70
0
 71
0
 10
0.0
 20
0.0
 11
210.0
 21
297.0
 12
0.0
 22
0.0
 32
0.0
 14
0.0
 24
0.0
 34
0.0
 15
0.0
 25
0.0
 35
0.0
146
0.0
 13
0.0
 23
0.0
 33
0.0
 16
1.0
 26
0.0
 36
0.0
 17
0.0
 27
1.0
 37
0.0
 76
0
330
210
345
0
346
0
  0
LAYOUT
  5
46C
102
{ACAD_REACTORS
330
1A
102
}
100
AcDbPlotSettings
  1

  2
none_device
  4

  6

 40
0.0
 41
0.0
 42
0.0
 43
0.0
 44
210.0
 45
297.0
 46
0.0
 47
0.0
 48
0.0
 49
0.0
140
0.0
141
0.0
142
1.0
143
1.0
 70
0
 72
1
 73
0
 74
0
  7

 75
0
147
1.0
148
0.0
149
0.0
100
AcDbLayout
  1
Layout1
 70
0
 71
1
 10
0.0
 20
0.0
 11
210.0
 21
297.0
 12
0.0
 22
0.0
 32
0.0
 14
0.0
 24
0.0
 34
0.0
 15
0.0
 25
0.0
 35
0.0
146
0.0
 13
0.0
 23
0.0
 33
0.0
 16
1.0
 26
0.0
 36
0.0
 17
0.0
 27
1.0
 37
0.0
 76
0
330
211
345
0
346
0
  0
ENDSEC
  0
EOF
