999
DXF file: C:\Users\sesa63760\Dev\_Creo\CAD\MCADID0005231_3D-CAD\drw0001_6.dxf
999
Pro/ENGINEER 2019471 by Parametric Technology Corporation
  0
SECTION
  2
HEADER
  9
$ACADVER
  1
AC1024
  9
$DWGCODEPAGE
  3
ANSI_1252
  9
$EXTMAX
 10
128.7490743219
 20
182.087976541
 30
0.0
  9
$EXTMIN
 10
0.0
 20
0.0
 30
0.0
  9
$LIMMIN
 10
0.0
 20
0.0
  9
$LIMMAX
 10
128.7490743219
 20
182.087976541
  9
$VIEWCTR
 10
64.374537161
 20
91.0439882705
  9
$VIEWSIZE
 40
182.087976541
  9
$CLAYER
  8
0
  9
$LTSCALE
 40
11.8694384708
  9
$CELTYPE
  6
BYLAYER
  9
$DIMSCALE
 40
1.0
  9
$DIMASZ
 40
1.5327270753
  9
$DIMEXO
 40
1.0
  9
$DIMDLI
 40
8.2007029435
  9
$DIMEXE
 40
1.0
  9
$DIMCEN
 40
1.9422717498
  9
$DIMLFAC
 40
1.0
  9
$DIMBLK
  1
_FILLED
  9
$DIMALT
 70
0
  9
$DIMALTF
 40
0.0393700787
  9
$DIMTXT
 40
2.1458179054
  9
$DIMTOL
 70
1
  9
$DIMLIM
 70
0
  9
$DIMTFAC
 40
1.0
  9
$DIMTP
 40
0.01
  9
$DIMTM
 40
0.01
  9
$DIMGAP
 40
0.625
  9
$DIMDSEP
 70
46
  9
$AUNITS
 70
0
  9
$PDMODE
 70
3
  9
$PDSIZE
 40
0.3125
  9
$HANDSEED
  5
2B8
  9
$TILEMODE
 70
1
  9
$MEASUREMENT
 70
1
  9
$INSUNITS
 70
4
  0
ENDSEC
  0
SECTION
  2
CLASSES
  0
CLASS
  1
ACDBDICTIONARYWDFLT
  2
AcDbDictionaryWithDefault
  3
AutoCAD 2000
 90
0
 91
1
280
0
281
0
  0
CLASS
  1
ACDBPLACEHOLDER
  2
AcDbPlaceHolder
  3
AutoCAD 2000
 90
0
 91
1
280
0
281
0
  0
CLASS
  1
LAYOUT
  2
AcDbLayout
  3
AutoCAD 2000
 90
0
 91
0
280
0
281
0
  0
ENDSEC
  0
SECTION
  2
TABLES
  0
TABLE
  2
VPORT
  5
8
100
AcDbSymbolTable
 70
2
  0
VPORT
  5
1F4
100
AcDbSymbolTableRecord
100
AcDbViewportTableRecord
  2
*ACTIVE
 70
0
 10
0.0
 20
0.0
 11
1.0
 21
1.0
 12
64.374537161
 22
91.0439882705
 13
0.0
 23
0.0
 14
1.0
 24
1.0
 15
0.0
 25
0.0
 16
0.0
 26
0.0
 36
1.0
 17
0.0
 27
0.0
 37
0.0
 40
182.087976541
 41
0.7070707071
 42
50.0
 43
0.0
 44
0.0
 50
0.0
 51
0.0
 71
0
 72
100
 73
1
 74
1
 75
0
 76
0
 77
0
 78
0
  0
ENDTAB
  0
TABLE
  2
LTYPE
  5
5
100
AcDbSymbolTable
 70
6
  0
LTYPE
  5
14
100
AcDbSymbolTableRecord
100
AcDbLinetypeTableRecord
  2
BYBLOCK
 70
0
  3

 72
65
 73
0
 40
0.0
  0
LTYPE
  5
15
100
AcDbSymbolTableRecord
100
AcDbLinetypeTableRecord
  2
BYLAYER
 70
0
  3

 72
65
 73
0
 40
0.0
  0
LTYPE
  5
16
100
AcDbSymbolTableRecord
100
AcDbLinetypeTableRecord
  2
CONTINUOUS
 70
64
  3
Solid line
 72
65
 73
0
 40
0.0
  0
LTYPE
  5
1F5
100
AcDbSymbolTableRecord
100
AcDbLinetypeTableRecord
  2
CENTER
 70
64
  3
____ _ ____ _ ____ _ ____ _ ____ _ ____ _ ____
 72
65
 73
4
 40
0.6
 49
0.375
 74
0
 49
-0.075
 74
0
 49
0.075
 74
0
 49
-0.075
 74
0
  0
LTYPE
  5
1F6
100
AcDbSymbolTableRecord
100
AcDbLinetypeTableRecord
  2
HIDDEN
 70
64
  3
- - - - - - - - - - - - - - - - - - - -
 72
65
 73
2
 40
0.2
 49
0.1
 74
0
 49
-0.1
 74
0
  0
LTYPE
  5
1F7
100
AcDbSymbolTableRecord
100
AcDbLinetypeTableRecord
  2
PHANTOM
 70
64
  3
_____ _ _ _____ _ _ _____ _ _ _____
 72
65
 73
6
 40
0.8
 49
0.45
 74
0
 49
-0.05
 74
0
 49
0.1
 74
0
 49
-0.05
 74
0
 49
0.1
 74
0
 49
-0.05
 74
0
  0
LTYPE
  5
1F8
100
AcDbSymbolTableRecord
100
AcDbLinetypeTableRecord
  2
DOT
 70
64
  3
. . . . . . . . . . . . . . . . . . . .
 72
65
 73
2
 40
0.2
 49
0.1
 74
0
 49
-0.1
 74
0
  0
LTYPE
  5
1F9
100
AcDbSymbolTableRecord
100
AcDbLinetypeTableRecord
  2
DASHED
 70
64
  3
- - - - - - - - - - - - - - - - - - - -
 72
65
 73
2
 40
0.2
 49
0.1
 74
0
 49
-0.1
 74
0
  0
ENDTAB
  0
TABLE
  2
LAYER
  5
2
100
AcDbSymbolTable
 70
36
  0
LAYER
  5
10
100
AcDbSymbolTableRecord
100
AcDbLayerTableRecord
  2
0
 70
0
 62
7
  6
CONTINUOUS
370
-3
390
F
  0
LAYER
  5
1FA
100
AcDbSymbolTableRecord
100
AcDbLayerTableRecord
  2
DEFAULT_1
 70
0
 62
7
  6
CENTER
370
-3
390
F
  0
LAYER
  5
1FB
100
AcDbSymbolTableRecord
100
AcDbLayerTableRecord
  2
DEFAULT_2
 70
0
 62
7
  6
HIDDEN
370
-3
390
F
  0
LAYER
  5
1FC
100
AcDbSymbolTableRecord
100
AcDbLayerTableRecord
  2
DEFAULT_3
 70
0
 62
7
  6
PHANTOM
370
-3
390
F
  0
LAYER
  5
1FD
100
AcDbSymbolTableRecord
100
AcDbLayerTableRecord
  2
00_COMPONENTS
 70
0
 62
7
  6
CONTINUOUS
370
-3
390
F
  0
LAYER
  5
1FE
100
AcDbSymbolTableRecord
100
AcDbLayerTableRecord
  2
00_COMPONENTS_1
 70
0
 62
7
  6
CONTINUOUS
370
-3
390
F
  0
LAYER
  5
1FF
100
AcDbSymbolTableRecord
100
AcDbLayerTableRecord
  2
00_COMPONENTS_3
 70
0
 62
7
  6
CONTINUOUS
370
-3
390
F
  0
LAYER
  5
200
100
AcDbSymbolTableRecord
100
AcDbLayerTableRecord
  2
00_COMPONENTS_4
 70
0
 62
7
  6
CONTINUOUS
370
-3
390
F
  0
LAYER
  5
201
100
AcDbSymbolTableRecord
100
AcDbLayerTableRecord
  2
01_1_DEFAULT_DATUMS
 70
0
 62
7
  6
CONTINUOUS
370
-3
390
F
  0
LAYER
  5
202
100
AcDbSymbolTableRecord
100
AcDbLayerTableRecord
  2
01_PLANES
 70
0
 62
7
  6
CONTINUOUS
370
-3
390
F
  0
LAYER
  5
203
100
AcDbSymbolTableRecord
100
AcDbLayerTableRecord
  2
02_COORD_SYS
 70
0
 62
7
  6
CONTINUOUS
370
-3
390
F
  0
LAYER
  5
204
100
AcDbSymbolTableRecord
100
AcDbLayerTableRecord
  2
03_AXES
 70
0
 62
7
  6
CONTINUOUS
370
-3
390
F
  0
LAYER
  5
205
100
AcDbSymbolTableRecord
100
AcDbLayerTableRecord
  2
04_POINTS
 70
0
 62
7
  6
CONTINUOUS
370
-3
390
F
  0
LAYER
  5
206
100
AcDbSymbolTableRecord
100
AcDbLayerTableRecord
  2
05_CURVES
 70
0
 62
7
  6
CONTINUOUS
370
-3
390
F
  0
LAYER
  5
207
100
AcDbSymbolTableRecord
100
AcDbLayerTableRecord
  2
06_SURFS
 70
0
 62
7
  6
CONTINUOUS
370
-3
390
F
  0
LAYER
  5
208
100
AcDbSymbolTableRecord
100
AcDbLayerTableRecord
  2
07_COSMETICS
 70
0
 62
7
  6
CONTINUOUS
370
-3
390
F
  0
LAYER
  5
209
100
AcDbSymbolTableRecord
100
AcDbLayerTableRecord
  2
10_NOTES
 70
0
 62
7
  6
CONTINUOUS
370
-3
390
F
  0
LAYER
  5
20A
100
AcDbSymbolTableRecord
100
AcDbLayerTableRecord
  2
11_NOTES_PUB
 70
0
 62
7
  6
CONTINUOUS
370
-3
390
F
  0
LAYER
  5
20B
100
AcDbSymbolTableRecord
100
AcDbLayerTableRecord
  2
13_REF_GTOL
 70
0
 62
7
  6
CONTINUOUS
370
-3
390
F
  0
LAYER
  5
20C
100
AcDbSymbolTableRecord
100
AcDbLayerTableRecord
  2
16_MISC
 70
0
 62
7
  6
CONTINUOUS
370
-3
390
F
  0
LAYER
  5
20D
100
AcDbSymbolTableRecord
100
AcDbLayerTableRecord
  2
17_NO_PRINT
 70
0
 62
7
  6
CONTINUOUS
370
-3
390
F
  0
LAYER
  5
20E
100
AcDbSymbolTableRecord
100
AcDbLayerTableRecord
  2
18_DATUM_CAMS_JOINTS
 70
0
 62
7
  6
CONTINUOUS
370
-3
390
F
  0
LAYER
  5
20F
100
AcDbSymbolTableRecord
100
AcDbLayerTableRecord
  2
19_DATUM_FUNCTIONAL
 70
0
 62
7
  6
CONTINUOUS
370
-3
390
F
  0
LAYER
  5
210
100
AcDbSymbolTableRecord
100
AcDbLayerTableRecord
  2
20_DATUM_KINEMATIC_SCHEME
 70
0
 62
7
  6
CONTINUOUS
370
-3
390
F
  0
LAYER
  5
211
100
AcDbSymbolTableRecord
100
AcDbLayerTableRecord
  2
INTF_BLANK
 70
0
 62
7
  6
CONTINUOUS
370
-3
390
F
  0
LAYER
  5
212
100
AcDbSymbolTableRecord
100
AcDbLayerTableRecord
  2
SHELL1
 70
0
 62
7
  6
CONTINUOUS
370
-3
390
F
  0
LAYER
  5
213
100
AcDbSymbolTableRecord
100
AcDbLayerTableRecord
  2
SHELL508
 70
0
 62
7
  6
CONTINUOUS
370
-3
390
F
  0
LAYER
  5
214
100
AcDbSymbolTableRecord
100
AcDbLayerTableRecord
  2
SHELL509
 70
0
 62
7
  6
CONTINUOUS
370
-3
390
F
  0
LAYER
  5
215
100
AcDbSymbolTableRecord
100
AcDbLayerTableRecord
  2
_BLACK_HOLE
 70
0
 62
7
  6
CONTINUOUS
370
-3
390
F
  0
LAYER
  5
216
100
AcDbSymbolTableRecord
100
AcDbLayerTableRecord
  2
black
 70
0
 62
7
  6
CONTINUOUS
370
-3
390
F
  0
ENDTAB
  0
TABLE
  2
STYLE
  5
3
100
AcDbSymbolTable
 70
1
  0
STYLE
  5
11
100
AcDbSymbolTableRecord
100
AcDbTextStyleTableRecord
  2
STANDARD
 70
0
 40
0.0
 41
1.0
 50
0.0
 71
0
 42
0.2
  3
ARIAL.TTF
  4

  0
STYLE
  5
217
100
AcDbSymbolTableRecord
100
AcDbTextStyleTableRecord
  2
TEXTSTYLE_1
 70
0
 40
0.0
 41
0.8
 50
0.0
 71
0
 42
0.2
  3
gdt
  4

  0
ENDTAB
  0
TABLE
  2
VIEW
  5
6
100
AcDbSymbolTable
 70
0
  0
ENDTAB
  0
TABLE
  2
UCS
  5
7
100
AcDbSymbolTable
 70
0
  0
ENDTAB
  0
TABLE
  2
APPID
  5
9
100
AcDbSymbolTable
 70
1
  0
APPID
  5
218
100
AcDbSymbolTableRecord
100
AcDbRegAppTableRecord
  2
ACAD
 70
0
  0
ENDTAB
  0
TABLE
  2
BLOCK_RECORD
  5
1
100
AcDbSymbolTable
 70
0
  0
BLOCK_RECORD
  5
219
100
AcDbSymbolTableRecord
100
AcDbBlockTableRecord
  2
*Model_Space
  0
BLOCK_RECORD
  5
21A
100
AcDbSymbolTableRecord
100
AcDbBlockTableRecord
  2
*Paper_Space
  0
BLOCK_RECORD
  5
21B
100
AcDbSymbolTableRecord
100
AcDbBlockTableRecord
  2
_FILLED
  0
ENDTAB
  0
TABLE
  2
DIMSTYLE
  5
A
100
AcDbSymbolTable
 70
1
100
AcDbDimStyleTable
 71
0
  0
DIMSTYLE
105
21C
100
AcDbSymbolTableRecord
100
AcDbDimStyleTableRecord
  2
STANDARD
 70
0
  3

  4

 40
1.0
 41
1.5327270753
 42
1.0
 43
0.38
 44
1.0
 45
0.0
 46
0.0
 47
0.01
 48
0.01
140
2.1458179054
141
0.09
142
0.0
143
25.4
144
1.0
145
0.0
146
1.0
147
0.625
 71
1
 72
0
 73
0
 74
0
 75
0
 76
0
 77
1
 78
8
 79
2
170
0
171
1
172
0
173
0
174
0
175
0
176
0
177
0
178
0
270
2
179
2
271
2
272
2
273
2
274
2
275
0
280
0
281
0
282
0
283
1
284
8
285
0
286
0
287
3
288
0
340
11
278
46
341
21B
342
21B
343
21B
344
21B
  0
ENDTAB
  0
ENDSEC
  0
SECTION
  2
BLOCKS
  0
BLOCK
  5
20
100
AcDbEntity
  8
0
100
AcDbBlockBegin
  2
*Model_Space
 70
0
 10
0.0
 20
0.0
 30
0.0
  3
*Model_Space
  1

  0
ENDBLK
  5
21
100
AcDbEntity
  8
0
100
AcDbBlockEnd
  0
BLOCK
  5
1C
100
AcDbEntity
  8
0
100
AcDbBlockBegin
  2
*Paper_Space
 70
0
 10
0.0
 20
0.0
 30
0.0
  3
*Paper_Space
  1

  0
ENDBLK
  5
1D
100
AcDbEntity
  8
0
100
AcDbBlockEnd
  0
BLOCK
  5
21D
100
AcDbEntity
  8
0
100
AcDbBlockBegin
  2
_FILLED
 70
64
 10
0.0
 20
0.0
  3
_FILLED
  1

  0
SOLID
  5
21E
100
AcDbEntity
  8
0
  6
BYBLOCK
 62
0
100
AcDbTrace
 10
0.0
 20
0.0
 11
-1.0
 21
0.25
 12
-1.0
 22
-0.25
 13
-1.0
 23
-0.25
  0
ENDBLK
  5
21F
100
AcDbEntity
  8
0
  6
BYBLOCK
 62
0
100
AcDbBlockEnd
  0
ENDSEC
  0
SECTION
  2
ENTITIES
  0
LINE
  5
220
100
AcDbEntity
  8
00_COMPONENTS_1
100
AcDbLine
 62
7
  6
BYLAYER
 10
49.2526035956
 20
159.1699351333
 11
55.3232567334
 21
165.2405882711
  0
LINE
  5
221
100
AcDbEntity
  8
00_COMPONENTS_1
100
AcDbLine
 62
7
  6
BYLAYER
 10
53.9851985714
 20
162.1064788849
 11
51.4527663452
 21
159.5740466587
  0
LINE
  5
222
100
AcDbEntity
  8
00_COMPONENTS_1
100
AcDbLine
 62
7
  6
BYLAYER
 10
74.8642940528
 20
154.9671752686
 11
74.9433782438
 21
154.9923779229
  0
LINE
  5
223
100
AcDbEntity
  8
00_COMPONENTS_1
100
AcDbLine
 62
7
  6
BYLAYER
 10
59.3239569446
 20
165.2405882711
 11
55.0875230648
 21
161.0041543914
  0
LINE
  5
224
100
AcDbEntity
  8
00_COMPONENTS_1
100
AcDbLine
 62
7
  6
BYLAYER
 10
52.5550908387
 20
158.4717221652
 11
51.2529537011
 21
157.1695850277
  0
LINE
  5
225
100
AcDbEntity
  8
00_COMPONENTS_1
100
AcDbLine
 62
7
  6
BYLAYER
 10
44.9420806574
 20
149.9023108163
 11
51.731154285
 21
156.6913844439
  0
LINE
  5
226
100
AcDbEntity
  8
00_COMPONENTS_1
100
AcDbLine
 62
7
  6
BYLAYER
 10
53.9313170346
 20
157.0954959693
 11
56.4637492608
 21
159.6279281954
  0
LINE
  5
227
100
AcDbEntity
  8
00_COMPONENTS_1
100
AcDbLine
 62
7
  6
BYLAYER
 10
55.2753149755
 20
157.1463370287
 11
54.6531445808
 21
156.5241666341
  0
LINE
  5
228
100
AcDbEntity
  8
00_COMPONENTS_1
100
AcDbLine
 62
7
  6
BYLAYER
 10
55.0089477692
 20
156.0178652348
 11
57.5413799953
 21
158.5502974609
  0
LINE
  5
229
100
AcDbEntity
  8
00_COMPONENTS_1
100
AcDbLine
 62
7
  6
BYLAYER
 10
53.7315043905
 20
154.6910343383
 11
46.243930763
 21
147.2034607107
  0
LINE
  5
22A
100
AcDbEntity
  8
00_COMPONENTS_1
100
AcDbLine
 62
7
  6
BYLAYER
 10
56.0865785037
 20
154.9402345002
 11
58.6190107298
 21
157.4726667264
  0
LINE
  5
22B
100
AcDbEntity
  8
00_COMPONENTS_1
100
AcDbLine
 62
7
  6
BYLAYER
 10
59.0680235359
 20
157.0236539203
 11
56.5355913097
 21
154.4912216942
  0
LINE
  5
22C
100
AcDbEntity
  8
00_COMPONENTS_1
100
AcDbLine
 62
7
  6
BYLAYER
 10
56.7151964322
 20
154.3116165718
 11
59.2476286583
 21
156.8440487979
  0
LINE
  5
22D
100
AcDbEntity
  8
00_COMPONENTS_1
100
AcDbLine
 62
7
  6
BYLAYER
 10
60.5138447714
 20
157.7510546661
 11
59.4272337807
 21
156.6644436755
  0
LINE
  5
22E
100
AcDbEntity
  8
00_COMPONENTS_1
100
AcDbLine
 62
7
  6
BYLAYER
 10
56.8948015546
 20
154.1320114494
 11
55.8081905639
 21
153.0454004587
  0
LINE
  5
22F
100
AcDbEntity
  8
00_COMPONENTS_1
100
AcDbLine
 62
7
  6
BYLAYER
 10
60.3162791367
 20
156.8350685418
 11
56.7241766883
 21
153.2429660934
  0
LINE
  5
230
100
AcDbEntity
  8
00_COMPONENTS_1
100
AcDbLine
 62
7
  6
BYLAYER
 10
57.6940443494
 20
151.1595466733
 11
62.3996985568
 21
155.8652008807
  0
LINE
  5
231
100
AcDbEntity
  8
00_COMPONENTS
100
AcDbLine
 62
7
  6
BYLAYER
 10
60.4889066624
 20
39.0004275073
 11
70.4889066624
 21
39.0004275073
  0
LINE
  5
232
100
AcDbEntity
  8
00_COMPONENTS_1
100
AcDbLine
 62
7
  6
BYLAYER
 10
70.4639685535
 20
157.7510546661
 11
68.5781147681
 21
155.8652008807
  0
LINE
  5
233
100
AcDbEntity
  8
00_COMPONENTS_1
100
AcDbLine
 62
7
  6
BYLAYER
 10
68.6858778415
 20
155.7574378073
 11
70.571731627
 21
157.6432915927
  0
LINE
  5
234
100
AcDbEntity
  8
00_COMPONENTS_1
100
AcDbLine
 62
7
  6
BYLAYER
 10
71.020744433
 20
157.1942787866
 11
69.1348906476
 21
155.3084250012
  0
LINE
  5
235
100
AcDbEntity
  8
00_COMPONENTS_1
100
AcDbLine
 62
7
  6
BYLAYER
 10
71.5505795442
 20
156.6644436755
 11
76.9926147535
 21
162.1064788849
  0
LINE
  5
236
100
AcDbEntity
  8
00_COMPONENTS_1
100
AcDbLine
 62
7
  6
BYLAYER
 10
71.9367305574
 20
156.996713152
 11
71.757125435
 21
156.8171080296
  0
LINE
  5
237
100
AcDbEntity
  8
00_COMPONENTS_1
100
AcDbLine
 62
7
  6
BYLAYER
 10
71.2183100677
 20
156.2782926623
 11
69.6916665271
 21
154.7516491217
  0
LINE
  5
238
100
AcDbEntity
  8
00_COMPONENTS_1
100
AcDbLine
 62
7
  6
BYLAYER
 10
73.9427347289
 20
158.9061006492
 11
74.5893131696
 21
159.55267909
  0
LINE
  5
239
100
AcDbEntity
  8
00_COMPONENTS_1
100
AcDbLine
 62
7
  6
BYLAYER
 10
75.2114835643
 20
158.9305086953
 11
74.5649051236
 21
158.2839302546
  0
LINE
  5
23A
100
AcDbEntity
  8
00_COMPONENTS_1
100
AcDbLine
 62
7
  6
BYLAYER
 10
72.1702172165
 20
152.2730984323
 11
73.6968607571
 21
153.7997419729
  0
LINE
  5
23B
100
AcDbEntity
  8
00_COMPONENTS_1
100
AcDbLine
 62
7
  6
BYLAYER
 10
74.2356761244
 20
154.3385573401
 11
74.4152812468
 21
154.5181624626
  0
LINE
  5
23C
100
AcDbEntity
  8
00_COMPONENTS_1
100
AcDbLine
 62
7
  6
BYLAYER
 10
74.0830117703
 20
154.1320114494
 11
79.5250469797
 21
159.5740466587
  0
LINE
  5
23D
100
AcDbEntity
  8
00_COMPONENTS_1
100
AcDbLine
 62
7
  6
BYLAYER
 10
72.726993096
 20
151.7163225528
 11
74.6128468814
 21
153.6021763382
  0
LINE
  5
23E
100
AcDbEntity
  8
00_COMPONENTS_1
100
AcDbLine
 62
7
  6
BYLAYER
 10
75.0618596875
 20
153.1531635322
 11
73.1760059021
 21
151.2673097467
  0
LINE
  5
23F
100
AcDbEntity
  8
00_COMPONENTS_1
100
AcDbLine
 62
7
  6
BYLAYER
 10
73.2837689755
 20
151.1595466733
 11
75.169622761
 21
153.0454004587
  0
LINE
  5
240
100
AcDbEntity
  8
00_COMPONENTS_1
100
AcDbLine
 62
7
  6
BYLAYER
 10
81.7252097293
 20
159.1699351333
 11
77.2463089343
 21
154.6910343383
  0
LINE
  5
241
100
AcDbEntity
  8
00_COMPONENTS_1
100
AcDbLine
 62
7
  6
BYLAYER
 10
86.0357326675
 20
148.5053108163
 11
78.2588308666
 21
140.7284090155
  0
LINE
  5
242
100
AcDbEntity
  8
00_COMPONENTS
100
AcDbLine
 62
7
  6
BYLAYER
 10
52.9889238585
 20
61.7907882712
 11
77.9888894664
 21
61.7907882712
  0
LINE
  5
243
100
AcDbEntity
  8
00_COMPONENTS
100
AcDbLine
 62
7
  6
BYLAYER
 10
77.9889066624
 20
64.7907882711
 11
52.9889066625
 21
64.7907882711
  0
LINE
  5
244
100
AcDbEntity
  8
00_COMPONENTS_3
100
AcDbLine
 62
7
  6
BYLAYER
 10
42.9889066624
 20
103.9814882711
 11
42.9889066624
 21
105.6025882711
  0
LINE
  5
245
100
AcDbEntity
  8
00_COMPONENTS_1
100
AcDbLine
 62
7
  6
BYLAYER
 10
44.9420806574
 20
148.5053108163
 11
44.9420806574
 21
149.9023108163
  0
LINE
  5
246
100
AcDbEntity
  8
00_COMPONENTS
100
AcDbLine
 62
7
  6
BYLAYER
 10
49.7429066584
 20
76.7907882711
 11
49.4889066584
 21
77.0447882711
  0
LINE
  5
247
100
AcDbEntity
  8
00_COMPONENTS_1
100
AcDbLine
 62
7
  6
BYLAYER
 10
45.2959066624
 20
165.2405882711
 11
45.2959066624
 21
150.2561368213
  0
LINE
  5
248
100
AcDbEntity
  8
00_COMPONENTS_1
100
AcDbLine
 62
7
  6
BYLAYER
 10
45.2959066624
 20
148.1514848113
 11
45.2959066624
 21
140.6025882711
  0
LINE
  5
249
100
AcDbEntity
  8
00_COMPONENTS_3
100
AcDbLine
 62
7
  6
BYLAYER
 10
45.2959066624
 20
105.6025882711
 11
45.2959066624
 21
108.1025882711
  0
LINE
  5
24A
100
AcDbEntity
  8
00_COMPONENTS_3
100
AcDbLine
 62
7
  6
BYLAYER
 10
45.2959066624
 20
130.6025882711
 11
45.2959066624
 21
140.6025882711
  0
LINE
  5
24B
100
AcDbEntity
  8
00_COMPONENTS_3
100
AcDbLine
 62
7
  6
BYLAYER
 10
45.3213066624
 20
108.1025882711
 11
45.3213066624
 21
130.6025882711
  0
LINE
  5
24C
100
AcDbEntity
  8
00_COMPONENTS
100
AcDbLine
 62
7
  6
BYLAYER
 10
45.6451566624
 20
94.5199882711
 11
45.6451566624
 21
96.0439882711
  0
LINE
  5
24D
100
AcDbEntity
  8
00_COMPONENTS_3
100
AcDbLine
 62
7
  6
BYLAYER
 10
45.6451566624
 20
102.3939882711
 11
45.6451566624
 21
103.9814882711
  0
LINE
  5
24E
100
AcDbEntity
  8
00_COMPONENTS
100
AcDbLine
 62
7
  6
BYLAYER
 10
47.0739066624
 20
93.2499882711
 11
47.0739066624
 21
94.5199882711
  0
LINE
  5
24F
100
AcDbEntity
  8
00_COMPONENTS
100
AcDbLine
 62
7
  6
BYLAYER
 10
48.0264066624
 20
86.9569407345
 11
48.0264066624
 21
93.2499882711
  0
LINE
  5
250
100
AcDbEntity
  8
00_COMPONENTS
100
AcDbLine
 62
7
  6
BYLAYER
 10
49.4889066584
 20
77.0447882711
 11
49.4889066584
 21
85.6579826692
  0
LINE
  5
251
100
AcDbEntity
  8
00_COMPONENTS
100
AcDbLine
 62
7
  6
BYLAYER
 10
52.9889066625
 20
64.7907882712
 11
51.4889066624
 21
76.7907882711
  0
LINE
  5
252
100
AcDbEntity
  8
00_COMPONENTS_3
100
AcDbLine
 62
7
  6
BYLAYER
 10
50.5029066624
 20
96.0439882711
 11
50.5029066624
 21
102.3939882711
  0
LINE
  5
253
100
AcDbEntity
  8
00_COMPONENTS
100
AcDbLine
 62
7
  6
BYLAYER
 10
52.9889066625
 20
61.7907882712
 11
52.9889066625
 21
64.7907882711
  0
LINE
  5
254
100
AcDbEntity
  8
00_COMPONENTS_1
100
AcDbLine
 62
7
  6
BYLAYER
 10
72.4109460177
 20
157.524810149
 11
72.3857433634
 21
157.445725958
  0
LINE
  5
255
100
AcDbEntity
  8
00_COMPONENTS
100
AcDbLine
 62
7
  6
BYLAYER
 10
49.7431671176
 20
76.7907882711
 11
81.2346462073
 21
76.7907882711
  0
LINE
  5
256
100
AcDbEntity
  8
00_COMPONENTS
100
AcDbLine
 62
7
  6
BYLAYER
 10
49.4889066584
 20
77.0447882711
 11
81.4889066664
 21
77.0447882711
  0
LINE
  5
257
100
AcDbEntity
  8
00_COMPONENTS
100
AcDbLine
 62
7
  6
BYLAYER
 10
49.0952066584
 20
86.3398910721
 11
48.0264066624
 21
86.9569630375
  0
LINE
  5
258
100
AcDbEntity
  8
00_COMPONENTS_3
100
AcDbLine
 62
7
  6
BYLAYER
 10
57.9889066624
 20
130.6025882711
 11
57.9889066624
 21
135.6025882711
  0
LINE
  5
259
100
AcDbEntity
  8
00_COMPONENTS
100
AcDbLine
 62
7
  6
BYLAYER
 10
58.2557023295
 20
93.2499882711
 11
58.2557023295
 21
87.7876394768
  0
LINE
  5
25A
100
AcDbEntity
  8
00_COMPONENTS
100
AcDbLine
 62
7
  6
BYLAYER
 10
59.9326566624
 20
96.0439882711
 11
59.9326566624
 21
94.5199882711
  0
LINE
  5
25B
100
AcDbEntity
  8
00_COMPONENTS
100
AcDbLine
 62
7
  6
BYLAYER
 10
60.4889066624
 20
39.0004275073
 11
60.4889066624
 21
61.7907882712
  0
LINE
  5
25C
100
AcDbEntity
  8
00_COMPONENTS
100
AcDbLine
 62
7
  6
BYLAYER
 10
81.4889066664
 20
85.6579826692
 11
49.4889066584
 21
85.6579826692
  0
LINE
  5
25D
100
AcDbEntity
  8
00_COMPONENTS
100
AcDbLine
 62
7
  6
BYLAYER
 10
49.0952066584
 20
86.3398910721
 11
81.8826066664
 21
86.3398910721
  0
LINE
  5
25E
100
AcDbEntity
  8
00_COMPONENTS_1
100
AcDbLine
 62
7
  6
BYLAYER
 10
62.2504066624
 20
165.2405882711
 11
62.2504066624
 21
167.0439882711
  0
LINE
  5
25F
100
AcDbEntity
  8
00_COMPONENTS
100
AcDbLine
 62
7
  6
BYLAYER
 10
62.4198129852
 20
94.5199882711
 11
62.4198129852
 21
93.2499882711
  0
LINE
  5
260
100
AcDbEntity
  8
00_COMPONENTS
100
AcDbLine
 62
7
  6
BYLAYER
 10
68.5580003397
 20
93.2499882711
 11
68.5580003397
 21
94.5199882711
  0
LINE
  5
261
100
AcDbEntity
  8
00_COMPONENTS_1
100
AcDbLine
 62
7
  6
BYLAYER
 10
68.7274066624
 20
165.2405882711
 11
68.7274066624
 21
167.0439882711
  0
LINE
  5
262
100
AcDbEntity
  8
00_COMPONENTS
100
AcDbLine
 62
7
  6
BYLAYER
 10
70.4889066624
 20
39.0004275073
 11
70.4889066624
 21
61.7907882712
  0
LINE
  5
263
100
AcDbEntity
  8
00_COMPONENTS
100
AcDbLine
 62
7
  6
BYLAYER
 10
71.0451566624
 20
94.5199882711
 11
71.0451566624
 21
96.0439882711
  0
LINE
  5
264
100
AcDbEntity
  8
00_COMPONENTS
100
AcDbLine
 62
7
  6
BYLAYER
 10
47.0739066624
 20
93.2499882711
 11
84.1577065432
 21
93.2499882711
  0
LINE
  5
265
100
AcDbEntity
  8
00_COMPONENTS
100
AcDbLine
 62
7
  6
BYLAYER
 10
45.6453904669
 20
94.5199882711
 11
85.3324228579
 21
94.5199882711
  0
LINE
  5
266
100
AcDbEntity
  8
00_COMPONENTS
100
AcDbLine
 62
7
  6
BYLAYER
 10
45.6453904669
 20
96.0439882711
 11
85.3324228579
 21
96.0439882711
  0
LINE
  5
267
100
AcDbEntity
  8
00_COMPONENTS
100
AcDbLine
 62
7
  6
BYLAYER
 10
72.7221109954
 20
93.2499882711
 11
72.7221109954
 21
87.7876394768
  0
LINE
  5
268
100
AcDbEntity
  8
00_COMPONENTS_3
100
AcDbLine
 62
7
  6
BYLAYER
 10
72.9889066624
 20
135.6025882711
 11
72.9889066624
 21
130.6025882711
  0
LINE
  5
269
100
AcDbEntity
  8
00_COMPONENTS
100
AcDbLine
 62
7
  6
BYLAYER
 10
77.9889066624
 20
61.7907882712
 11
77.9889066624
 21
64.7907882711
  0
LINE
  5
26A
100
AcDbEntity
  8
00_COMPONENTS_3
100
AcDbLine
 62
7
  6
BYLAYER
 10
80.4749066624
 20
96.0439882711
 11
80.4749066624
 21
102.3939882711
  0
LINE
  5
26B
100
AcDbEntity
  8
00_COMPONENTS
100
AcDbLine
 62
7
  6
BYLAYER
 10
81.4889066664
 20
77.0447882711
 11
81.4889066664
 21
85.6579826692
  0
LINE
  5
26C
100
AcDbEntity
  8
00_COMPONENTS
100
AcDbLine
 62
7
  6
BYLAYER
 10
77.9889066624
 20
64.7907882712
 11
79.4889066624
 21
76.7907882711
  0
LINE
  5
26D
100
AcDbEntity
  8
00_COMPONENTS
100
AcDbLine
 62
7
  6
BYLAYER
 10
81.8826066664
 20
86.3398910721
 11
82.9514066624
 21
86.9569630375
  0
LINE
  5
26E
100
AcDbEntity
  8
00_COMPONENTS_3
100
AcDbLine
 62
7
  6
BYLAYER
 10
45.6454105243
 20
102.3939882711
 11
85.3324028006
 21
102.3939882711
  0
LINE
  5
26F
100
AcDbEntity
  8
00_COMPONENTS_3
100
AcDbLine
 62
7
  6
BYLAYER
 10
42.9889066624
 20
103.9814882711
 11
87.9889066624
 21
103.9814882711
  0
LINE
  5
270
100
AcDbEntity
  8
00_COMPONENTS_3
100
AcDbLine
 62
7
  6
BYLAYER
 10
42.9889066624
 20
105.6025882711
 11
87.9889066624
 21
105.6025882711
  0
LINE
  5
271
100
AcDbEntity
  8
00_COMPONENTS_1
100
AcDbLine
 62
7
  6
BYLAYER
 10
58.5920699615
 20
157.445725958
 11
58.5668673072
 21
157.524810149
  0
LINE
  5
272
100
AcDbEntity
  8
00_COMPONENTS
100
AcDbLine
 62
7
  6
BYLAYER
 10
82.9514066624
 20
93.2499882711
 11
82.9514066624
 21
86.9569407345
  0
LINE
  5
273
100
AcDbEntity
  8
00_COMPONENTS
100
AcDbLine
 62
7
  6
BYLAYER
 10
84.1579066624
 20
93.2499882711
 11
84.1579066624
 21
94.5199882711
  0
LINE
  5
274
100
AcDbEntity
  8
00_COMPONENTS
100
AcDbLine
 62
7
  6
BYLAYER
 10
85.3326566624
 20
94.5199882711
 11
85.3326566624
 21
96.0439882711
  0
LINE
  5
275
100
AcDbEntity
  8
00_COMPONENTS_3
100
AcDbLine
 62
7
  6
BYLAYER
 10
85.3326566624
 20
102.3939882711
 11
85.3326566624
 21
103.9814882711
  0
LINE
  5
276
100
AcDbEntity
  8
00_COMPONENTS_3
100
AcDbLine
 62
7
  6
BYLAYER
 10
85.6565066624
 20
130.6025882711
 11
85.6565066624
 21
108.1025882711
  0
LINE
  5
277
100
AcDbEntity
  8
00_COMPONENTS_3
100
AcDbLine
 62
7
  6
BYLAYER
 10
85.6819066624
 20
140.6025882711
 11
85.6819066624
 21
130.6025882711
  0
LINE
  5
278
100
AcDbEntity
  8
00_COMPONENTS_3
100
AcDbLine
 62
7
  6
BYLAYER
 10
85.6819066624
 20
108.1025882711
 11
85.6819066624
 21
105.6025882711
  0
LINE
  5
279
100
AcDbEntity
  8
00_COMPONENTS_1
100
AcDbLine
 62
7
  6
BYLAYER
 10
85.6819066624
 20
140.6025882711
 11
85.6819066624
 21
148.1514848113
  0
LINE
  5
27A
100
AcDbEntity
  8
00_COMPONENTS_1
100
AcDbLine
 62
7
  6
BYLAYER
 10
85.6819066624
 20
150.2561368213
 11
85.6819066624
 21
165.2405882711
  0
LINE
  5
27B
100
AcDbEntity
  8
00_COMPONENTS_1
100
AcDbLine
 62
7
  6
BYLAYER
 10
86.0357326675
 20
149.9023108163
 11
86.0357326675
 21
148.5053108163
  0
LINE
  5
27C
100
AcDbEntity
  8
00_COMPONENTS
100
AcDbLine
 62
7
  6
BYLAYER
 10
81.2349066664
 20
76.7907882711
 11
81.4889066664
 21
77.0447882711
  0
LINE
  5
27D
100
AcDbEntity
  8
00_COMPONENTS_3
100
AcDbLine
 62
7
  6
BYLAYER
 10
45.2959066624
 20
108.1025882711
 11
85.6819066624
 21
108.1025882711
  0
LINE
  5
27E
100
AcDbEntity
  8
00_COMPONENTS_3
100
AcDbLine
 62
7
  6
BYLAYER
 10
87.9889066624
 20
105.6025882711
 11
87.9889066624
 21
103.9814882711
  0
LINE
  5
27F
100
AcDbEntity
  8
00_COMPONENTS_1
100
AcDbLine
 62
7
  6
BYLAYER
 10
52.7189824583
 20
140.7284090155
 11
44.9420806574
 21
148.5053108163
  0
LINE
  5
280
100
AcDbEntity
  8
00_COMPONENTS_1
100
AcDbLine
 62
7
  6
BYLAYER
 10
53.7315043905
 20
154.6910343383
 11
49.2526035956
 21
159.1699351333
  0
LINE
  5
281
100
AcDbEntity
  8
00_COMPONENTS_1
100
AcDbLine
 62
7
  6
BYLAYER
 10
55.8081905639
 20
153.0454004587
 11
57.6940443494
 21
151.1595466733
  0
LINE
  5
282
100
AcDbEntity
  8
00_COMPONENTS_1
100
AcDbLine
 62
7
  6
BYLAYER
 10
57.8018074228
 20
151.2673097467
 11
55.9159536374
 21
153.1531635322
  0
LINE
  5
283
100
AcDbEntity
  8
00_COMPONENTS_3
100
AcDbLine
 62
7
  6
BYLAYER
 10
45.2959066624
 20
130.6025882711
 11
57.9889066624
 21
130.6025882711
  0
LINE
  5
284
100
AcDbEntity
  8
00_COMPONENTS_3
100
AcDbLine
 62
7
  6
BYLAYER
 10
72.9889066624
 20
130.6025882711
 11
85.6819066624
 21
130.6025882711
  0
LINE
  5
285
100
AcDbEntity
  8
00_COMPONENTS_1
100
AcDbLine
 62
7
  6
BYLAYER
 10
56.3649664434
 20
153.6021763382
 11
58.2508202289
 21
151.7163225528
  0
LINE
  5
286
100
AcDbEntity
  8
00_COMPONENTS_1
100
AcDbLine
 62
7
  6
BYLAYER
 10
56.8948015546
 20
154.1320114494
 11
51.4527663452
 21
159.5740466587
  0
LINE
  5
287
100
AcDbEntity
  8
00_COMPONENTS_1
100
AcDbLine
 62
7
  6
BYLAYER
 10
56.5625320781
 20
154.5181624626
 11
56.7421372005
 21
154.3385573401
  0
LINE
  5
288
100
AcDbEntity
  8
00_COMPONENTS_1
100
AcDbLine
 62
7
  6
BYLAYER
 10
57.2809525678
 20
153.7997419729
 11
58.8075961084
 21
152.2730984323
  0
LINE
  5
289
100
AcDbEntity
  8
00_COMPONENTS_1
100
AcDbLine
 62
7
  6
BYLAYER
 10
54.6531445808
 20
156.5241666341
 11
54.0065661401
 21
157.1707450748
  0
LINE
  5
28A
100
AcDbEntity
  8
00_COMPONENTS_1
100
AcDbLine
 62
7
  6
BYLAYER
 10
54.6287365348
 20
157.7929154695
 11
55.2753149755
 21
157.1463370287
  0
LINE
  5
28B
100
AcDbEntity
  8
00_COMPONENTS_1
100
AcDbLine
 62
7
  6
BYLAYER
 10
61.2861467978
 20
154.7516491217
 11
59.7595032572
 21
156.2782926623
  0
LINE
  5
28C
100
AcDbEntity
  8
00_COMPONENTS_1
100
AcDbLine
 62
7
  6
BYLAYER
 10
59.2206878899
 20
156.8171080296
 11
59.0410827675
 21
156.996713152
  0
LINE
  5
28D
100
AcDbEntity
  8
00_COMPONENTS_1
100
AcDbLine
 62
7
  6
BYLAYER
 10
59.4272337807
 20
156.6644436755
 11
53.9851985714
 21
162.1064788849
  0
LINE
  5
28E
100
AcDbEntity
  8
00_COMPONENTS_1
100
AcDbLine
 62
7
  6
BYLAYER
 10
61.8429226773
 20
155.3084250012
 11
59.9570688919
 21
157.1942787866
  0
LINE
  5
28F
100
AcDbEntity
  8
00_COMPONENTS_3
100
AcDbLine
 62
7
  6
BYLAYER
 10
57.9889066624
 20
135.6025882711
 11
72.9889066624
 21
135.6025882711
  0
LINE
  5
290
100
AcDbEntity
  8
00_COMPONENTS_1
100
AcDbLine
 62
7
  6
BYLAYER
 10
60.4060816979
 20
157.6432915927
 11
62.2919354833
 21
155.7574378073
  0
LINE
  5
291
100
AcDbEntity
  8
00_COMPONENTS_1
100
AcDbLine
 62
7
  6
BYLAYER
 10
62.3996985568
 20
155.8652008807
 11
60.5138447714
 21
157.7510546661
  0
LINE
  5
292
100
AcDbEntity
  8
00_COMPONENTS_1
100
AcDbLine
 62
7
  6
BYLAYER
 10
68.5781147681
 20
155.8652008807
 11
73.2837689755
 21
151.1595466733
  0
LINE
  5
293
100
AcDbEntity
  8
00_COMPONENTS_3
100
AcDbLine
 62
7
  6
BYLAYER
 10
45.2959066624
 20
140.6025882711
 11
85.6819066624
 21
140.6025882711
  0
LINE
  5
294
100
AcDbEntity
  8
00_COMPONENTS_1
100
AcDbLine
 62
7
  6
BYLAYER
 10
78.2588308666
 20
140.7284090155
 11
52.7189824583
 21
140.7284090155
  0
LINE
  5
295
100
AcDbEntity
  8
00_COMPONENTS_1
100
AcDbLine
 62
7
  6
BYLAYER
 10
74.2536366366
 20
153.2429660934
 11
70.6615341882
 21
156.8350685418
  0
LINE
  5
296
100
AcDbEntity
  8
00_COMPONENTS_1
100
AcDbLine
 62
7
  6
BYLAYER
 10
75.169622761
 20
153.0454004587
 11
74.0830117703
 21
154.1320114494
  0
LINE
  5
297
100
AcDbEntity
  8
00_COMPONENTS_1
100
AcDbLine
 62
7
  6
BYLAYER
 10
71.5505795442
 20
156.6644436755
 11
70.4639685535
 21
157.7510546661
  0
LINE
  5
298
100
AcDbEntity
  8
00_COMPONENTS_1
100
AcDbLine
 62
7
  6
BYLAYER
 10
71.7301846666
 20
156.8440487979
 11
74.2626168927
 21
154.3116165718
  0
LINE
  5
299
100
AcDbEntity
  8
00_COMPONENTS_1
100
AcDbLine
 62
7
  6
BYLAYER
 10
74.4422220151
 20
154.4912216942
 11
71.909789789
 21
157.0236539203
  0
LINE
  5
29A
100
AcDbEntity
  8
00_COMPONENTS_1
100
AcDbLine
 62
7
  6
BYLAYER
 10
72.3588025951
 20
157.4726667264
 11
74.8912348212
 21
154.9402345002
  0
LINE
  5
29B
100
AcDbEntity
  8
00_COMPONENTS_1
100
AcDbLine
 62
7
  6
BYLAYER
 10
84.7338825619
 20
147.2034607107
 11
77.2463089343
 21
154.6910343383
  0
LINE
  5
29C
100
AcDbEntity
  8
00_COMPONENTS_1
100
AcDbLine
 62
7
  6
BYLAYER
 10
73.4364333296
 20
158.5502974609
 11
75.9688655557
 21
156.0178652348
  0
LINE
  5
29D
100
AcDbEntity
  8
00_COMPONENTS_1
100
AcDbLine
 62
7
  6
BYLAYER
 10
56.034435081
 20
154.9923779229
 11
56.1135192721
 21
154.9671752686
  0
LINE
  5
29E
100
AcDbEntity
  8
00_COMPONENTS_1
100
AcDbLine
 62
7
  6
BYLAYER
 10
74.5649051236
 20
158.2839302546
 11
73.9427347289
 21
158.9061006492
  0
LINE
  5
29F
100
AcDbEntity
  8
00_COMPONENTS_1
100
AcDbLine
 62
7
  6
BYLAYER
 10
77.0464962903
 20
157.0954959693
 11
74.5140640641
 21
159.6279281954
  0
LINE
  5
2A0
100
AcDbEntity
  8
00_COMPONENTS_1
100
AcDbLine
 62
7
  6
BYLAYER
 10
79.2466590399
 20
156.6913844439
 11
86.0357326675
 21
149.9023108163
  0
LINE
  5
2A1
100
AcDbEntity
  8
00_COMPONENTS_1
100
AcDbLine
 62
7
  6
BYLAYER
 10
79.7248596238
 20
157.1695850277
 11
78.4227224862
 21
158.4717221652
  0
LINE
  5
2A2
100
AcDbEntity
  8
00_COMPONENTS_1
100
AcDbLine
 62
7
  6
BYLAYER
 10
75.8902902601
 20
161.0041543914
 11
71.6538563803
 21
165.2405882711
  0
LINE
  5
2A3
100
AcDbEntity
  8
00_COMPONENTS_1
100
AcDbLine
 62
7
  6
BYLAYER
 10
79.5250469797
 20
159.5740466587
 11
76.9926147535
 21
162.1064788849
  0
LINE
  5
2A4
100
AcDbEntity
  8
00_COMPONENTS_1
100
AcDbLine
 62
7
  6
BYLAYER
 10
75.6545565915
 20
165.2405882711
 11
81.7252097293
 21
159.1699351333
  0
LINE
  5
2A5
100
AcDbEntity
  8
00_COMPONENTS_1
100
AcDbLine
 62
7
  6
BYLAYER
 10
45.2959066624
 20
165.2405882711
 11
85.6819066624
 21
165.2405882711
  0
LINE
  5
2A6
100
AcDbEntity
  8
00_COMPONENTS_1
100
AcDbLine
 62
7
  6
BYLAYER
 10
68.7274066624
 20
167.0439882711
 11
62.2504066624
 21
167.0439882711
  0
ARC
  5
2A7
100
AcDbEntity
  8
00_COMPONENTS
100
AcDbCircle
 62
7
  6
BYLAYER
 10
65.4889066624
 20
27.5439882699
 40
12.5
100
AcDbArc
 50
113.5781784782
 51
66.4218215218
  0
ARC
  5
2A8
100
AcDbEntity
  8
00_COMPONENTS
100
AcDbCircle
 62
7
  6
BYLAYER
 10
82.2763066664
 20
85.6579826692
 40
0.7874
100
AcDbArc
 50
120.0
 51
180.0
  0
ARC
  5
2A9
100
AcDbEntity
  8
00_COMPONENTS
100
AcDbCircle
 62
7
  6
BYLAYER
 10
48.7015066584
 20
85.6579826692
 40
0.7874
100
AcDbArc
 50
0.0
 51
60.0
  0
SPLINE
  5
2AA
100
AcDbEntity
  8
00_COMPONENTS_1
100
AcDbSpline
 62
7
  6
BYLAYER
 70
0
 71
3
 72
15
 73
11
 74
0
 42
0.0000001
 43
0.0000001
 44
0.0000000001
 40
0.0
 40
0.0
 40
0.0
 40
0.0
 40
0.0762796551
 40
0.1604963053
 40
0.2581855293
 40
0.3724034092
 40
0.5042198134
 40
0.6535053273
 40
0.8193679375
 40
1.0
 40
1.0
 40
1.0
 40
1.0
 10
50.3109084999
 20
158.7043271329
 30
0.0
 10
50.3430429981
 20
158.6721926347
 30
0.0
 10
50.4240127849
 20
158.617070176
 30
0.0
 10
50.5742858985
 20
158.5758601126
 30
0.0
 10
50.7519296157
 20
158.5718513329
 30
0.0
 10
50.9550137782
 20
158.6035126868
 30
0.0
 10
51.1815070381
 20
158.6698946036
 30
0.0
 10
51.4285682177
 20
158.7701823371
 30
0.0
 10
51.6926903178
 20
158.9029618278
 30
0.0
 10
51.8707096538
 20
159.0077713312
 30
0.0
 10
51.9619018969
 20
159.0649111071
 30
0.0
  0
SPLINE
  5
2AB
100
AcDbEntity
  8
00_COMPONENTS_1
100
AcDbSpline
 62
7
  6
BYLAYER
 70
0
 71
3
 72
15
 73
11
 74
0
 42
0.0000001
 43
0.0000001
 44
0.0000000001
 40
0.0
 40
0.0
 40
0.0
 40
0.0
 40
0.1806320625
 40
0.3464946727
 40
0.4957801866
 40
0.6275965908
 40
0.7418144707
 40
0.8395036947
 40
0.9237203449
 40
1.0
 40
1.0
 40
1.0
 40
1.0
 10
54.494334123
 20
161.5973433332
 30
0.0
 10
54.5514738989
 20
161.6885355763
 30
0.0
 10
54.6562834022
 20
161.8665549123
 30
0.0
 10
54.789062893
 20
162.1306770123
 30
0.0
 10
54.8893506265
 20
162.377738192
 30
0.0
 10
54.9557325433
 20
162.6042314519
 30
0.0
 10
54.9873938972
 20
162.8073156144
 30
0.0
 10
54.9833851175
 20
162.9849593315
 30
0.0
 10
54.942175054
 20
163.1352324451
 30
0.0
 10
54.8870525954
 20
163.216202232
 30
0.0
 10
54.8549180972
 20
163.2483367302
 30
0.0
  0
SPLINE
  5
2AC
100
AcDbEntity
  8
00_COMPONENTS_1
100
AcDbSpline
 62
7
  6
BYLAYER
 70
0
 71
3
 72
15
 73
11
 74
0
 42
0.0000001
 43
0.0000001
 44
0.0000000001
 40
0.0
 40
0.0
 40
0.0
 40
0.0
 40
0.1806320625
 40
0.3464946727
 40
0.4957801866
 40
0.6275965908
 40
0.7418144707
 40
0.8395036947
 40
0.9237203449
 40
1.0
 40
1.0
 40
1.0
 40
1.0
 10
79.015911428
 20
159.0649111071
 30
0.0
 10
79.1071036711
 20
159.0077713312
 30
0.0
 10
79.2851230071
 20
158.9029618278
 30
0.0
 10
79.5492451071
 20
158.7701823371
 30
0.0
 10
79.7963062868
 20
158.6698946036
 30
0.0
 10
80.0227995467
 20
158.6035126868
 30
0.0
 10
80.2258837092
 20
158.5718513329
 30
0.0
 10
80.4035274264
 20
158.5758601126
 30
0.0
 10
80.55380054
 20
158.617070176
 30
0.0
 10
80.6347703268
 20
158.6721926347
 30
0.0
 10
80.666904825
 20
158.7043271329
 30
0.0
  0
SPLINE
  5
2AD
100
AcDbEntity
  8
00_COMPONENTS_1
100
AcDbSpline
 62
7
  6
BYLAYER
 70
0
 71
3
 72
15
 73
11
 74
0
 42
0.0000001
 43
0.0000001
 44
0.0000000001
 40
0.0
 40
0.0
 40
0.0
 40
0.0
 40
0.0762796551
 40
0.1604963053
 40
0.2581855293
 40
0.3724034092
 40
0.5042198134
 40
0.6535053273
 40
0.8193679375
 40
1.0
 40
1.0
 40
1.0
 40
1.0
 10
76.1228952277
 20
163.2483367302
 30
0.0
 10
76.0907607295
 20
163.216202232
 30
0.0
 10
76.0356382708
 20
163.1352324451
 30
0.0
 10
75.9944282074
 20
162.9849593315
 30
0.0
 10
75.9904194277
 20
162.8073156144
 30
0.0
 10
76.0220807816
 20
162.6042314519
 30
0.0
 10
76.0884626984
 20
162.377738192
 30
0.0
 10
76.1887504319
 20
162.1306770123
 30
0.0
 10
76.3215299227
 20
161.8665549123
 30
0.0
 10
76.426339426
 20
161.6885355763
 30
0.0
 10
76.4834792019
 20
161.5973433332
 30
0.0
  0
SPLINE
  5
2AE
100
AcDbEntity
  8
00_COMPONENTS_1
100
AcDbSpline
 62
7
  6
BYLAYER
 70
0
 71
3
 72
17
 73
13
 74
0
 42
0.0000001
 43
0.0000001
 44
0.0000000001
 40
0.0
 40
0.0
 40
0.0
 40
0.0
 40
0.032054835
 40
0.0658449008
 40
0.1027577396
 40
0.1438071405
 40
0.2404760319
 40
0.3580453726
 40
0.4956865762
 40
0.6509560843
 40
0.8204573595
 40
1.0
 40
1.0
 40
1.0
 40
1.0
 10
80.666904825
 20
158.7043271329
 30
0.0
 10
80.6892701265
 20
158.7266924344
 30
0.0
 10
80.7294142816
 20
158.7787891585
 30
0.0
 10
80.7706477223
 20
158.8723040032
 30
0.0
 10
80.7936340671
 20
158.980818472
 30
0.0
 10
80.8006244325
 20
159.1536179434
 30
0.0
 10
80.7584783622
 20
159.4043121762
 30
0.0
 10
80.6440440955
 20
159.733039126
 30
0.0
 10
80.4656753017
 20
160.0975736395
 30
0.0
 10
80.2281554461
 20
160.4877226964
 30
0.0
 10
79.9379385778
 20
160.8924340651
 30
0.0
 10
79.7192167326
 20
161.1588157027
 30
0.0
 10
79.6027949884
 20
161.2923498742
 30
0.0
  0
SPLINE
  5
2AF
100
AcDbEntity
  8
00_COMPONENTS_1
100
AcDbSpline
 62
7
  6
BYLAYER
 70
0
 71
3
 72
17
 73
13
 74
0
 42
0.0000001
 43
0.0000001
 44
0.0000000001
 40
0.0
 40
0.0
 40
0.0
 40
0.0
 40
0.1795426405
 40
0.3490439157
 40
0.5043134238
 40
0.6419546274
 40
0.7595239681
 40
0.8561928595
 40
0.8972422604
 40
0.9341550992
 40
0.967945165
 40
1.0
 40
1.0
 40
1.0
 40
1.0
 10
51.3750183365
 20
161.2923498742
 30
0.0
 10
51.2585965923
 20
161.1588157027
 30
0.0
 10
51.0398747471
 20
160.8924340651
 30
0.0
 10
50.7496578788
 20
160.4877226964
 30
0.0
 10
50.5121380231
 20
160.0975736395
 30
0.0
 10
50.3337692294
 20
159.733039126
 30
0.0
 10
50.2193349627
 20
159.4043121762
 30
0.0
 10
50.1771888923
 20
159.1536179434
 30
0.0
 10
50.1841792578
 20
158.980818472
 30
0.0
 10
50.2071656026
 20
158.8723040032
 30
0.0
 10
50.2483990433
 20
158.7787891585
 30
0.0
 10
50.2885431984
 20
158.7266924344
 30
0.0
 10
50.3109084999
 20
158.7043271329
 30
0.0
  0
SPLINE
  5
2B0
100
AcDbEntity
  8
00_COMPONENTS_1
100
AcDbSpline
 62
7
  6
BYLAYER
 70
0
 71
3
 72
17
 73
13
 74
0
 42
0.0000001
 43
0.0000001
 44
0.0000000001
 40
0.0
 40
0.0
 40
0.0
 40
0.0
 40
0.1795426405
 40
0.3490439157
 40
0.5043134238
 40
0.6419546274
 40
0.7595239681
 40
0.8561928595
 40
0.8972422604
 40
0.9341550992
 40
0.967945165
 40
1.0
 40
1.0
 40
1.0
 40
1.0
 10
78.7109179691
 20
162.1842268936
 30
0.0
 10
78.5773837975
 20
162.3006486378
 30
0.0
 10
78.3110021599
 20
162.5193704829
 30
0.0
 10
77.9062907913
 20
162.8095873513
 30
0.0
 10
77.5161417343
 20
163.0471072069
 30
0.0
 10
77.1516072208
 20
163.2254760006
 30
0.0
 10
76.8228802711
 20
163.3399102674
 30
0.0
 10
76.5721860382
 20
163.3820563377
 30
0.0
 10
76.3993865668
 20
163.3750659723
 30
0.0
 10
76.2908720981
 20
163.3520796274
 30
0.0
 10
76.1973572534
 20
163.3108461867
 30
0.0
 10
76.1452605292
 20
163.2707020316
 30
0.0
 10
76.1228952277
 20
163.2483367302
 30
0.0
  0
SPLINE
  5
2B1
100
AcDbEntity
  8
00_COMPONENTS_1
100
AcDbSpline
 62
7
  6
BYLAYER
 70
0
 71
3
 72
17
 73
13
 74
0
 42
0.0000001
 43
0.0000001
 44
0.0000000001
 40
0.0
 40
0.0
 40
0.0
 40
0.0
 40
0.032054835
 40
0.0658449008
 40
0.1027577396
 40
0.1438071405
 40
0.2404760319
 40
0.3580453726
 40
0.4956865762
 40
0.6509560843
 40
0.8204573595
 40
1.0
 40
1.0
 40
1.0
 40
1.0
 10
54.8549180972
 20
163.2483367302
 30
0.0
 10
54.8325527957
 20
163.2707020316
 30
0.0
 10
54.7804560715
 20
163.3108461867
 30
0.0
 10
54.6869412268
 20
163.3520796274
 30
0.0
 10
54.578426758
 20
163.3750659723
 30
0.0
 10
54.4056272867
 20
163.3820563377
 30
0.0
 10
54.1549330538
 20
163.3399102674
 30
0.0
 10
53.8262061041
 20
163.2254760006
 30
0.0
 10
53.4616715906
 20
163.0471072069
 30
0.0
 10
53.0715225336
 20
162.8095873513
 30
0.0
 10
52.666811165
 20
162.519370483
 30
0.0
 10
52.4004295273
 20
162.3006486378
 30
0.0
 10
52.2668953558
 20
162.1842268936
 30
0.0
  0
SPLINE
  5
2B2
100
AcDbEntity
  8
00_COMPONENTS
100
AcDbSpline
 62
7
  6
BYLAYER
 70
0
 71
3
 72
13
 73
9
 74
0
 42
0.0000001
 43
0.0000001
 44
0.0000000001
 40
0.0
 40
0.0
 40
0.0
 40
0.0
 40
0.2514376165
 40
0.3759332228
 40
0.5
 40
0.6240667772
 40
0.7485623835
 40
1.0
 40
1.0
 40
1.0
 40
1.0
 10
48.0264066624
 20
87.7876394768
 30
0.0
 10
48.8582462423
 20
87.5277231195
 30
0.0
 10
50.1282756037
 20
87.2124647789
 30
0.0
 10
51.8490726618
 20
86.9939522273
 30
0.0
 10
53.141054496
 20
86.938466915
 30
0.0
 10
54.4330363301
 20
86.9939522273
 30
0.0
 10
56.1538333882
 20
87.2124647789
 30
0.0
 10
57.4238627496
 20
87.5277231195
 30
0.0
 10
58.2557023295
 20
87.7876394768
 30
0.0
  0
SPLINE
  5
2B3
100
AcDbEntity
  8
00_COMPONENTS
100
AcDbSpline
 62
7
  6
BYLAYER
 70
0
 71
3
 72
10
 73
6
 74
0
 42
0.0000001
 43
0.0000001
 44
0.0000000001
 40
0.0
 40
0.0
 40
0.0
 40
0.0
 40
0.4999178017
 40
0.7499636292
 40
1.0
 40
1.0
 40
1.0
 40
1.0
 10
58.2557023295
 20
87.7876394768
 30
0.0
 10
59.4424327787
 20
87.5254404238
 30
0.0
 10
61.2425317216
 20
87.2109746829
 30
0.0
 10
63.6649416496
 20
86.9938273064
 30
0.0
 10
64.8810429385
 20
86.9569630375
 30
0.0
 10
65.4889066624
 20
86.9569630375
 30
0.0
  0
SPLINE
  5
2B4
100
AcDbEntity
  8
00_COMPONENTS
100
AcDbSpline
 62
7
  6
BYLAYER
 70
0
 71
3
 72
10
 73
6
 74
0
 42
0.0000001
 43
0.0000001
 44
0.0000000001
 40
0.0
 40
0.0
 40
0.0
 40
0.0
 40
0.2500363762
 40
0.5000822131
 40
1.0
 40
1.0
 40
1.0
 40
1.0
 10
65.4889066624
 20
86.9569630375
 30
0.0
 10
66.0967703984
 20
86.9569630375
 30
0.0
 10
67.3128717035
 20
86.9938277244
 30
0.0
 10
69.7352816761
 20
87.2109744418
 30
0.0
 10
71.5353805834
 20
87.525440432
 30
0.0
 10
72.7221109954
 20
87.7876394768
 30
0.0
  0
SPLINE
  5
2B5
100
AcDbEntity
  8
00_COMPONENTS
100
AcDbSpline
 62
7
  6
BYLAYER
 70
0
 71
3
 72
13
 73
9
 74
0
 42
0.0000001
 43
0.0000001
 44
0.0000000001
 40
0.0
 40
0.0
 40
0.0
 40
0.0
 40
0.2514376165
 40
0.3759332228
 40
0.5
 40
0.6240667772
 40
0.7485623835
 40
1.0
 40
1.0
 40
1.0
 40
1.0
 10
72.7221109954
 20
87.7876394768
 30
0.0
 10
73.5539505752
 20
87.5277231195
 30
0.0
 10
74.8239799367
 20
87.2124647789
 30
0.0
 10
76.5447769948
 20
86.9939522273
 30
0.0
 10
77.8367588289
 20
86.938466915
 30
0.0
 10
79.1287406631
 20
86.9939522273
 30
0.0
 10
80.8495377212
 20
87.2124647789
 30
0.0
 10
82.1195670826
 20
87.5277231195
 30
0.0
 10
82.9514066624
 20
87.7876394768
 30
0.0
  0
ENDSEC
  0
SECTION
  2
OBJECTS
  0
DICTIONARY
  5
C
100
AcDbDictionary
280
0
281
1
  3
ACAD_GROUP
350
D
  3
ACAD_MLINESTYLE
350
17
  3
ACAD_LAYOUT
350
1A
  3
ACAD_PLOTSETTINGS
350
19
  3
ACAD_PLOTSTYLENAME
350
E
  0
DICTIONARY
  5
D
102
{ACAD_REACTORS
330
C
102
}
100
AcDbDictionary
280
0
281
1
  0
ACDBDICTIONARYWDFLT
  5
E
102
{ACAD_REACTORS
330
C
102
}
100
AcDbDictionary
281
1
  3
Normal
350
F
100
AcDbDictionaryWithDefault
340
F
  0
DICTIONARY
  5
17
102
{ACAD_REACTORS
330
C
102
}
100
AcDbDictionary
280
0
281
1
  3
Standard
350
18
  0
DICTIONARY
  5
19
102
{ACAD_REACTORS
330
C
102
}
100
AcDbDictionary
281
1
  0
DICTIONARY
  5
1A
102
{ACAD_REACTORS
330
C
102
}
100
AcDbDictionary
281
1
  3
Model
350
2B6
  3
Layout1
350
2B7
  0
ACDBPLACEHOLDER
  5
F
102
{ACAD_REACTORS
330
E
102
}
  0
MLINESTYLE
  5
18
102
{ACAD_REACTORS
330
17
102
}
100
AcDbMlineStyle
  2
STANDARD
 70
0
  3

 62
256
 51
90.0
 52
90.0
 71
2
 49
0.5
 62
256
  6
BYLAYER
 49
-0.5
 62
256
  6
BYLAYER
  0
LAYOUT
  5
2B6
102
{ACAD_REACTORS
330
1A
102
}
100
AcDbPlotSettings
  1

  2
none_device
  4

  6

 40
0.0
 41
0.0
 42
0.0
 43
0.0
 44
210.0
 45
297.0
 46
0.0
 47
0.0
 48
0.0
 49
0.0
140
0.0
141
0.0
142
1.0
143
1.0
 70
1024
 72
1
 73
0
 74
0
  7

 75
0
147
1.0
148
0.0
149
0.0
100
AcDbLayout
  1
Model
 70
0
 71
0
 10
0.0
 20
0.0
 11
210.0
 21
297.0
 12
0.0
 22
0.0
 32
0.0
 14
0.0
 24
0.0
 34
0.0
 15
0.0
 25
0.0
 35
0.0
146
0.0
 13
0.0
 23
0.0
 33
0.0
 16
1.0
 26
0.0
 36
0.0
 17
0.0
 27
1.0
 37
0.0
 76
0
330
219
345
0
346
0
  0
LAYOUT
  5
2B7
102
{ACAD_REACTORS
330
1A
102
}
100
AcDbPlotSettings
  1

  2
none_device
  4

  6

 40
0.0
 41
0.0
 42
0.0
 43
0.0
 44
210.0
 45
297.0
 46
0.0
 47
0.0
 48
0.0
 49
0.0
140
0.0
141
0.0
142
1.0
143
1.0
 70
0
 72
1
 73
0
 74
0
  7

 75
0
147
1.0
148
0.0
149
0.0
100
AcDbLayout
  1
Layout1
 70
0
 71
1
 10
0.0
 20
0.0
 11
210.0
 21
297.0
 12
0.0
 22
0.0
 32
0.0
 14
0.0
 24
0.0
 34
0.0
 15
0.0
 25
0.0
 35
0.0
146
0.0
 13
0.0
 23
0.0
 33
0.0
 16
1.0
 26
0.0
 36
0.0
 17
0.0
 27
1.0
 37
0.0
 76
0
330
21A
345
0
346
0
  0
ENDSEC
  0
EOF
