999
DXF file: C:\Users\sesa63760\Dev\_Creo\CAD\MCADID0004006_3D-CAD\drw0001_6.dxf
999
Pro/ENGINEER 2019471 by Parametric Technology Corporation
  0
SECTION
  2
HEADER
  9
$ACADVER
  1
AC1024
  9
$DWGCODEPAGE
  3
ANSI_1252
  9
$EXTMAX
 10
63.8351789227
 20
90.2811816193
 30
0.0
  9
$EXTMIN
 10
0.0
 20
0.0
 30
0.0
  9
$LIMMIN
 10
0.0
 20
0.0
  9
$LIMMAX
 10
63.8351789227
 20
90.2811816193
  9
$VIEWCTR
 10
31.9175894614
 20
45.1405908096
  9
$VIEWSIZE
 40
90.2811816193
  9
$CLAYER
  8
0
  9
$LTSCALE
 40
5.8849955426
  9
$CELTYPE
  6
BYLAYER
  9
$DIMSCALE
 40
1.0
  9
$DIMASZ
 40
0.7599426062
  9
$DIMEXO
 40
1.0
  9
$DIMDLI
 40
4.0659969203
  9
$DIMEXE
 40
1.0
  9
$DIMCEN
 40
0.9629992706
  9
$DIMLFAC
 40
1.0
  9
$DIMBLK
  1
_FILLED
  9
$DIMALT
 70
0
  9
$DIMALTF
 40
0.0393700787
  9
$DIMTXT
 40
1.0639196487
  9
$DIMTOL
 70
1
  9
$DIMLIM
 70
0
  9
$DIMTFAC
 40
1.0
  9
$DIMTP
 40
0.01
  9
$DIMTM
 40
0.01
  9
$DIMGAP
 40
0.625
  9
$DIMDSEP
 70
46
  9
$AUNITS
 70
0
  9
$PDMODE
 70
3
  9
$PDSIZE
 40
0.3125
  9
$HANDSEED
  5
33E
  9
$TILEMODE
 70
1
  9
$MEASUREMENT
 70
1
  9
$INSUNITS
 70
4
  0
ENDSEC
  0
SECTION
  2
CLASSES
  0
CLASS
  1
ACDBDICTIONARYWDFLT
  2
AcDbDictionaryWithDefault
  3
AutoCAD 2000
 90
0
 91
1
280
0
281
0
  0
CLASS
  1
ACDBPLACEHOLDER
  2
AcDbPlaceHolder
  3
AutoCAD 2000
 90
0
 91
1
280
0
281
0
  0
CLASS
  1
LAYOUT
  2
AcDbLayout
  3
AutoCAD 2000
 90
0
 91
0
280
0
281
0
  0
ENDSEC
  0
SECTION
  2
TABLES
  0
TABLE
  2
VPORT
  5
8
100
AcDbSymbolTable
 70
2
  0
VPORT
  5
1F4
100
AcDbSymbolTableRecord
100
AcDbViewportTableRecord
  2
*ACTIVE
 70
0
 10
0.0
 20
0.0
 11
1.0
 21
1.0
 12
31.9175894614
 22
45.1405908096
 13
0.0
 23
0.0
 14
1.0
 24
1.0
 15
0.0
 25
0.0
 16
0.0
 26
0.0
 36
1.0
 17
0.0
 27
0.0
 37
0.0
 40
90.2811816193
 41
0.7070707071
 42
50.0
 43
0.0
 44
0.0
 50
0.0
 51
0.0
 71
0
 72
100
 73
1
 74
1
 75
0
 76
0
 77
0
 78
0
  0
ENDTAB
  0
TABLE
  2
LTYPE
  5
5
100
AcDbSymbolTable
 70
6
  0
LTYPE
  5
14
100
AcDbSymbolTableRecord
100
AcDbLinetypeTableRecord
  2
BYBLOCK
 70
0
  3

 72
65
 73
0
 40
0.0
  0
LTYPE
  5
15
100
AcDbSymbolTableRecord
100
AcDbLinetypeTableRecord
  2
BYLAYER
 70
0
  3

 72
65
 73
0
 40
0.0
  0
LTYPE
  5
16
100
AcDbSymbolTableRecord
100
AcDbLinetypeTableRecord
  2
CONTINUOUS
 70
64
  3
Solid line
 72
65
 73
0
 40
0.0
  0
LTYPE
  5
1F5
100
AcDbSymbolTableRecord
100
AcDbLinetypeTableRecord
  2
CENTER
 70
64
  3
____ _ ____ _ ____ _ ____ _ ____ _ ____ _ ____
 72
65
 73
4
 40
0.6
 49
0.375
 74
0
 49
-0.075
 74
0
 49
0.075
 74
0
 49
-0.075
 74
0
  0
LTYPE
  5
1F6
100
AcDbSymbolTableRecord
100
AcDbLinetypeTableRecord
  2
HIDDEN
 70
64
  3
- - - - - - - - - - - - - - - - - - - -
 72
65
 73
2
 40
0.2
 49
0.1
 74
0
 49
-0.1
 74
0
  0
LTYPE
  5
1F7
100
AcDbSymbolTableRecord
100
AcDbLinetypeTableRecord
  2
PHANTOM
 70
64
  3
_____ _ _ _____ _ _ _____ _ _ _____
 72
65
 73
6
 40
0.8
 49
0.45
 74
0
 49
-0.05
 74
0
 49
0.1
 74
0
 49
-0.05
 74
0
 49
0.1
 74
0
 49
-0.05
 74
0
  0
LTYPE
  5
1F8
100
AcDbSymbolTableRecord
100
AcDbLinetypeTableRecord
  2
DOT
 70
64
  3
. . . . . . . . . . . . . . . . . . . .
 72
65
 73
2
 40
0.2
 49
0.1
 74
0
 49
-0.1
 74
0
  0
LTYPE
  5
1F9
100
AcDbSymbolTableRecord
100
AcDbLinetypeTableRecord
  2
DASHED
 70
64
  3
- - - - - - - - - - - - - - - - - - - -
 72
65
 73
2
 40
0.2
 49
0.1
 74
0
 49
-0.1
 74
0
  0
ENDTAB
  0
TABLE
  2
LAYER
  5
2
100
AcDbSymbolTable
 70
36
  0
LAYER
  5
10
100
AcDbSymbolTableRecord
100
AcDbLayerTableRecord
  2
0
 70
0
 62
7
  6
CONTINUOUS
370
-3
390
F
  0
LAYER
  5
1FA
100
AcDbSymbolTableRecord
100
AcDbLayerTableRecord
  2
DEFAULT_1
 70
0
 62
7
  6
CENTER
370
-3
390
F
  0
LAYER
  5
1FB
100
AcDbSymbolTableRecord
100
AcDbLayerTableRecord
  2
DEFAULT_2
 70
0
 62
7
  6
HIDDEN
370
-3
390
F
  0
LAYER
  5
1FC
100
AcDbSymbolTableRecord
100
AcDbLayerTableRecord
  2
DEFAULT_3
 70
0
 62
7
  6
PHANTOM
370
-3
390
F
  0
LAYER
  5
1FD
100
AcDbSymbolTableRecord
100
AcDbLayerTableRecord
  2
00_COMPONENTS
 70
0
 62
7
  6
CONTINUOUS
370
-3
390
F
  0
LAYER
  5
1FE
100
AcDbSymbolTableRecord
100
AcDbLayerTableRecord
  2
01_1_DEFAULT_DATUMS
 70
0
 62
7
  6
CONTINUOUS
370
-3
390
F
  0
LAYER
  5
1FF
100
AcDbSymbolTableRecord
100
AcDbLayerTableRecord
  2
01_PLANES
 70
0
 62
7
  6
CONTINUOUS
370
-3
390
F
  0
LAYER
  5
200
100
AcDbSymbolTableRecord
100
AcDbLayerTableRecord
  2
02_COORD_SYS
 70
0
 62
7
  6
CONTINUOUS
370
-3
390
F
  0
LAYER
  5
201
100
AcDbSymbolTableRecord
100
AcDbLayerTableRecord
  2
03_AXES
 70
0
 62
7
  6
CONTINUOUS
370
-3
390
F
  0
LAYER
  5
202
100
AcDbSymbolTableRecord
100
AcDbLayerTableRecord
  2
04_POINTS
 70
0
 62
7
  6
CONTINUOUS
370
-3
390
F
  0
LAYER
  5
203
100
AcDbSymbolTableRecord
100
AcDbLayerTableRecord
  2
05_CURVES
 70
0
 62
7
  6
CONTINUOUS
370
-3
390
F
  0
LAYER
  5
204
100
AcDbSymbolTableRecord
100
AcDbLayerTableRecord
  2
06_SURFS
 70
0
 62
7
  6
CONTINUOUS
370
-3
390
F
  0
LAYER
  5
205
100
AcDbSymbolTableRecord
100
AcDbLayerTableRecord
  2
07_COSMETICS
 70
0
 62
7
  6
CONTINUOUS
370
-3
390
F
  0
LAYER
  5
206
100
AcDbSymbolTableRecord
100
AcDbLayerTableRecord
  2
10_NOTES
 70
0
 62
7
  6
CONTINUOUS
370
-3
390
F
  0
LAYER
  5
207
100
AcDbSymbolTableRecord
100
AcDbLayerTableRecord
  2
11_NOTES_PUB
 70
0
 62
7
  6
CONTINUOUS
370
-3
390
F
  0
LAYER
  5
208
100
AcDbSymbolTableRecord
100
AcDbLayerTableRecord
  2
13_REF_GTOL
 70
0
 62
7
  6
CONTINUOUS
370
-3
390
F
  0
LAYER
  5
209
100
AcDbSymbolTableRecord
100
AcDbLayerTableRecord
  2
16_MISC
 70
0
 62
7
  6
CONTINUOUS
370
-3
390
F
  0
LAYER
  5
20A
100
AcDbSymbolTableRecord
100
AcDbLayerTableRecord
  2
17_NO_PRINT
 70
0
 62
7
  6
CONTINUOUS
370
-3
390
F
  0
LAYER
  5
20B
100
AcDbSymbolTableRecord
100
AcDbLayerTableRecord
  2
18_DATUM_CAMS_JOINTS
 70
0
 62
7
  6
CONTINUOUS
370
-3
390
F
  0
LAYER
  5
20C
100
AcDbSymbolTableRecord
100
AcDbLayerTableRecord
  2
19_DATUM_FUNCTIONAL
 70
0
 62
7
  6
CONTINUOUS
370
-3
390
F
  0
LAYER
  5
20D
100
AcDbSymbolTableRecord
100
AcDbLayerTableRecord
  2
20_DATUM_KINEMATIC_SCHEME
 70
0
 62
7
  6
CONTINUOUS
370
-3
390
F
  0
ENDTAB
  0
TABLE
  2
STYLE
  5
3
100
AcDbSymbolTable
 70
1
  0
STYLE
  5
11
100
AcDbSymbolTableRecord
100
AcDbTextStyleTableRecord
  2
STANDARD
 70
0
 40
0.0
 41
1.0
 50
0.0
 71
0
 42
0.2
  3
ARIAL.TTF
  4

  0
STYLE
  5
20E
100
AcDbSymbolTableRecord
100
AcDbTextStyleTableRecord
  2
TEXTSTYLE_1
 70
0
 40
0.0
 41
0.8
 50
0.0
 71
0
 42
0.2
  3
gdt
  4

  0
ENDTAB
  0
TABLE
  2
VIEW
  5
6
100
AcDbSymbolTable
 70
0
  0
ENDTAB
  0
TABLE
  2
UCS
  5
7
100
AcDbSymbolTable
 70
0
  0
ENDTAB
  0
TABLE
  2
APPID
  5
9
100
AcDbSymbolTable
 70
1
  0
APPID
  5
20F
100
AcDbSymbolTableRecord
100
AcDbRegAppTableRecord
  2
ACAD
 70
0
  0
ENDTAB
  0
TABLE
  2
BLOCK_RECORD
  5
1
100
AcDbSymbolTable
 70
0
  0
BLOCK_RECORD
  5
210
100
AcDbSymbolTableRecord
100
AcDbBlockTableRecord
  2
*Model_Space
  0
BLOCK_RECORD
  5
211
100
AcDbSymbolTableRecord
100
AcDbBlockTableRecord
  2
*Paper_Space
  0
BLOCK_RECORD
  5
212
100
AcDbSymbolTableRecord
100
AcDbBlockTableRecord
  2
_FILLED
  0
ENDTAB
  0
TABLE
  2
DIMSTYLE
  5
A
100
AcDbSymbolTable
 70
1
100
AcDbDimStyleTable
 71
0
  0
DIMSTYLE
105
213
100
AcDbSymbolTableRecord
100
AcDbDimStyleTableRecord
  2
STANDARD
 70
0
  3

  4

 40
1.0
 41
0.7599426062
 42
1.0
 43
0.38
 44
1.0
 45
0.0
 46
0.0
 47
0.01
 48
0.01
140
1.0639196487
141
0.09
142
0.0
143
25.4
144
1.0
145
0.0
146
1.0
147
0.625
 71
1
 72
0
 73
0
 74
0
 75
0
 76
0
 77
1
 78
8
 79
2
170
0
171
1
172
0
173
0
174
0
175
0
176
0
177
0
178
0
270
2
179
2
271
2
272
2
273
2
274
2
275
0
280
0
281
0
282
0
283
1
284
8
285
0
286
0
287
3
288
0
340
11
278
46
341
212
342
212
343
212
344
212
  0
ENDTAB
  0
ENDSEC
  0
SECTION
  2
BLOCKS
  0
BLOCK
  5
20
100
AcDbEntity
  8
0
100
AcDbBlockBegin
  2
*Model_Space
 70
0
 10
0.0
 20
0.0
 30
0.0
  3
*Model_Space
  1

  0
ENDBLK
  5
21
100
AcDbEntity
  8
0
100
AcDbBlockEnd
  0
BLOCK
  5
1C
100
AcDbEntity
  8
0
100
AcDbBlockBegin
  2
*Paper_Space
 70
0
 10
0.0
 20
0.0
 30
0.0
  3
*Paper_Space
  1

  0
ENDBLK
  5
1D
100
AcDbEntity
  8
0
100
AcDbBlockEnd
  0
BLOCK
  5
214
100
AcDbEntity
  8
0
100
AcDbBlockBegin
  2
_FILLED
 70
64
 10
0.0
 20
0.0
  3
_FILLED
  1

  0
SOLID
  5
215
100
AcDbEntity
  8
0
  6
BYBLOCK
 62
0
100
AcDbTrace
 10
0.0
 20
0.0
 11
-1.0
 21
0.25
 12
-1.0
 22
-0.25
 13
-1.0
 23
-0.25
  0
ENDBLK
  5
216
100
AcDbEntity
  8
0
  6
BYBLOCK
 62
0
100
AcDbBlockEnd
  0
ENDSEC
  0
SECTION
  2
ENTITIES
  0
LINE
  5
217
100
AcDbEntity
  8
0
100
AcDbLine
 62
7
  6
BYLAYER
 10
7.2201058727
 20
47.110572917
 11
7.2201058727
 21
49.1103056642
  0
LINE
  5
218
100
AcDbEntity
  8
0
100
AcDbLine
 62
7
  6
BYLAYER
 10
17.2201058727
 20
46.9050856783
 11
17.2201058727
 21
49.3157929032
  0
LINE
  5
219
100
AcDbEntity
  8
0
100
AcDbLine
 62
7
  6
BYLAYER
 10
17.4096386815
 20
46.7053218556
 11
17.4096386815
 21
49.5155567257
  0
LINE
  5
21A
100
AcDbEntity
  8
0
100
AcDbLine
 62
7
  6
BYLAYER
 10
19.0305730639
 20
49.600506297
 11
19.0305730639
 21
46.6203722842
  0
LINE
  5
21B
100
AcDbEntity
  8
0
100
AcDbLine
 62
7
  6
BYLAYER
 10
19.2201058727
 20
39.0346586284
 11
19.2201058727
 21
51.2466626096
  0
LINE
  5
21C
100
AcDbEntity
  8
0
100
AcDbLine
 62
7
  6
BYLAYER
 10
47.9201058727
 20
34.3891806481
 11
47.7201058727
 21
34.3355908096
  0
LINE
  5
21D
100
AcDbEntity
  8
0
100
AcDbLine
 62
7
  6
BYLAYER
 10
47.2622159379
 20
31.434184349
 11
45.1779958016
 21
31.434184349
  0
LINE
  5
21E
100
AcDbEntity
  8
0
100
AcDbLine
 62
7
  6
BYLAYER
 10
52.1779958076
 20
31.434184349
 11
54.2622159379
 21
31.434184349
  0
LINE
  5
21F
100
AcDbEntity
  8
0
100
AcDbLine
 62
7
  6
BYLAYER
 10
19.3853762372
 20
38.8375320332
 11
19.3853762372
 21
51.4436495861
  0
LINE
  5
220
100
AcDbEntity
  8
0
100
AcDbLine
 62
7
  6
BYLAYER
 10
21.9201058727
 20
38.3905908096
 11
21.9201058727
 21
51.8905908096
  0
LINE
  5
221
100
AcDbEntity
  8
0
100
AcDbLine
 62
7
  6
BYLAYER
 10
22.4201058727
 20
52.9405296807
 11
22.4201058727
 21
37.3406519386
  0
LINE
  5
222
100
AcDbEntity
  8
0
100
AcDbLine
 62
7
  6
BYLAYER
 10
22.6201058727
 20
37.1405908096
 11
22.6201058727
 21
53.1405908096
  0
LINE
  5
223
100
AcDbEntity
  8
0
100
AcDbLine
 62
7
  6
BYLAYER
 10
29.2201058727
 20
53.1405908096
 11
30.2201058727
 21
54.1405908096
  0
LINE
  5
224
100
AcDbEntity
  8
0
100
AcDbLine
 62
7
  6
BYLAYER
 10
57.1201058727
 20
36.1405908096
 11
54.7201058727
 21
36.1405908096
  0
LINE
  5
225
100
AcDbEntity
  8
0
100
AcDbLine
 62
7
  6
BYLAYER
 10
51.1052414799
 20
36.1405908096
 11
48.3349656354
 21
36.1405908096
  0
LINE
  5
226
100
AcDbEntity
  8
0
100
AcDbLine
 62
7
  6
BYLAYER
 10
44.7201058727
 20
36.1405908096
 11
30.2201058727
 21
36.1405908096
  0
LINE
  5
227
100
AcDbEntity
  8
0
100
AcDbLine
 62
7
  6
BYLAYER
 10
57.3201058727
 20
36.9405908096
 11
57.6523903995
 21
36.9405908096
  0
LINE
  5
228
100
AcDbEntity
  8
0
100
AcDbLine
 62
7
  6
BYLAYER
 10
29.2201058727
 20
37.1405908096
 11
26.3201058727
 21
37.1405908096
  0
LINE
  5
229
100
AcDbEntity
  8
0
100
AcDbLine
 62
7
  6
BYLAYER
 10
26.2201058727
 20
37.1405908096
 11
22.6201058727
 21
37.1405908096
  0
LINE
  5
22A
100
AcDbEntity
  8
0
100
AcDbLine
 62
7
  6
BYLAYER
 10
26.3201058727
 20
37.1905908096
 11
26.2201058727
 21
37.1905908096
  0
LINE
  5
22B
100
AcDbEntity
  8
0
100
AcDbLine
 62
7
  6
BYLAYER
 10
19.3853762372
 20
38.8375320332
 11
21.9201058727
 21
38.3905908096
  0
LINE
  5
22C
100
AcDbEntity
  8
0
100
AcDbLine
 62
7
  6
BYLAYER
 10
29.2201058727
 20
37.1405908096
 11
30.2201058727
 21
36.1405908096
  0
LINE
  5
22D
100
AcDbEntity
  8
0
100
AcDbLine
 62
7
  6
BYLAYER
 10
26.2201058727
 20
53.1405690153
 11
26.2201058727
 21
37.1405817639
  0
LINE
  5
22E
100
AcDbEntity
  8
0
100
AcDbLine
 62
7
  6
BYLAYER
 10
26.3201058727
 20
37.1405807846
 11
26.3201058727
 21
53.1406008347
  0
LINE
  5
22F
100
AcDbEntity
  8
0
100
AcDbLine
 62
7
  6
BYLAYER
 10
47.2622159381
 20
38.0623875793
 11
45.1779958073
 21
38.0623875793
  0
LINE
  5
230
100
AcDbEntity
  8
0
100
AcDbLine
 62
7
  6
BYLAYER
 10
52.1779958073
 20
38.0623875794
 11
54.262215944
 21
38.0623875794
  0
LINE
  5
231
100
AcDbEntity
  8
0
100
AcDbLine
 62
7
  6
BYLAYER
 10
22.4201058727
 20
38.3905908096
 11
21.9201058727
 21
38.3905908096
  0
LINE
  5
232
100
AcDbEntity
  8
0
100
AcDbLine
 62
7
  6
BYLAYER
 10
47.2878249181
 20
38.7123875794
 11
45.1523872495
 21
38.7123875794
  0
LINE
  5
233
100
AcDbEntity
  8
0
100
AcDbLine
 62
7
  6
BYLAYER
 10
52.1523868274
 20
38.7123875794
 11
54.2878244684
 21
38.7123875794
  0
LINE
  5
234
100
AcDbEntity
  8
0
100
AcDbLine
 62
7
  6
BYLAYER
 10
51.5201058727
 20
34.3891806481
 11
51.7201058727
 21
34.3355908096
  0
LINE
  5
235
100
AcDbEntity
  8
0
100
AcDbLine
 62
7
  6
BYLAYER
 10
29.2201058727
 20
53.1405908096
 11
29.2201058727
 21
37.1405908096
  0
LINE
  5
236
100
AcDbEntity
  8
0
100
AcDbLine
 62
7
  6
BYLAYER
 10
30.2201058727
 20
36.1405908096
 11
30.2201058727
 21
54.1405908096
  0
LINE
  5
237
100
AcDbEntity
  8
0
100
AcDbLine
 62
7
  6
BYLAYER
 10
7.2201058727
 20
47.1104392906
 11
17.2201058727
 21
47.1104392906
  0
LINE
  5
238
100
AcDbEntity
  8
0
100
AcDbLine
 62
7
  6
BYLAYER
 10
17.4096386815
 20
46.7053218556
 11
19.0305730639
 21
46.6203722842
  0
LINE
  5
239
100
AcDbEntity
  8
0
100
AcDbLine
 62
7
  6
BYLAYER
 10
7.2201058727
 20
49.1104392906
 11
17.2201058727
 21
49.1104392906
  0
LINE
  5
23A
100
AcDbEntity
  8
0
100
AcDbLine
 62
7
  6
BYLAYER
 10
51.5201058727
 20
55.8920009712
 11
51.7201058727
 21
55.9455908096
  0
LINE
  5
23B
100
AcDbEntity
  8
0
100
AcDbLine
 62
7
  6
BYLAYER
 10
17.4096386815
 20
49.5155567257
 11
19.0305730639
 21
49.600506297
  0
LINE
  5
23C
100
AcDbEntity
  8
0
100
AcDbLine
 62
7
  6
BYLAYER
 10
47.287824852
 20
51.5687940399
 11
45.1523869156
 21
51.5687940399
  0
LINE
  5
23D
100
AcDbEntity
  8
0
100
AcDbLine
 62
7
  6
BYLAYER
 10
52.1523868934
 20
51.5687940399
 11
54.287824847
 21
51.5687940399
  0
LINE
  5
23E
100
AcDbEntity
  8
0
100
AcDbLine
 62
7
  6
BYLAYER
 10
22.4201058727
 20
51.8905908096
 11
21.9201058727
 21
51.8905908096
  0
LINE
  5
23F
100
AcDbEntity
  8
0
100
AcDbLine
 62
7
  6
BYLAYER
 10
47.2622159379
 20
52.2187940399
 11
45.1779958016
 21
52.2187940399
  0
LINE
  5
240
100
AcDbEntity
  8
0
100
AcDbLine
 62
7
  6
BYLAYER
 10
52.1779958076
 20
52.2187940399
 11
54.2622159167
 21
52.2187940399
  0
LINE
  5
241
100
AcDbEntity
  8
0
100
AcDbLine
 62
7
  6
BYLAYER
 10
44.7201058727
 20
57.1405908096
 11
45.1672880111
 21
58.8094972702
  0
LINE
  5
242
100
AcDbEntity
  8
0
100
AcDbLine
 62
7
  6
BYLAYER
 10
19.3853762372
 20
51.4436495861
 11
21.9201058727
 21
51.8905908096
  0
LINE
  5
243
100
AcDbEntity
  8
0
100
AcDbLine
 62
7
  6
BYLAYER
 10
26.3201058727
 20
53.0905908096
 11
26.2201058727
 21
53.0905908096
  0
LINE
  5
244
100
AcDbEntity
  8
0
100
AcDbLine
 62
7
  6
BYLAYER
 10
29.2201058727
 20
53.1405908096
 11
26.3201058727
 21
53.1405908096
  0
LINE
  5
245
100
AcDbEntity
  8
0
100
AcDbLine
 62
7
  6
BYLAYER
 10
26.2201058727
 20
53.1405908096
 11
22.6201058727
 21
53.1405908096
  0
LINE
  5
246
100
AcDbEntity
  8
0
100
AcDbLine
 62
7
  6
BYLAYER
 10
57.3201058727
 20
53.3405908096
 11
57.6523903995
 21
53.3405908096
  0
LINE
  5
247
100
AcDbEntity
  8
0
100
AcDbLine
 62
7
  6
BYLAYER
 10
57.1201058727
 20
54.1405908096
 11
54.7201058727
 21
54.1405908096
  0
LINE
  5
248
100
AcDbEntity
  8
0
100
AcDbLine
 62
7
  6
BYLAYER
 10
51.10524611
 20
54.1405908096
 11
48.3349702655
 21
54.1405908096
  0
LINE
  5
249
100
AcDbEntity
  8
0
100
AcDbLine
 62
7
  6
BYLAYER
 10
44.7201058727
 20
54.1405908096
 11
30.2201058727
 21
54.1405908096
  0
LINE
  5
24A
100
AcDbEntity
  8
0
100
AcDbLine
 62
7
  6
BYLAYER
 10
44.7201058727
 20
33.1405908096
 11
45.1672880111
 21
31.471684349
  0
LINE
  5
24B
100
AcDbEntity
  8
0
100
AcDbLine
 62
7
  6
BYLAYER
 10
48.4201058727
 20
45.6405908096
 11
47.9201058727
 21
45.1405908096
  0
LINE
  5
24C
100
AcDbEntity
  8
0
100
AcDbLine
 62
7
  6
BYLAYER
 10
48.4201058727
 20
44.6405908096
 11
47.9201058727
 21
45.1405908096
  0
LINE
  5
24D
100
AcDbEntity
  8
0
100
AcDbLine
 62
7
  6
BYLAYER
 10
44.7201058727
 20
33.140594858
 11
44.7201058727
 21
57.1405867613
  0
LINE
  5
24E
100
AcDbEntity
  8
0
100
AcDbLine
 62
7
  6
BYLAYER
 10
51.0201058727
 20
44.6405908096
 11
51.5201058727
 21
45.1405908096
  0
LINE
  5
24F
100
AcDbEntity
  8
0
100
AcDbLine
 62
7
  6
BYLAYER
 10
51.0201058727
 20
45.6405908096
 11
51.5201058727
 21
45.1405908096
  0
LINE
  5
250
100
AcDbEntity
  8
0
100
AcDbLine
 62
7
  6
BYLAYER
 10
47.7201058727
 20
57.1405867613
 11
47.7201058727
 21
33.140594858
  0
LINE
  5
251
100
AcDbEntity
  8
0
100
AcDbLine
 62
7
  6
BYLAYER
 10
51.7201058727
 20
57.1405908096
 11
52.1672880111
 21
58.8094972702
  0
LINE
  5
252
100
AcDbEntity
  8
0
100
AcDbLine
 62
7
  6
BYLAYER
 10
47.2622159381
 20
58.8469972702
 11
45.1779958286
 21
58.8469972702
  0
LINE
  5
253
100
AcDbEntity
  8
0
100
AcDbLine
 62
7
  6
BYLAYER
 10
52.1779958073
 20
58.8469972702
 11
54.262215944
 21
58.8469972702
  0
LINE
  5
254
100
AcDbEntity
  8
0
100
AcDbLine
 62
7
  6
BYLAYER
 10
47.9201058727
 20
55.8920009712
 11
47.7201058727
 21
55.9455908096
  0
LINE
  5
255
100
AcDbEntity
  8
0
100
AcDbLine
 62
7
  6
BYLAYER
 10
51.7201058727
 20
33.1405908096
 11
52.1672880111
 21
31.471684349
  0
LINE
  5
256
100
AcDbEntity
  8
0
100
AcDbLine
 62
7
  6
BYLAYER
 10
48.4201058727
 20
55.7462467527
 11
48.4201058727
 21
55.3521509041
  0
LINE
  5
257
100
AcDbEntity
  8
0
100
AcDbLine
 62
7
  6
BYLAYER
 10
48.4201058727
 20
55.2554582673
 11
48.4201058727
 21
54.975211858
  0
LINE
  5
258
100
AcDbEntity
  8
0
100
AcDbLine
 62
7
  6
BYLAYER
 10
48.4201058727
 20
54.7475975481
 11
48.4201058727
 21
54.4299997191
  0
LINE
  5
259
100
AcDbEntity
  8
0
100
AcDbLine
 62
7
  6
BYLAYER
 10
48.4201058727
 20
54.0753582802
 11
48.4201058727
 21
53.7258432183
  0
LINE
  5
25A
100
AcDbEntity
  8
0
100
AcDbLine
 62
7
  6
BYLAYER
 10
48.4201058727
 20
53.2502426636
 11
48.4201058727
 21
52.8747906684
  0
LINE
  5
25B
100
AcDbEntity
  8
0
100
AcDbLine
 62
7
  6
BYLAYER
 10
48.4201058727
 20
52.2863686553
 11
48.4201058727
 21
51.8914038147
  0
LINE
  5
25C
100
AcDbEntity
  8
0
100
AcDbLine
 62
7
  6
BYLAYER
 10
48.4201058727
 20
51.200228407
 11
48.4201058727
 21
50.7925086787
  0
LINE
  5
25D
100
AcDbEntity
  8
0
100
AcDbLine
 62
7
  6
BYLAYER
 10
48.4201058727
 20
50.0104060793
 11
48.4201058727
 21
49.596907661
  0
LINE
  5
25E
100
AcDbEntity
  8
0
100
AcDbLine
 62
7
  6
BYLAYER
 10
48.4201058727
 20
48.7372598622
 11
48.4201058727
 21
48.3250578265
  0
LINE
  5
25F
100
AcDbEntity
  8
0
100
AcDbLine
 62
7
  6
BYLAYER
 10
48.4201058727
 20
47.4025736404
 11
48.4201058727
 21
46.9987208784
  0
LINE
  5
260
100
AcDbEntity
  8
0
100
AcDbLine
 62
7
  6
BYLAYER
 10
48.4201058727
 20
46.0291842652
 11
48.4201058727
 21
45.6405908096
  0
LINE
  5
261
100
AcDbEntity
  8
0
100
AcDbLine
 62
7
  6
BYLAYER
 10
48.4201058727
 20
44.6405908096
 11
48.4201058727
 21
44.2519973541
  0
LINE
  5
262
100
AcDbEntity
  8
0
100
AcDbLine
 62
7
  6
BYLAYER
 10
48.4201058727
 20
43.2824607409
 11
48.4201058727
 21
42.8786079789
  0
LINE
  5
263
100
AcDbEntity
  8
0
100
AcDbLine
 62
7
  6
BYLAYER
 10
48.4201058727
 20
41.9561237928
 11
48.4201058727
 21
41.5439217571
  0
LINE
  5
264
100
AcDbEntity
  8
0
100
AcDbLine
 62
7
  6
BYLAYER
 10
48.4201058727
 20
40.6842739583
 11
48.4201058727
 21
40.27077554
  0
LINE
  5
265
100
AcDbEntity
  8
0
100
AcDbLine
 62
7
  6
BYLAYER
 10
48.4201058727
 20
39.4886729406
 11
48.4201058727
 21
39.0809532123
  0
LINE
  5
266
100
AcDbEntity
  8
0
100
AcDbLine
 62
7
  6
BYLAYER
 10
48.4201058727
 20
38.3897778046
 11
48.4201058727
 21
37.9948129639
  0
LINE
  5
267
100
AcDbEntity
  8
0
100
AcDbLine
 62
7
  6
BYLAYER
 10
48.4201058727
 20
37.4063909509
 11
48.4201058727
 21
37.0309389557
  0
LINE
  5
268
100
AcDbEntity
  8
0
100
AcDbLine
 62
7
  6
BYLAYER
 10
48.4201058727
 20
36.555338401
 11
48.4201058727
 21
36.2058233391
  0
LINE
  5
269
100
AcDbEntity
  8
0
100
AcDbLine
 62
7
  6
BYLAYER
 10
48.4201058727
 20
35.8511819002
 11
48.4201058727
 21
35.5335840711
  0
LINE
  5
26A
100
AcDbEntity
  8
0
100
AcDbLine
 62
7
  6
BYLAYER
 10
48.4201058727
 20
35.3059697613
 11
48.4201058727
 21
35.025723352
  0
LINE
  5
26B
100
AcDbEntity
  8
0
100
AcDbLine
 62
7
  6
BYLAYER
 10
48.4201058727
 20
34.9290307152
 11
48.4201058727
 21
34.5349348665
  0
LINE
  5
26C
100
AcDbEntity
  8
0
100
AcDbLine
 62
7
  6
BYLAYER
 10
51.0201058727
 20
34.5349348665
 11
51.0201058727
 21
34.9290307152
  0
LINE
  5
26D
100
AcDbEntity
  8
0
100
AcDbLine
 62
7
  6
BYLAYER
 10
51.0201058727
 20
35.025723352
 11
51.0201058727
 21
35.3059697613
  0
LINE
  5
26E
100
AcDbEntity
  8
0
100
AcDbLine
 62
7
  6
BYLAYER
 10
51.0201058727
 20
35.5335840711
 11
51.0201058727
 21
35.8511819002
  0
LINE
  5
26F
100
AcDbEntity
  8
0
100
AcDbLine
 62
7
  6
BYLAYER
 10
51.0201058727
 20
36.2058233391
 11
51.0201058727
 21
36.555338401
  0
LINE
  5
270
100
AcDbEntity
  8
0
100
AcDbLine
 62
7
  6
BYLAYER
 10
51.0201058727
 20
37.0309389557
 11
51.0201058727
 21
37.4063909509
  0
LINE
  5
271
100
AcDbEntity
  8
0
100
AcDbLine
 62
7
  6
BYLAYER
 10
51.0201058727
 20
37.9948129639
 11
51.0201058727
 21
38.3897778046
  0
LINE
  5
272
100
AcDbEntity
  8
0
100
AcDbLine
 62
7
  6
BYLAYER
 10
51.0201058727
 20
39.0809532123
 11
51.0201058727
 21
39.4886729406
  0
LINE
  5
273
100
AcDbEntity
  8
0
100
AcDbLine
 62
7
  6
BYLAYER
 10
51.0201058727
 20
40.27077554
 11
51.0201058727
 21
40.6842739583
  0
LINE
  5
274
100
AcDbEntity
  8
0
100
AcDbLine
 62
7
  6
BYLAYER
 10
51.0201058727
 20
41.5439217571
 11
51.0201058727
 21
41.9561237928
  0
LINE
  5
275
100
AcDbEntity
  8
0
100
AcDbLine
 62
7
  6
BYLAYER
 10
51.0201058727
 20
42.8786079789
 11
51.0201058727
 21
43.2824607409
  0
LINE
  5
276
100
AcDbEntity
  8
0
100
AcDbLine
 62
7
  6
BYLAYER
 10
51.0201058727
 20
44.2519973541
 11
51.0201058727
 21
44.6405908096
  0
LINE
  5
277
100
AcDbEntity
  8
0
100
AcDbLine
 62
7
  6
BYLAYER
 10
51.0201058727
 20
45.6405908096
 11
51.0201058727
 21
46.0291842652
  0
LINE
  5
278
100
AcDbEntity
  8
0
100
AcDbLine
 62
7
  6
BYLAYER
 10
51.0201058727
 20
46.9987208784
 11
51.0201058727
 21
47.4025736404
  0
LINE
  5
279
100
AcDbEntity
  8
0
100
AcDbLine
 62
7
  6
BYLAYER
 10
51.0201058727
 20
48.3250578265
 11
51.0201058727
 21
48.7372598622
  0
LINE
  5
27A
100
AcDbEntity
  8
0
100
AcDbLine
 62
7
  6
BYLAYER
 10
51.0201058727
 20
49.596907661
 11
51.0201058727
 21
50.0104060793
  0
LINE
  5
27B
100
AcDbEntity
  8
0
100
AcDbLine
 62
7
  6
BYLAYER
 10
51.0201058727
 20
50.7925086787
 11
51.0201058727
 21
51.200228407
  0
LINE
  5
27C
100
AcDbEntity
  8
0
100
AcDbLine
 62
7
  6
BYLAYER
 10
51.0201058727
 20
51.8914038147
 11
51.0201058727
 21
52.2863686553
  0
LINE
  5
27D
100
AcDbEntity
  8
0
100
AcDbLine
 62
7
  6
BYLAYER
 10
51.0201058727
 20
52.8747906684
 11
51.0201058727
 21
53.2502426636
  0
LINE
  5
27E
100
AcDbEntity
  8
0
100
AcDbLine
 62
7
  6
BYLAYER
 10
51.0201058727
 20
53.7258432183
 11
51.0201058727
 21
54.0753582802
  0
LINE
  5
27F
100
AcDbEntity
  8
0
100
AcDbLine
 62
7
  6
BYLAYER
 10
51.0201058727
 20
54.4299997191
 11
51.0201058727
 21
54.7475975481
  0
LINE
  5
280
100
AcDbEntity
  8
0
100
AcDbLine
 62
7
  6
BYLAYER
 10
51.0201058727
 20
54.975211858
 11
51.0201058727
 21
55.2554582673
  0
LINE
  5
281
100
AcDbEntity
  8
0
100
AcDbLine
 62
7
  6
BYLAYER
 10
51.0201058727
 20
55.3521509041
 11
51.0201058727
 21
55.7462467527
  0
LINE
  5
282
100
AcDbEntity
  8
0
100
AcDbLine
 62
7
  6
BYLAYER
 10
51.7201058727
 20
33.140594858
 11
51.7201058727
 21
57.1405867613
  0
LINE
  5
283
100
AcDbEntity
  8
0
100
AcDbLine
 62
7
  6
BYLAYER
 10
47.7201058727
 20
33.1405908096
 11
47.2729237344
 21
31.471684349
  0
LINE
  5
284
100
AcDbEntity
  8
0
100
AcDbLine
 62
7
  6
BYLAYER
 10
47.7201058727
 20
57.1405908096
 11
47.2729237344
 21
58.8094972702
  0
LINE
  5
285
100
AcDbEntity
  8
0
100
AcDbLine
 62
7
  6
BYLAYER
 10
54.7201058727
 20
57.1405867613
 11
54.7201058727
 21
33.140594858
  0
LINE
  5
286
100
AcDbEntity
  8
0
100
AcDbLine
 62
7
  6
BYLAYER
 10
57.1201058727
 20
54.1405908096
 11
57.1201058727
 21
36.1405908096
  0
LINE
  5
287
100
AcDbEntity
  8
0
100
AcDbLine
 62
7
  6
BYLAYER
 10
57.3201058727
 20
53.9405663699
 11
57.3201058727
 21
36.3405801281
  0
LINE
  5
288
100
AcDbEntity
  8
0
100
AcDbLine
 62
7
  6
BYLAYER
 10
57.5201058727
 20
53.3405908096
 11
57.5201058727
 21
36.9405908096
  0
LINE
  5
289
100
AcDbEntity
  8
0
100
AcDbLine
 62
7
  6
BYLAYER
 10
54.7201058727
 20
33.1405908096
 11
54.2729237344
 21
31.471684349
  0
LINE
  5
28A
100
AcDbEntity
  8
0
100
AcDbLine
 62
7
  6
BYLAYER
 10
57.3201058727
 20
36.3405908096
 11
57.1201058727
 21
36.1405908096
  0
LINE
  5
28B
100
AcDbEntity
  8
0
100
AcDbLine
 62
7
  6
BYLAYER
 10
57.3201058727
 20
53.9405908096
 11
57.1201058727
 21
54.1405908096
  0
LINE
  5
28C
100
AcDbEntity
  8
0
100
AcDbLine
 62
7
  6
BYLAYER
 10
54.7201058727
 20
57.1405908096
 11
54.2729237344
 21
58.8094972702
  0
LINE
  5
28D
100
AcDbEntity
  8
0
100
AcDbLine
 62
7
  6
BYLAYER
 10
57.7201058727
 20
53.1906136354
 11
57.7201058727
 21
37.0905972955
  0
ARC
  5
28E
100
AcDbEntity
  8
0
100
AcDbCircle
 62
7
  6
BYLAYER
 10
2.409917535
 20
40.1550022297
 40
44.9010880505
100
AcDbArc
 50
357.3287633137
 51
358.1588428828
  0
ARC
  5
28F
100
AcDbEntity
  8
0
100
AcDbCircle
 62
7
  6
BYLAYER
 10
97.0302942102
 20
40.1550022283
 40
44.9010880502
100
AcDbArc
 50
181.8411571154
 51
182.6712366846
  0
ARC
  5
290
100
AcDbEntity
  8
0
100
AcDbCircle
 62
7
  6
BYLAYER
 10
2.4099175017
 20
50.1261839382
 40
44.9010878716
100
AcDbArc
 50
1.8411513173
 51
2.6712308864
  0
ARC
  5
291
100
AcDbEntity
  8
0
100
AcDbCircle
 62
7
  6
BYLAYER
 10
97.0302942434
 20
50.1261839355
 40
44.9010878713
100
AcDbArc
 50
177.3287691101
 51
178.1588486792
  0
ARC
  5
292
100
AcDbEntity
  8
0
100
AcDbCircle
 62
7
  6
BYLAYER
 10
90.0302738136
 20
50.126185499
 40
44.9010673968
100
AcDbArc
 50
177.3287698883
 51
178.1588498354
  0
ARC
  5
293
100
AcDbEntity
  8
0
100
AcDbCircle
 62
7
  6
BYLAYER
 10
9.4099379362
 20
50.1261854964
 40
44.9010673926
100
AcDbArc
 50
1.841150168
 51
2.6712301152
  0
ARC
  5
294
100
AcDbEntity
  8
0
100
AcDbCircle
 62
7
  6
BYLAYER
 10
9.4100061368
 20
40.1549691857
 40
44.9009980108
100
AcDbArc
 50
357.3288001648
 51
358.158881377
  0
ARC
  5
295
100
AcDbEntity
  8
0
100
AcDbCircle
 62
7
  6
BYLAYER
 10
90.0302051905
 20
40.1549691699
 40
44.9009975925
100
AcDbArc
 50
181.84111862
 51
182.67119984
  0
ARC
  5
296
100
AcDbEntity
  8
0
100
AcDbCircle
 62
7
  6
BYLAYER
 10
57.5201058727
 20
53.1905908096
 40
0.2
100
AcDbArc
 50
0.0
 51
48.5903778907
  0
ARC
  5
297
100
AcDbEntity
  8
0
100
AcDbCircle
 62
7
  6
BYLAYER
 10
57.5201058727
 20
37.0905908096
 40
0.2
100
AcDbArc
 50
311.4096221093
 51
360.0
  0
ARC
  5
298
100
AcDbEntity
  8
0
100
AcDbCircle
 62
7
  6
BYLAYER
 10
17.4201058727
 20
49.3158308187
 40
0.2
100
AcDbArc
 50
93.0
 51
180.0
  0
ARC
  5
299
100
AcDbEntity
  8
0
100
AcDbCircle
 62
7
  6
BYLAYER
 10
17.4201058727
 20
46.9050477625
 40
0.2
100
AcDbArc
 50
180.0
 51
267.0
  0
ARC
  5
29A
100
AcDbEntity
  8
0
100
AcDbCircle
 62
7
  6
BYLAYER
 10
19.0201058727
 20
49.800232204
 40
0.2
100
AcDbArc
 50
273.0
 51
360.0
  0
ARC
  5
29B
100
AcDbEntity
  8
0
100
AcDbCircle
 62
7
  6
BYLAYER
 10
19.0201058727
 20
46.4206463773
 40
0.2
100
AcDbArc
 50
0.0
 51
87.0
  0
ARC
  5
29C
100
AcDbEntity
  8
0
100
AcDbCircle
 62
7
  6
BYLAYER
 10
19.4201058727
 20
51.2466880355
 40
0.2
100
AcDbArc
 50
100.0
 51
180.0
  0
ARC
  5
29D
100
AcDbEntity
  8
0
100
AcDbCircle
 62
7
  6
BYLAYER
 10
19.4201058727
 20
39.0344935838
 40
0.2
100
AcDbArc
 50
180.0
 51
260.0
  0
ARC
  5
29E
100
AcDbEntity
  8
0
100
AcDbCircle
 62
7
  6
BYLAYER
 10
22.6201058727
 20
37.3405908096
 40
0.2
100
AcDbArc
 50
180.0
 51
270.0
  0
ARC
  5
29F
100
AcDbEntity
  8
0
100
AcDbCircle
 62
7
  6
BYLAYER
 10
22.6201058727
 20
52.9405908096
 40
0.2
100
AcDbArc
 50
90.0
 51
180.0
  0
SPLINE
  5
2A0
100
AcDbEntity
  8
0
100
AcDbSpline
 62
7
  6
BYLAYER
 70
0
 71
3
 72
10
 73
6
 74
0
 42
0.0000001
 43
0.0000001
 44
0.0000000001
 40
0.0
 40
0.0
 40
0.0
 40
0.0
 40
0.2500122893
 40
0.5000248477
 40
1.0
 40
1.0
 40
1.0
 40
1.0
 10
44.7201058707
 20
45.1405906939
 30
0.0
 10
44.7201058707
 20
45.6778233051
 30
0.0
 10
44.7395426043
 20
46.7523971727
 30
0.0
 10
44.8538141882
 20
48.8985061049
 30
0.0
 10
45.0175280515
 20
50.5029327085
 30
0.0
 10
45.1523869156
 20
51.5687940399
 30
0.0
  0
SPLINE
  5
2A1
100
AcDbEntity
  8
0
100
AcDbSpline
 62
7
  6
BYLAYER
 70
0
 71
3
 72
11
 73
7
 74
0
 42
0.0000001
 43
0.0000001
 44
0.0000000001
 40
0.0
 40
0.0
 40
0.0
 40
0.0
 40
0.2526912581
 40
0.50325712
 40
0.7521119966
 40
1.0
 40
1.0
 40
1.0
 40
1.0
 10
45.1779958294
 20
52.2187940399
 30
0.0
 10
45.1071318114
 20
52.4922888764
 30
0.0
 10
44.978494552
 20
53.0403489171
 30
0.0
 10
44.8322648761
 20
53.8689679201
 30
0.0
 10
44.7408768912
 20
54.7001359896
 30
0.0
 10
44.720105522
 20
55.25573964
 30
0.0
 10
44.7201069277
 20
55.5328956115
 30
0.0
  0
SPLINE
  5
2A2
100
AcDbEntity
  8
0
100
AcDbSpline
 62
7
  6
BYLAYER
 70
0
 71
3
 72
10
 73
6
 74
0
 42
0.0000001
 43
0.0000001
 44
0.0000000001
 40
0.0
 40
0.0
 40
0.0
 40
0.0
 40
0.499975148
 40
0.7499877105
 40
1.0
 40
1.0
 40
1.0
 40
1.0
 10
47.287824852
 20
51.5687940399
 30
0.0
 10
47.4226837186
 20
50.5029327122
 30
0.0
 10
47.5863975449
 20
48.8985061502
 30
0.0
 10
47.7006712906
 20
46.7523972777
 30
0.0
 10
47.720105874
 20
45.6778233512
 30
0.0
 10
47.720105874
 20
45.1405907365
 30
0.0
  0
SPLINE
  5
2A3
100
AcDbEntity
  8
0
100
AcDbSpline
 62
7
  6
BYLAYER
 70
0
 71
3
 72
11
 73
7
 74
0
 42
0.0000001
 43
0.0000001
 44
0.0000000001
 40
0.0
 40
0.0
 40
0.0
 40
0.0
 40
0.2478893835
 40
0.4967444875
 40
0.7473102907
 40
1.0
 40
1.0
 40
1.0
 40
1.0
 10
47.7201048167
 20
55.5328956459
 30
0.0
 10
47.7201048761
 20
55.2557382152
 30
0.0
 10
47.6993255966
 20
54.7001335495
 30
0.0
 10
47.6079496683
 20
53.8689623843
 30
0.0
 10
47.4616989493
 20
53.0403490405
 30
0.0
 10
47.3330795015
 20
52.4922871169
 30
0.0
 10
47.2622159379
 20
52.2187940399
 30
0.0
  0
SPLINE
  5
2A4
100
AcDbEntity
  8
0
100
AcDbSpline
 62
7
  6
BYLAYER
 70
0
 71
3
 72
11
 73
7
 74
0
 42
0.0000001
 43
0.0000001
 44
0.0000000001
 40
0.0
 40
0.0
 40
0.0
 40
0.0
 40
0.2526912573
 40
0.5032571195
 40
0.7521119963
 40
1.0
 40
1.0
 40
1.0
 40
1.0
 10
47.2622159381
 20
58.8469972702
 30
0.0
 10
47.3330799583
 20
58.573502431
 30
0.0
 10
47.4617172344
 20
58.0254423754
 30
0.0
 10
47.6079467099
 20
57.1968233638
 30
0.0
 10
47.6993354684
 20
56.3656552805
 30
0.0
 10
47.7201049113
 20
55.8100516216
 30
0.0
 10
47.7201048167
 20
55.5328956459
 30
0.0
  0
SPLINE
  5
2A5
100
AcDbEntity
  8
0
100
AcDbSpline
 62
7
  6
BYLAYER
 70
0
 71
3
 72
11
 73
7
 74
0
 42
0.0000001
 43
0.0000001
 44
0.0000000001
 40
0.0
 40
0.0
 40
0.0
 40
0.0
 40
0.2526912573
 40
0.5032571195
 40
0.7521119963
 40
1.0
 40
1.0
 40
1.0
 40
1.0
 10
45.1779958075
 20
31.434184349
 30
0.0
 10
45.1071317892
 20
31.7076791871
 30
0.0
 10
44.9784945113
 20
32.2557392391
 30
0.0
 10
44.8322650371
 20
33.0843582464
 30
0.0
 10
44.7408762782
 20
33.9155263249
 30
0.0
 10
44.7201068346
 20
34.4711299808
 30
0.0
 10
44.7201069287
 20
34.748285955
 30
0.0
  0
SPLINE
  5
2A6
100
AcDbEntity
  8
0
100
AcDbSpline
 62
7
  6
BYLAYER
 70
0
 71
3
 72
11
 73
7
 74
0
 42
0.0000001
 43
0.0000001
 44
0.0000000001
 40
0.0
 40
0.0
 40
0.0
 40
0.0
 40
0.2478893835
 40
0.4967444875
 40
0.7473102907
 40
1.0
 40
1.0
 40
1.0
 40
1.0
 10
47.7201048167
 20
34.748285955
 30
0.0
 10
47.7201048761
 20
34.4711285244
 30
0.0
 10
47.6993255966
 20
33.9155238587
 30
0.0
 10
47.6079496683
 20
33.0843526934
 30
0.0
 10
47.4616989493
 20
32.2557393496
 30
0.0
 10
47.3330795015
 20
31.707677426
 30
0.0
 10
47.2622159379
 20
31.434184349
 30
0.0
  0
SPLINE
  5
2A7
100
AcDbEntity
  8
0
100
AcDbSpline
 62
7
  6
BYLAYER
 70
0
 71
3
 72
11
 73
7
 74
0
 42
0.0000001
 43
0.0000001
 44
0.0000000001
 40
0.0
 40
0.0
 40
0.0
 40
0.0
 40
0.247889401
 40
0.4967445174
 40
0.747310414
 40
1.0
 40
1.0
 40
1.0
 40
1.0
 10
44.7201069277
 20
55.5328956115
 30
0.0
 10
44.7201060372
 20
55.8100530479
 30
0.0
 10
44.7408872986
 20
56.3656576554
 30
0.0
 10
44.832261759
 20
57.1968291157
 30
0.0
 10
44.9785173484
 20
58.0254414828
 30
0.0
 10
45.1071323045
 20
58.5735043399
 30
0.0
 10
45.1779958286
 20
58.8469972702
 30
0.0
  0
SPLINE
  5
2A8
100
AcDbEntity
  8
0
100
AcDbSpline
 62
7
  6
BYLAYER
 70
0
 71
3
 72
11
 73
7
 74
0
 42
0.0000001
 43
0.0000001
 44
0.0000000001
 40
0.0
 40
0.0
 40
0.0
 40
0.0
 40
0.2526912573
 40
0.5032571195
 40
0.7521119963
 40
1.0
 40
1.0
 40
1.0
 40
1.0
 10
47.2622159381
 20
38.0623875793
 30
0.0
 10
47.3330799583
 20
37.7888927402
 30
0.0
 10
47.4617172344
 20
37.2408326845
 30
0.0
 10
47.6079467099
 20
36.4122136729
 30
0.0
 10
47.6993354684
 20
35.5810455897
 30
0.0
 10
47.7201049113
 20
35.0254419308
 30
0.0
 10
47.7201048167
 20
34.748285955
 30
0.0
  0
SPLINE
  5
2A9
100
AcDbEntity
  8
0
100
AcDbSpline
 62
7
  6
BYLAYER
 70
0
 71
3
 72
10
 73
6
 74
0
 42
0.0000001
 43
0.0000001
 44
0.0000000001
 40
0.0
 40
0.0
 40
0.0
 40
0.0
 40
0.250012289
 40
0.5000248491
 40
1.0
 40
1.0
 40
1.0
 40
1.0
 10
47.720105874
 20
45.1405907365
 30
0.0
 10
47.7201058723
 20
44.6033581447
 30
0.0
 10
47.7006752821
 20
43.5287841222
 30
0.0
 10
47.5863889855
 20
41.3826760073
 30
0.0
 10
47.42268378
 20
39.77824887
 30
0.0
 10
47.2878249181
 20
38.7123875794
 30
0.0
  0
SPLINE
  5
2AA
100
AcDbEntity
  8
0
100
AcDbSpline
 62
7
  6
BYLAYER
 70
0
 71
3
 72
11
 73
7
 74
0
 42
0.0000001
 43
0.0000001
 44
0.0000000001
 40
0.0
 40
0.0
 40
0.0
 40
0.0
 40
0.2478893836
 40
0.4967444874
 40
0.7473102906
 40
1.0
 40
1.0
 40
1.0
 40
1.0
 10
44.7201069287
 20
34.748285955
 30
0.0
 10
44.7201068689
 20
35.0254433872
 30
0.0
 10
44.7408861487
 20
35.5810480559
 30
0.0
 10
44.832262076
 20
36.4122192257
 30
0.0
 10
44.9785127917
 20
37.2408325749
 30
0.0
 10
45.1071322449
 20
37.7888945004
 30
0.0
 10
45.1779958073
 20
38.0623875793
 30
0.0
  0
SPLINE
  5
2AB
100
AcDbEntity
  8
0
100
AcDbSpline
 62
7
  6
BYLAYER
 70
0
 71
3
 72
10
 73
6
 74
0
 42
0.0000001
 43
0.0000001
 44
0.0000000001
 40
0.0
 40
0.0
 40
0.0
 40
0.0
 40
0.4999751549
 40
0.74998771
 40
1.0
 40
1.0
 40
1.0
 40
1.0
 10
45.1523872771
 20
38.7123875794
 30
0.0
 10
45.0175284345
 20
39.7782488925
 30
0.0
 10
44.8538145202
 20
41.3826754104
 30
0.0
 10
44.7395413023
 20
43.5287842306
 30
0.0
 10
44.7201058735
 20
44.6033580943
 30
0.0
 10
44.7201058707
 20
45.1405906939
 30
0.0
  0
SPLINE
  5
2AC
100
AcDbEntity
  8
0
100
AcDbSpline
 62
7
  6
BYLAYER
 70
0
 71
3
 72
10
 73
6
 74
0
 42
0.0000001
 43
0.0000001
 44
0.0000000001
 40
0.0
 40
0.0
 40
0.0
 40
0.0
 40
0.2500122918
 40
0.5000248477
 40
1.0
 40
1.0
 40
1.0
 40
1.0
 10
54.7201058748
 20
45.1405906938
 30
0.0
 10
54.720105872
 20
44.6033580904
 30
0.0
 10
54.7006704446
 20
43.528784221
 30
0.0
 10
54.5863972268
 20
41.3826754006
 30
0.0
 10
54.4226833102
 20
39.7782488869
 30
0.0
 10
54.2878244684
 20
38.7123875794
 30
0.0
  0
SPLINE
  5
2AD
100
AcDbEntity
  8
0
100
AcDbSpline
 62
7
  6
BYLAYER
 70
0
 71
3
 72
11
 73
7
 74
0
 42
0.0000001
 43
0.0000001
 44
0.0000000001
 40
0.0
 40
0.0
 40
0.0
 40
0.0
 40
0.2526912573
 40
0.5032571195
 40
0.7521119963
 40
1.0
 40
1.0
 40
1.0
 40
1.0
 10
54.2622159381
 20
38.0623875793
 30
0.0
 10
54.3330799568
 20
37.7888927398
 30
0.0
 10
54.4617172351
 20
37.2408326847
 30
0.0
 10
54.6079467098
 20
36.4122136729
 30
0.0
 10
54.6993354684
 20
35.5810455897
 30
0.0
 10
54.7201049113
 20
35.0254419308
 30
0.0
 10
54.7201048168
 20
34.748285955
 30
0.0
  0
SPLINE
  5
2AE
100
AcDbEntity
  8
0
100
AcDbSpline
 62
7
  6
BYLAYER
 70
0
 71
3
 72
11
 73
7
 74
0
 42
0.0000001
 43
0.0000001
 44
0.0000000001
 40
0.0
 40
0.0
 40
0.0
 40
0.0
 40
0.2478893836
 40
0.4967444874
 40
0.7473102906
 40
1.0
 40
1.0
 40
1.0
 40
1.0
 10
51.7201069287
 20
55.5328956459
 30
0.0
 10
51.7201068688
 20
55.810053078
 30
0.0
 10
51.7408861489
 20
56.3656577467
 30
0.0
 10
51.8322620756
 20
57.1968289166
 30
0.0
 10
51.9785127927
 20
58.0254422655
 30
0.0
 10
52.1071322434
 20
58.5735041917
 30
0.0
 10
52.1779958073
 20
58.8469972702
 30
0.0
  0
SPLINE
  5
2AF
100
AcDbEntity
  8
0
100
AcDbSpline
 62
7
  6
BYLAYER
 70
0
 71
3
 72
11
 73
7
 74
0
 42
0.0000001
 43
0.0000001
 44
0.0000000001
 40
0.0
 40
0.0
 40
0.0
 40
0.0
 40
0.2478894009
 40
0.4967445175
 40
0.7473104142
 40
1.0
 40
1.0
 40
1.0
 40
1.0
 10
54.7201048178
 20
55.5328955917
 30
0.0
 10
54.7201057056
 20
55.2557381643
 30
0.0
 10
54.6993244516
 20
54.700133574
 30
0.0
 10
54.6079499756
 20
53.8689621415
 30
0.0
 10
54.4616943862
 20
53.0403498019
 30
0.0
 10
54.3330794385
 20
52.4922869613
 30
0.0
 10
54.2622159167
 20
52.2187940399
 30
0.0
  0
SPLINE
  5
2B0
100
AcDbEntity
  8
0
100
AcDbSpline
 62
7
  6
BYLAYER
 70
0
 71
3
 72
10
 73
6
 74
0
 42
0.0000001
 43
0.0000001
 44
0.0000000001
 40
0.0
 40
0.0
 40
0.0
 40
0.0
 40
0.4999751549
 40
0.7499877125
 40
1.0
 40
1.0
 40
1.0
 40
1.0
 10
54.2878248299
 20
51.5687940399
 30
0.0
 10
54.4226836947
 20
50.5029327029
 30
0.0
 10
54.5863975563
 20
48.8985060951
 30
0.0
 10
54.7006691393
 20
46.752397163
 30
0.0
 10
54.7201058748
 20
45.6778233012
 30
0.0
 10
54.7201058748
 20
45.1405906938
 30
0.0
  0
SPLINE
  5
2B1
100
AcDbEntity
  8
0
100
AcDbSpline
 62
7
  6
BYLAYER
 70
0
 71
3
 72
11
 73
7
 74
0
 42
0.0000001
 43
0.0000001
 44
0.0000000001
 40
0.0
 40
0.0
 40
0.0
 40
0.0
 40
0.2526912573
 40
0.5032571195
 40
0.7521119963
 40
1.0
 40
1.0
 40
1.0
 40
1.0
 10
52.1779958076
 20
52.2187940399
 30
0.0
 10
52.1071317878
 20
52.4922888776
 30
0.0
 10
51.978494512
 20
53.0403489302
 30
0.0
 10
51.832265037
 20
53.8689679372
 30
0.0
 10
51.7408762782
 20
54.7001360158
 30
0.0
 10
51.7201068346
 20
55.2557396716
 30
0.0
 10
51.7201069287
 20
55.5328956459
 30
0.0
  0
SPLINE
  5
2B2
100
AcDbEntity
  8
0
100
AcDbSpline
 62
7
  6
BYLAYER
 70
0
 71
3
 72
10
 73
6
 74
0
 42
0.0000001
 43
0.0000001
 44
0.0000000001
 40
0.0
 40
0.0
 40
0.0
 40
0.0
 40
0.2500122913
 40
0.5000248546
 40
1.0
 40
1.0
 40
1.0
 40
1.0
 10
51.7201058714
 20
45.1405907365
 30
0.0
 10
51.7201058714
 20
45.6778233551
 30
0.0
 10
51.7395404535
 20
46.7523972872
 30
0.0
 10
51.853814199
 20
48.8985061598
 30
0.0
 10
52.0175280276
 20
50.5029327177
 30
0.0
 10
52.1523868934
 20
51.5687940399
 30
0.0
  0
SPLINE
  5
2B3
100
AcDbEntity
  8
0
100
AcDbSpline
 62
7
  6
BYLAYER
 70
0
 71
3
 72
11
 73
7
 74
0
 42
0.0000001
 43
0.0000001
 44
0.0000000001
 40
0.0
 40
0.0
 40
0.0
 40
0.0
 40
0.2526912582
 40
0.50325712
 40
0.7521119966
 40
1.0
 40
1.0
 40
1.0
 40
1.0
 10
54.2622159162
 20
58.8469972702
 30
0.0
 10
54.3330799364
 20
58.573502425
 30
0.0
 10
54.4617171994
 20
58.0254423666
 30
0.0
 10
54.6079468776
 20
57.1968233369
 30
0.0
 10
54.6993348609
 20
56.3656552404
 30
0.0
 10
54.7201062262
 20
55.810051572
 30
0.0
 10
54.7201048178
 20
55.5328955917
 30
0.0
  0
SPLINE
  5
2B4
100
AcDbEntity
  8
0
100
AcDbSpline
 62
7
  6
BYLAYER
 70
0
 71
3
 72
11
 73
7
 74
0
 42
0.0000001
 43
0.0000001
 44
0.0000000001
 40
0.0
 40
0.0
 40
0.0
 40
0.0
 40
0.2526912573
 40
0.5032571195
 40
0.7521119963
 40
1.0
 40
1.0
 40
1.0
 40
1.0
 10
52.1779958076
 20
31.434184349
 30
0.0
 10
52.1071317878
 20
31.7076791867
 30
0.0
 10
51.978494512
 20
32.2557392393
 30
0.0
 10
51.832265037
 20
33.0843582463
 30
0.0
 10
51.7408762782
 20
33.9155263249
 30
0.0
 10
51.7201068346
 20
34.4711299808
 30
0.0
 10
51.7201069287
 20
34.748285955
 30
0.0
  0
SPLINE
  5
2B5
100
AcDbEntity
  8
0
100
AcDbSpline
 62
7
  6
BYLAYER
 70
0
 71
3
 72
11
 73
7
 74
0
 42
0.0000001
 43
0.0000001
 44
0.0000000001
 40
0.0
 40
0.0
 40
0.0
 40
0.0
 40
0.2478893835
 40
0.4967444875
 40
0.7473102907
 40
1.0
 40
1.0
 40
1.0
 40
1.0
 10
54.7201048168
 20
34.748285955
 30
0.0
 10
54.7201048762
 20
34.4711285244
 30
0.0
 10
54.6993255967
 20
33.9155238586
 30
0.0
 10
54.607949668
 20
33.0843526935
 30
0.0
 10
54.4616989503
 20
32.2557393494
 30
0.0
 10
54.3330795
 20
31.7076774264
 30
0.0
 10
54.2622159379
 20
31.434184349
 30
0.0
  0
SPLINE
  5
2B6
100
AcDbEntity
  8
0
100
AcDbSpline
 62
7
  6
BYLAYER
 70
0
 71
3
 72
10
 73
6
 74
0
 42
0.0000001
 43
0.0000001
 44
0.0000000001
 40
0.0
 40
0.0
 40
0.0
 40
0.0
 40
0.4999751535
 40
0.7499877128
 40
1.0
 40
1.0
 40
1.0
 40
1.0
 10
52.1523868274
 20
38.7123875794
 30
0.0
 10
52.0175279648
 20
39.7782488755
 30
0.0
 10
51.8538227607
 20
41.3826760169
 30
0.0
 10
51.739536465
 20
43.5287841317
 30
0.0
 10
51.7201058732
 20
44.6033581486
 30
0.0
 10
51.7201058714
 20
45.1405907365
 30
0.0
  0
SPLINE
  5
2B7
100
AcDbEntity
  8
0
100
AcDbSpline
 62
7
  6
BYLAYER
 70
0
 71
3
 72
11
 73
7
 74
0
 42
0.0000001
 43
0.0000001
 44
0.0000000001
 40
0.0
 40
0.0
 40
0.0
 40
0.0
 40
0.2478893836
 40
0.4967444874
 40
0.7473102906
 40
1.0
 40
1.0
 40
1.0
 40
1.0
 10
51.7201069287
 20
34.748285955
 30
0.0
 10
51.7201068688
 20
35.0254433872
 30
0.0
 10
51.7408861489
 20
35.5810480559
 30
0.0
 10
51.8322620756
 20
36.4122192258
 30
0.0
 10
51.9785127927
 20
37.2408325746
 30
0.0
 10
52.1071322434
 20
37.7888945008
 30
0.0
 10
52.1779958073
 20
38.0623875793
 30
0.0
  0
ELLIPSE
  5
2B8
100
AcDbEntity
  8
0
100
AcDbEllipse
 62
7
  6
BYLAYER
 10
52.2279569716
 20
44.0256369018
 30
0.0
 11
10.195190748
 21
-8.0474192635
 31
0.0
 40
0.7470541823
 41
4.9099662904
 42
4.9176315918
  0
ELLIPSE
  5
2B9
100
AcDbEntity
  8
0
100
AcDbEllipse
 62
7
  6
BYLAYER
 10
52.2279569716
 20
43.492047565
 30
0.0
 11
10.3341729894
 21
-8.919591999
 31
0.0
 40
0.6468548444
 41
-1.404243728
 42
-1.3891458436
  0
ELLIPSE
  5
2BA
100
AcDbEntity
  8
0
100
AcDbEllipse
 62
7
  6
BYLAYER
 10
52.2279569716
 20
42.9866652602
 30
0.0
 11
10.5743403885
 21
-9.5757833526
 31
0.0
 40
0.5552272381
 41
-1.4530004987
 42
-1.4324654912
  0
ELLIPSE
  5
2BB
100
AcDbEntity
  8
0
100
AcDbEllipse
 62
7
  6
BYLAYER
 10
52.2279569716
 20
42.5181372187
 30
0.0
 11
10.8336078883
 21
-10.1170563979
 31
0.0
 40
0.4711119558
 41
-1.5086873256
 42
-1.4838808103
  0
ELLIPSE
  5
2BC
100
AcDbEntity
  8
0
100
AcDbEllipse
 62
7
  6
BYLAYER
 10
52.2279569716
 20
42.0944800853
 30
0.0
 11
11.0811640271
 21
-10.57430594
 31
0.0
 40
0.3932536107
 41
-1.5677038183
 42
-1.5393435277
  0
ELLIPSE
  5
2BD
100
AcDbEntity
  8
0
100
AcDbEllipse
 62
7
  6
BYLAYER
 10
52.2279569716
 20
41.7229427509
 30
0.0
 11
11.3026503924
 21
-10.9583479679
 31
0.0
 40
0.32049021
 41
-1.6285433084
 42
-1.5970782097
  0
ELLIPSE
  5
2BE
100
AcDbEntity
  8
0
100
AcDbEllipse
 62
7
  6
BYLAYER
 10
52.2279569716
 20
41.4098823223
 30
0.0
 11
11.4903624333
 21
-11.272755276
 31
0.0
 40
0.2517837063
 41
-1.690470904
 42
-1.6561797436
  0
ELLIPSE
  5
2BF
100
AcDbEntity
  8
0
100
AcDbEllipse
 62
7
  6
BYLAYER
 10
52.2279569716
 20
41.1606553503
 30
0.0
 11
11.6397811956
 21
-11.5182116851
 31
0.0
 40
0.1862029912
 41
-1.7527475135
 42
-1.7161329273
  0
ELLIPSE
  5
2C0
100
AcDbEntity
  8
0
100
AcDbEllipse
 62
7
  6
BYLAYER
 10
52.2279569716
 20
40.9795261775
 30
0.0
 11
11.7481381864
 21
-11.6942962282
 31
0.0
 40
0.1228992729
 41
-1.8159349801
 42
-1.776616227
  0
ELLIPSE
  5
2C1
100
AcDbEntity
  8
0
100
AcDbEllipse
 62
7
  6
BYLAYER
 10
52.2279569716
 20
40.8695939741
 30
0.0
 11
11.8137551981
 21
-11.8003161272
 31
0.0
 40
0.0610824685
 41
-1.8795294874
 42
-1.8374099321
  0
ELLIPSE
  5
2C2
100
AcDbEntity
  8
0
100
AcDbEllipse
 62
7
  6
BYLAYER
 10
52.2279569716
 20
49.4115876452
 30
0.0
 11
11.8137551981
 21
11.8003161272
 31
0.0
 40
0.0610824685
 41
1.8374099321
 42
1.8795295158
  0
ELLIPSE
  5
2C3
100
AcDbEntity
  8
0
100
AcDbEllipse
 62
7
  6
BYLAYER
 10
52.2279569716
 20
49.3016554418
 30
0.0
 11
11.7481381864
 21
11.6942962282
 31
0.0
 40
0.1228992729
 41
1.776616227
 42
1.8159350327
  0
ELLIPSE
  5
2C4
100
AcDbEntity
  8
0
100
AcDbEllipse
 62
7
  6
BYLAYER
 10
52.2279569716
 20
49.120526269
 30
0.0
 11
11.6397811956
 21
11.5182116851
 31
0.0
 40
0.1862029912
 41
1.7161329273
 42
1.7527475869
  0
ELLIPSE
  5
2C5
100
AcDbEntity
  8
0
100
AcDbEllipse
 62
7
  6
BYLAYER
 10
52.2279569716
 20
48.871299297
 30
0.0
 11
11.4903624333
 21
11.272755276
 31
0.0
 40
0.2517837063
 41
1.6561797436
 42
1.6904709773
  0
ELLIPSE
  5
2C6
100
AcDbEntity
  8
0
100
AcDbEllipse
 62
7
  6
BYLAYER
 10
52.2279569716
 20
48.5582388684
 30
0.0
 11
11.3026503924
 21
10.9583479679
 31
0.0
 40
0.32049021
 41
1.5970782097
 42
1.6285433888
  0
ELLIPSE
  5
2C7
100
AcDbEntity
  8
0
100
AcDbEllipse
 62
7
  6
BYLAYER
 10
44.8164410973
 20
45.5457003547
 30
0.0
 11
9.6458827394
 21
-7.3844602403
 31
0.0
 40
0.8684143762
 41
1.8411522221
 42
1.8862553139
  0
ELLIPSE
  5
2C8
100
AcDbEntity
  8
0
100
AcDbEllipse
 62
7
  6
BYLAYER
 10
44.8164410973
 20
45.9438783631
 30
0.0
 11
9.6390686169
 21
-8.472058128
 31
0.0
 40
0.7581403628
 41
1.8422139607
 42
1.8873170525
  0
ELLIPSE
  5
2C9
100
AcDbEntity
  8
0
100
AcDbEllipse
 62
7
  6
BYLAYER
 10
44.8164410973
 20
46.3283118988
 30
0.0
 11
9.9008743148
 21
-9.1398053983
 31
0.0
 40
0.657738698
 41
1.800110998
 42
1.8452140898
  0
ELLIPSE
  5
2CA
100
AcDbEntity
  8
0
100
AcDbEllipse
 62
7
  6
BYLAYER
 10
44.8164410973
 20
46.6924231974
 30
0.0
 11
10.207034137
 21
-9.672197328
 31
0.0
 40
0.5661264515
 41
1.7468195168
 42
1.7919226086
  0
ELLIPSE
  5
2CB
100
AcDbEntity
  8
0
100
AcDbEllipse
 62
7
  6
BYLAYER
 10
44.8164410973
 20
47.0299822135
 30
0.0
 11
10.5062434209
 21
-10.1235279518
 31
0.0
 40
0.4817532195
 41
1.6890326245
 42
1.7341357163
  0
ELLIPSE
  5
2CC
100
AcDbEntity
  8
0
100
AcDbEllipse
 62
7
  6
BYLAYER
 10
44.8164410973
 20
47.3352132189
 30
0.0
 11
10.7798633581
 21
-10.5096998268
 31
0.0
 40
0.4032531911
 41
1.6290140991
 42
1.674117191
  0
ELLIPSE
  5
2CD
100
AcDbEntity
  8
0
100
AcDbEllipse
 62
7
  6
BYLAYER
 10
44.8164410973
 20
47.6028936264
 30
0.0
 11
11.0191384116
 21
-10.8359096051
 31
0.0
 40
0.3294650235
 41
1.5677445238
 42
1.6128476156
  0
ELLIPSE
  5
2CE
100
AcDbEntity
  8
0
100
AcDbEllipse
 62
7
  6
BYLAYER
 10
44.8164410973
 20
47.82844335
 30
0.0
 11
11.2192358625
 21
-11.103573653
 31
0.0
 40
0.2593921815
 41
1.5057209388
 42
1.5508240306
  0
ELLIPSE
  5
2CF
100
AcDbEntity
  8
0
100
AcDbEllipse
 62
7
  6
BYLAYER
 10
44.8164410973
 20
48.0080031715
 30
0.0
 11
11.377213794
 21
-11.3126576757
 31
0.0
 40
0.1921623568
 41
1.4432258704
 42
1.4883289622
  0
ELLIPSE
  5
2D0
100
AcDbEntity
  8
0
100
AcDbEllipse
 62
7
  6
BYLAYER
 10
44.8164410973
 20
48.1385007724
 30
0.0
 11
11.4912004934
 21
-11.4626280056
 31
0.0
 40
0.1269935126
 41
1.3804360692
 42
1.425539161
  0
ELLIPSE
  5
2D1
100
AcDbEntity
  8
0
100
AcDbEllipse
 62
7
  6
BYLAYER
 10
44.8164410973
 20
48.2177033027
 30
0.0
 11
11.5600239517
 21
-11.5528949874
 31
0.0
 40
0.0631661312
 41
1.3174730036
 42
1.3625760954
  0
ELLIPSE
  5
2D2
100
AcDbEntity
  8
0
100
AcDbEllipse
 62
7
  6
BYLAYER
 10
52.2279569716
 20
48.186701534
 30
0.0
 11
11.0811640271
 21
10.57430594
 31
0.0
 40
0.3932536107
 41
1.5393435277
 42
1.5677038056
  0
ELLIPSE
  5
2D3
100
AcDbEntity
  8
0
100
AcDbEllipse
 62
7
  6
BYLAYER
 10
52.2279569716
 20
47.7630444005
 30
0.0
 11
10.8336078883
 21
10.1170563979
 31
0.0
 40
0.4711119558
 41
1.4838808103
 42
1.5086873211
  0
ELLIPSE
  5
2D4
100
AcDbEntity
  8
0
100
AcDbEllipse
 62
7
  6
BYLAYER
 10
52.2279569716
 20
47.2945163591
 30
0.0
 11
10.5743403885
 21
9.5757833526
 31
0.0
 40
0.5552272381
 41
1.4324654912
 42
1.4530004966
  0
ELLIPSE
  5
2D5
100
AcDbEntity
  8
0
100
AcDbEllipse
 62
7
  6
BYLAYER
 10
52.2279569716
 20
46.7891340543
 30
0.0
 11
10.3341729894
 21
8.919591999
 31
0.0
 40
0.6468548444
 41
1.3891458436
 42
1.4042437168
  0
ELLIPSE
  5
2D6
100
AcDbEntity
  8
0
100
AcDbEllipse
 62
7
  6
BYLAYER
 10
52.2279569716
 20
46.2555447175
 30
0.0
 11
10.195190748
 21
8.0474192635
 31
0.0
 40
0.7470541823
 41
1.3655537154
 42
1.3732190188
  0
ELLIPSE
  5
2D7
100
AcDbEntity
  8
0
100
AcDbEllipse
 62
7
  6
BYLAYER
 10
44.8164410973
 20
45.1405908096
 30
0.0
 11
11.5830346317
 21
0.0
 31
0.0
 40
0.963433044
 41
7.5376147884
 42
7.5827178802
  0
ELLIPSE
  5
2D8
100
AcDbEntity
  8
0
100
AcDbEllipse
 62
7
  6
BYLAYER
 10
44.8164410973
 20
42.0634783166
 30
0.0
 11
11.5600239517
 21
11.5528949874
 31
0.0
 40
0.0631661312
 41
-1.3625760954
 42
-1.3174730036
  0
ELLIPSE
  5
2D9
100
AcDbEntity
  8
0
100
AcDbEllipse
 62
7
  6
BYLAYER
 10
44.8164410973
 20
42.1426808469
 30
0.0
 11
11.4912004934
 21
11.4626280056
 31
0.0
 40
0.1269935126
 41
-1.425539161
 42
-1.3804360692
  0
ELLIPSE
  5
2DA
100
AcDbEntity
  8
0
100
AcDbEllipse
 62
7
  6
BYLAYER
 10
44.8164410973
 20
42.2731784478
 30
0.0
 11
11.377213794
 21
11.3126576757
 31
0.0
 40
0.1921623568
 41
-1.4883289622
 42
-1.4432258704
  0
ELLIPSE
  5
2DB
100
AcDbEntity
  8
0
100
AcDbEllipse
 62
7
  6
BYLAYER
 10
44.8164410973
 20
42.4527382693
 30
0.0
 11
11.2192358625
 21
11.103573653
 31
0.0
 40
0.2593921815
 41
-1.5508240306
 42
-1.5057209388
  0
ELLIPSE
  5
2DC
100
AcDbEntity
  8
0
100
AcDbEllipse
 62
7
  6
BYLAYER
 10
44.8164410973
 20
42.6782879929
 30
0.0
 11
11.0191384116
 21
10.8359096051
 31
0.0
 40
0.3294650235
 41
-1.6128476156
 42
-1.5677445238
  0
ELLIPSE
  5
2DD
100
AcDbEntity
  8
0
100
AcDbEllipse
 62
7
  6
BYLAYER
 10
44.8164410973
 20
42.9459684004
 30
0.0
 11
10.7798633581
 21
10.5096998268
 31
0.0
 40
0.4032531911
 41
-1.674117191
 42
-1.6290140991
  0
ELLIPSE
  5
2DE
100
AcDbEntity
  8
0
100
AcDbEllipse
 62
7
  6
BYLAYER
 10
44.8164410973
 20
43.2511994058
 30
0.0
 11
10.5062434209
 21
10.1235279518
 31
0.0
 40
0.4817532195
 41
-1.7341357163
 42
-1.6890326245
  0
ELLIPSE
  5
2DF
100
AcDbEntity
  8
0
100
AcDbEllipse
 62
7
  6
BYLAYER
 10
44.8164410973
 20
43.5887584219
 30
0.0
 11
10.207034137
 21
9.672197328
 31
0.0
 40
0.5661264515
 41
-1.7919226086
 42
-1.7468195168
  0
ELLIPSE
  5
2E0
100
AcDbEntity
  8
0
100
AcDbEllipse
 62
7
  6
BYLAYER
 10
44.8164410973
 20
43.9528697205
 30
0.0
 11
9.9008743148
 21
9.1398053983
 31
0.0
 40
0.657738698
 41
-1.8452140898
 42
-1.800110998
  0
ELLIPSE
  5
2E1
100
AcDbEntity
  8
0
100
AcDbEllipse
 62
7
  6
BYLAYER
 10
44.8164410973
 20
44.3373032561
 30
0.0
 11
9.6390686169
 21
8.472058128
 31
0.0
 40
0.7581403628
 41
-1.8873170525
 42
-1.8422139607
  0
ELLIPSE
  5
2E2
100
AcDbEntity
  8
0
100
AcDbEllipse
 62
7
  6
BYLAYER
 10
44.8164410973
 20
44.7354812646
 30
0.0
 11
9.6458827394
 21
7.3844602403
 31
0.0
 40
0.8684143762
 41
-1.8862553139
 42
-1.8411522221
  0
ELLIPSE
  5
2E3
100
AcDbEntity
  8
0
100
AcDbEllipse
 62
7
  6
BYLAYER
 10
44.8164410973
 20
45.1405908096
 30
0.0
 11
11.5830346317
 21
-0.0
 31
0.0
 40
0.963433044
 41
-1.2995325731
 42
-1.2544294813
  0
ELLIPSE
  5
2E4
100
AcDbEntity
  8
0
100
AcDbEllipse
 62
7
  6
BYLAYER
 10
44.8164410973
 20
43.5887584219
 30
0.0
 11
10.207034137
 21
9.672197328
 31
0.0
 40
0.5661264515
 41
0.7620394457
 42
0.8071425375
  0
ELLIPSE
  5
2E5
100
AcDbEntity
  8
0
100
AcDbEllipse
 62
7
  6
BYLAYER
 10
44.8164410973
 20
48.2177033027
 30
0.0
 11
11.5600239517
 21
-11.5528949874
 31
0.0
 40
0.0631661312
 41
-1.2364890507
 42
-1.1913859589
  0
ELLIPSE
  5
2E6
100
AcDbEntity
  8
0
100
AcDbEllipse
 62
7
  6
BYLAYER
 10
44.8164410973
 20
48.1385007724
 30
0.0
 11
11.4912004934
 21
-11.4626280056
 31
0.0
 40
0.1269935126
 41
-1.1735259851
 42
-1.1284228933
  0
ELLIPSE
  5
2E7
100
AcDbEntity
  8
0
100
AcDbEllipse
 62
7
  6
BYLAYER
 10
44.8164410973
 20
43.9528697205
 30
0.0
 11
9.9008743148
 21
9.1398053983
 31
0.0
 40
0.657738698
 41
0.7087479645
 42
0.7538510564
  0
ELLIPSE
  5
2E8
100
AcDbEntity
  8
0
100
AcDbEllipse
 62
7
  6
BYLAYER
 10
44.8164410973
 20
48.0080031715
 30
0.0
 11
11.377213794
 21
-11.3126576757
 31
0.0
 40
0.1921623568
 41
-1.1107361839
 42
-1.0656330921
  0
ELLIPSE
  5
2E9
100
AcDbEntity
  8
0
100
AcDbEllipse
 62
7
  6
BYLAYER
 10
44.8164410973
 20
47.82844335
 30
0.0
 11
11.2192358625
 21
-11.103573653
 31
0.0
 40
0.2593921815
 41
-1.0482411156
 42
-1.0031380237
  0
ELLIPSE
  5
2EA
100
AcDbEntity
  8
0
100
AcDbEllipse
 62
7
  6
BYLAYER
 10
44.8164410973
 20
47.6028936264
 30
0.0
 11
11.0191384116
 21
-10.8359096051
 31
0.0
 40
0.3294650235
 41
-0.9862175305
 42
-0.9411144387
  0
ELLIPSE
  5
2EB
100
AcDbEntity
  8
0
100
AcDbEllipse
 62
7
  6
BYLAYER
 10
44.8164410973
 20
44.3373032561
 30
0.0
 11
9.6390686169
 21
8.472058128
 31
0.0
 40
0.7581403628
 41
0.6666450018
 42
0.7117480936
  0
ELLIPSE
  5
2EC
100
AcDbEntity
  8
0
100
AcDbEllipse
 62
7
  6
BYLAYER
 10
44.8164410973
 20
47.3352132189
 30
0.0
 11
10.7798633581
 21
-10.5096998268
 31
0.0
 40
0.4032531911
 41
-0.9249479552
 42
-0.8798448634
  0
ELLIPSE
  5
2ED
100
AcDbEntity
  8
0
100
AcDbEllipse
 62
7
  6
BYLAYER
 10
44.8164410973
 20
47.0299822135
 30
0.0
 11
10.5062434209
 21
-10.1235279518
 31
0.0
 40
0.4817532195
 41
-0.8649294298
 42
-0.819826338
  0
ELLIPSE
  5
2EE
100
AcDbEntity
  8
0
100
AcDbEllipse
 62
7
  6
BYLAYER
 10
44.8164410973
 20
46.6924231974
 30
0.0
 11
10.207034137
 21
-9.672197328
 31
0.0
 40
0.5661264515
 41
-0.8071425375
 42
-0.7620394457
  0
ELLIPSE
  5
2EF
100
AcDbEntity
  8
0
100
AcDbEllipse
 62
7
  6
BYLAYER
 10
44.8164410973
 20
44.7354812646
 30
0.0
 11
9.6458827394
 21
7.3844602403
 31
0.0
 40
0.8684143762
 41
0.6677067404
 42
0.7128098322
  0
ELLIPSE
  5
2F0
100
AcDbEntity
  8
0
100
AcDbEllipse
 62
7
  6
BYLAYER
 10
44.8164410973
 20
46.3283118988
 30
0.0
 11
9.9008743148
 21
-9.1398053983
 31
0.0
 40
0.657738698
 41
-0.7538510564
 42
-0.7087479645
  0
ELLIPSE
  5
2F1
100
AcDbEntity
  8
0
100
AcDbEllipse
 62
7
  6
BYLAYER
 10
44.8164410973
 20
45.9438783631
 30
0.0
 11
9.6390686169
 21
-8.472058128
 31
0.0
 40
0.7581403628
 41
-0.7117480936
 42
-0.6666450018
  0
ELLIPSE
  5
2F2
100
AcDbEntity
  8
0
100
AcDbEllipse
 62
7
  6
BYLAYER
 10
44.8164410973
 20
45.5457003547
 30
0.0
 11
9.6458827394
 21
-7.3844602403
 31
0.0
 40
0.8684143762
 41
-0.7128098322
 42
-0.6677067404
  0
ELLIPSE
  5
2F3
100
AcDbEntity
  8
0
100
AcDbEllipse
 62
7
  6
BYLAYER
 10
44.8164410973
 20
42.2731784478
 30
0.0
 11
11.377213794
 21
11.3126576757
 31
0.0
 40
0.1921623568
 41
1.0656330921
 42
1.1107361839
  0
ELLIPSE
  5
2F4
100
AcDbEntity
  8
0
100
AcDbEllipse
 62
7
  6
BYLAYER
 10
44.8164410973
 20
42.0634783166
 30
0.0
 11
11.5600239517
 21
11.5528949874
 31
0.0
 40
0.0631661312
 41
1.1913859589
 42
1.2364890507
  0
ELLIPSE
  5
2F5
100
AcDbEntity
  8
0
100
AcDbEllipse
 62
7
  6
BYLAYER
 10
44.8164410973
 20
42.4527382693
 30
0.0
 11
11.2192358625
 21
11.103573653
 31
0.0
 40
0.2593921815
 41
1.0031380237
 42
1.0482411156
  0
ELLIPSE
  5
2F6
100
AcDbEntity
  8
0
100
AcDbEllipse
 62
7
  6
BYLAYER
 10
44.8164410973
 20
42.6782879929
 30
0.0
 11
11.0191384116
 21
10.8359096051
 31
0.0
 40
0.3294650235
 41
0.9411144387
 42
0.9862175305
  0
ELLIPSE
  5
2F7
100
AcDbEntity
  8
0
100
AcDbEllipse
 62
7
  6
BYLAYER
 10
44.8164410973
 20
42.9459684004
 30
0.0
 11
10.7798633581
 21
10.5096998268
 31
0.0
 40
0.4032531911
 41
0.8798448634
 42
0.9249479552
  0
ELLIPSE
  5
2F8
100
AcDbEntity
  8
0
100
AcDbEllipse
 62
7
  6
BYLAYER
 10
44.8164410973
 20
43.2511994058
 30
0.0
 11
10.5062434209
 21
10.1235279518
 31
0.0
 40
0.4817532195
 41
0.819826338
 42
0.8649294298
  0
ELLIPSE
  5
2F9
100
AcDbEntity
  8
0
100
AcDbEllipse
 62
7
  6
BYLAYER
 10
44.8164410973
 20
42.1426808469
 30
0.0
 11
11.4912004934
 21
11.4626280056
 31
0.0
 40
0.1269935126
 41
1.1284228933
 42
1.1735259851
  0
ELLIPSE
  5
2FA
100
AcDbEntity
  8
0
100
AcDbEllipse
 62
7
  6
BYLAYER
 10
47.2122547739
 20
46.2555447175
 30
0.0
 11
10.195190748
 21
-8.0474192635
 31
0.0
 40
0.7470541823
 41
8.051558944
 42
8.0592242454
  0
ELLIPSE
  5
2FB
100
AcDbEntity
  8
0
100
AcDbEllipse
 62
7
  6
BYLAYER
 10
47.2122547739
 20
46.7891340543
 30
0.0
 11
10.3341729894
 21
-8.919591999
 31
0.0
 40
0.6468548444
 41
1.7373489256
 42
1.75244681
  0
ELLIPSE
  5
2FC
100
AcDbEntity
  8
0
100
AcDbEllipse
 62
7
  6
BYLAYER
 10
47.2122547739
 20
47.2945163591
 30
0.0
 11
10.5743403885
 21
-9.5757833526
 31
0.0
 40
0.5552272381
 41
1.6885921549
 42
1.7091271624
  0
ELLIPSE
  5
2FD
100
AcDbEntity
  8
0
100
AcDbEllipse
 62
7
  6
BYLAYER
 10
47.2122547739
 20
47.7630444005
 30
0.0
 11
10.8336078883
 21
-10.1170563979
 31
0.0
 40
0.4711119558
 41
1.632905328
 42
1.6577118433
  0
ELLIPSE
  5
2FE
100
AcDbEntity
  8
0
100
AcDbEllipse
 62
7
  6
BYLAYER
 10
47.2122547739
 20
48.186701534
 30
0.0
 11
11.0811640271
 21
-10.57430594
 31
0.0
 40
0.3932536107
 41
1.5738888353
 42
1.6022491259
  0
ELLIPSE
  5
2FF
100
AcDbEntity
  8
0
100
AcDbEllipse
 62
7
  6
BYLAYER
 10
47.2122547739
 20
48.5582388684
 30
0.0
 11
11.3026503924
 21
-10.9583479679
 31
0.0
 40
0.32049021
 41
1.5130493452
 42
1.5445144439
  0
ELLIPSE
  5
300
100
AcDbEntity
  8
0
100
AcDbEllipse
 62
7
  6
BYLAYER
 10
47.2122547739
 20
48.871299297
 30
0.0
 11
11.4903624333
 21
-11.272755276
 31
0.0
 40
0.2517837063
 41
1.4511217496
 42
1.48541291
  0
ELLIPSE
  5
301
100
AcDbEntity
  8
0
100
AcDbEllipse
 62
7
  6
BYLAYER
 10
47.2122547739
 20
49.120526269
 30
0.0
 11
11.6397811956
 21
-11.5182116851
 31
0.0
 40
0.1862029912
 41
1.3888451401
 42
1.4254597263
  0
ELLIPSE
  5
302
100
AcDbEntity
  8
0
100
AcDbEllipse
 62
7
  6
BYLAYER
 10
47.2122547739
 20
49.3016554418
 30
0.0
 11
11.7481381864
 21
-11.6942962282
 31
0.0
 40
0.1228992729
 41
1.3256576735
 42
1.3649764266
  0
ELLIPSE
  5
303
100
AcDbEntity
  8
0
100
AcDbEllipse
 62
7
  6
BYLAYER
 10
47.2122547739
 20
49.4115876452
 30
0.0
 11
11.8137551981
 21
-11.8003161272
 31
0.0
 40
0.0610824685
 41
1.2620631662
 42
1.3041827215
  0
ELLIPSE
  5
304
100
AcDbEntity
  8
0
100
AcDbEllipse
 62
7
  6
BYLAYER
 10
47.2122547739
 20
40.8695939741
 30
0.0
 11
11.8137551981
 21
11.8003161272
 31
0.0
 40
0.0610824685
 41
-1.3041827215
 42
-1.2620631378
  0
ELLIPSE
  5
305
100
AcDbEntity
  8
0
100
AcDbEllipse
 62
7
  6
BYLAYER
 10
47.2122547739
 20
40.9795261775
 30
0.0
 11
11.7481381864
 21
11.6942962282
 31
0.0
 40
0.1228992729
 41
-1.3649764266
 42
-1.3256576209
  0
ELLIPSE
  5
306
100
AcDbEntity
  8
0
100
AcDbEllipse
 62
7
  6
BYLAYER
 10
54.6237706482
 20
48.2177033027
 30
0.0
 11
11.5600239517
 21
11.5528949874
 31
0.0
 40
0.0631661312
 41
1.7790165582
 42
1.82411965
  0
ELLIPSE
  5
307
100
AcDbEntity
  8
0
100
AcDbEllipse
 62
7
  6
BYLAYER
 10
47.2122547739
 20
41.1606553503
 30
0.0
 11
11.6397811956
 21
11.5182116851
 31
0.0
 40
0.1862029912
 41
-1.4254597263
 42
-1.3888450666
  0
ELLIPSE
  5
308
100
AcDbEntity
  8
0
100
AcDbEllipse
 62
7
  6
BYLAYER
 10
54.6237706482
 20
48.1385007724
 30
0.0
 11
11.4912004934
 21
11.4626280056
 31
0.0
 40
0.1269935126
 41
1.7160534926
 42
1.7611565844
  0
ELLIPSE
  5
309
100
AcDbEntity
  8
0
100
AcDbEllipse
 62
7
  6
BYLAYER
 10
47.2122547739
 20
41.4098823223
 30
0.0
 11
11.4903624333
 21
11.272755276
 31
0.0
 40
0.2517837063
 41
-1.48541291
 42
-1.4511216763
  0
ELLIPSE
  5
30A
100
AcDbEntity
  8
0
100
AcDbEllipse
 62
7
  6
BYLAYER
 10
54.6237706482
 20
48.0080031715
 30
0.0
 11
11.377213794
 21
11.3126576757
 31
0.0
 40
0.1921623568
 41
1.6532636914
 42
1.6983667832
  0
ELLIPSE
  5
30B
100
AcDbEntity
  8
0
100
AcDbEllipse
 62
7
  6
BYLAYER
 10
47.2122547739
 20
41.7229427509
 30
0.0
 11
11.3026503924
 21
10.9583479679
 31
0.0
 40
0.32049021
 41
-1.5445144439
 42
-1.5130492648
  0
ELLIPSE
  5
30C
100
AcDbEntity
  8
0
100
AcDbEllipse
 62
7
  6
BYLAYER
 10
54.6237706482
 20
47.82844335
 30
0.0
 11
11.2192358625
 21
11.103573653
 31
0.0
 40
0.2593921815
 41
1.590768623
 42
1.6358717148
  0
ELLIPSE
  5
30D
100
AcDbEntity
  8
0
100
AcDbEllipse
 62
7
  6
BYLAYER
 10
47.2122547739
 20
42.0944800853
 30
0.0
 11
11.0811640271
 21
10.57430594
 31
0.0
 40
0.3932536107
 41
-1.6022491259
 42
-1.573888848
  0
ELLIPSE
  5
30E
100
AcDbEntity
  8
0
100
AcDbEllipse
 62
7
  6
BYLAYER
 10
54.6237706482
 20
47.6028936264
 30
0.0
 11
11.0191384116
 21
10.8359096051
 31
0.0
 40
0.3294650235
 41
1.5287450379
 42
1.5738481298
  0
ELLIPSE
  5
30F
100
AcDbEntity
  8
0
100
AcDbEllipse
 62
7
  6
BYLAYER
 10
47.2122547739
 20
42.5181372187
 30
0.0
 11
10.8336078883
 21
10.1170563979
 31
0.0
 40
0.4711119558
 41
-1.6577118433
 42
-1.6329053324
  0
ELLIPSE
  5
310
100
AcDbEntity
  8
0
100
AcDbEllipse
 62
7
  6
BYLAYER
 10
54.6237706482
 20
47.3352132189
 30
0.0
 11
10.7798633581
 21
10.5096998268
 31
0.0
 40
0.4032531911
 41
1.4674754626
 42
1.5125785545
  0
ELLIPSE
  5
311
100
AcDbEntity
  8
0
100
AcDbEllipse
 62
7
  6
BYLAYER
 10
47.2122547739
 20
42.9866652602
 30
0.0
 11
10.5743403885
 21
9.5757833526
 31
0.0
 40
0.5552272381
 41
-1.7091271624
 42
-1.688592157
  0
ELLIPSE
  5
312
100
AcDbEntity
  8
0
100
AcDbEllipse
 62
7
  6
BYLAYER
 10
54.6237706482
 20
47.0299822135
 30
0.0
 11
10.5062434209
 21
10.1235279518
 31
0.0
 40
0.4817532195
 41
1.4074569373
 42
1.4525600291
  0
ELLIPSE
  5
313
100
AcDbEntity
  8
0
100
AcDbEllipse
 62
7
  6
BYLAYER
 10
47.2122547739
 20
43.492047565
 30
0.0
 11
10.3341729894
 21
8.919591999
 31
0.0
 40
0.6468548444
 41
-1.75244681
 42
-1.7373489368
  0
ELLIPSE
  5
314
100
AcDbEntity
  8
0
100
AcDbEllipse
 62
7
  6
BYLAYER
 10
54.6237706482
 20
46.6924231974
 30
0.0
 11
10.207034137
 21
9.672197328
 31
0.0
 40
0.5661264515
 41
1.349670045
 42
1.3947731368
  0
ELLIPSE
  5
315
100
AcDbEntity
  8
0
100
AcDbEllipse
 62
7
  6
BYLAYER
 10
47.2122547739
 20
44.0256369018
 30
0.0
 11
10.195190748
 21
8.0474192635
 31
0.0
 40
0.7470541823
 41
-1.7760389382
 42
-1.7683736348
  0
ELLIPSE
  5
316
100
AcDbEntity
  8
0
100
AcDbEllipse
 62
7
  6
BYLAYER
 10
54.6237706482
 20
46.3283118988
 30
0.0
 11
9.9008743148
 21
9.1398053983
 31
0.0
 40
0.657738698
 41
1.2963785638
 42
1.3414816556
  0
ELLIPSE
  5
317
100
AcDbEntity
  8
0
100
AcDbEllipse
 62
7
  6
BYLAYER
 10
54.6237706482
 20
45.9438783631
 30
0.0
 11
9.6390686169
 21
8.472058128
 31
0.0
 40
0.7581403628
 41
1.2542756011
 42
1.2993786929
  0
ELLIPSE
  5
318
100
AcDbEntity
  8
0
100
AcDbEllipse
 62
7
  6
BYLAYER
 10
54.6237706482
 20
45.5457003547
 30
0.0
 11
9.6458827394
 21
7.3844602403
 31
0.0
 40
0.8684143762
 41
1.2553373397
 42
1.3004404315
  0
ELLIPSE
  5
319
100
AcDbEntity
  8
0
100
AcDbEllipse
 62
7
  6
BYLAYER
 10
54.6237706482
 20
45.1405908096
 30
0.0
 11
11.5830346317
 21
-0.0
 31
0.0
 40
0.963433044
 41
-1.8871631723
 42
-1.8420600805
  0
ELLIPSE
  5
31A
100
AcDbEntity
  8
0
100
AcDbEllipse
 62
7
  6
BYLAYER
 10
54.6237706482
 20
44.7354812646
 30
0.0
 11
9.6458827394
 21
-7.3844602403
 31
0.0
 40
0.8684143762
 41
-1.3004404315
 42
-1.2553373397
  0
ELLIPSE
  5
31B
100
AcDbEntity
  8
0
100
AcDbEllipse
 62
7
  6
BYLAYER
 10
54.6237706482
 20
44.3373032561
 30
0.0
 11
9.6390686169
 21
-8.472058128
 31
0.0
 40
0.7581403628
 41
-1.2993786929
 42
-1.2542756011
  0
ELLIPSE
  5
31C
100
AcDbEntity
  8
0
100
AcDbEllipse
 62
7
  6
BYLAYER
 10
54.6237706482
 20
43.9528697205
 30
0.0
 11
9.9008743148
 21
-9.1398053983
 31
0.0
 40
0.657738698
 41
-1.3414816556
 42
-1.2963785638
  0
ELLIPSE
  5
31D
100
AcDbEntity
  8
0
100
AcDbEllipse
 62
7
  6
BYLAYER
 10
54.6237706482
 20
43.5887584219
 30
0.0
 11
10.207034137
 21
-9.672197328
 31
0.0
 40
0.5661264515
 41
-1.3947731368
 42
-1.349670045
  0
ELLIPSE
  5
31E
100
AcDbEntity
  8
0
100
AcDbEllipse
 62
7
  6
BYLAYER
 10
54.6237706482
 20
43.2511994058
 30
0.0
 11
10.5062434209
 21
-10.1235279518
 31
0.0
 40
0.4817532195
 41
-1.4525600291
 42
-1.4074569373
  0
ELLIPSE
  5
31F
100
AcDbEntity
  8
0
100
AcDbEllipse
 62
7
  6
BYLAYER
 10
54.6237706482
 20
42.9459684004
 30
0.0
 11
10.7798633581
 21
-10.5096998268
 31
0.0
 40
0.4032531911
 41
-1.5125785545
 42
-1.4674754626
  0
ELLIPSE
  5
320
100
AcDbEntity
  8
0
100
AcDbEllipse
 62
7
  6
BYLAYER
 10
54.6237706482
 20
42.6782879929
 30
0.0
 11
11.0191384116
 21
-10.8359096051
 31
0.0
 40
0.3294650235
 41
-1.5738481298
 42
-1.5287450379
  0
ELLIPSE
  5
321
100
AcDbEntity
  8
0
100
AcDbEllipse
 62
7
  6
BYLAYER
 10
54.6237706482
 20
42.4527382693
 30
0.0
 11
11.2192358625
 21
-11.103573653
 31
0.0
 40
0.2593921815
 41
-1.6358717148
 42
-1.590768623
  0
ELLIPSE
  5
322
100
AcDbEntity
  8
0
100
AcDbEllipse
 62
7
  6
BYLAYER
 10
54.6237706482
 20
42.2731784478
 30
0.0
 11
11.377213794
 21
-11.3126576757
 31
0.0
 40
0.1921623568
 41
-1.6983667832
 42
-1.6532636914
  0
ELLIPSE
  5
323
100
AcDbEntity
  8
0
100
AcDbEllipse
 62
7
  6
BYLAYER
 10
54.6237706482
 20
42.1426808469
 30
0.0
 11
11.4912004934
 21
-11.4626280056
 31
0.0
 40
0.1269935126
 41
-1.7611565844
 42
-1.7160534926
  0
ELLIPSE
  5
324
100
AcDbEntity
  8
0
100
AcDbEllipse
 62
7
  6
BYLAYER
 10
54.6237706482
 20
42.0634783166
 30
0.0
 11
11.5600239517
 21
-11.5528949874
 31
0.0
 40
0.0631661312
 41
-1.82411965
 42
-1.7790165582
  0
ELLIPSE
  5
325
100
AcDbEntity
  8
0
100
AcDbEllipse
 62
7
  6
BYLAYER
 10
54.6237706482
 20
45.1405908096
 30
0.0
 11
11.5830346317
 21
0.0
 31
0.0
 40
0.963433044
 41
1.8420600805
 42
1.8871631723
  0
ELLIPSE
  5
326
100
AcDbEntity
  8
0
100
AcDbEllipse
 62
7
  6
BYLAYER
 10
54.6237706482
 20
48.0080031715
 30
0.0
 11
11.377213794
 21
11.3126576757
 31
0.0
 40
0.1921623568
 41
-2.0759595615
 42
-2.0308564696
  0
ELLIPSE
  5
327
100
AcDbEntity
  8
0
100
AcDbEllipse
 62
7
  6
BYLAYER
 10
54.6237706482
 20
47.0299822135
 30
0.0
 11
10.5062434209
 21
10.1235279518
 31
0.0
 40
0.4817532195
 41
-2.3217663156
 42
-2.2766632237
  0
ELLIPSE
  5
328
100
AcDbEntity
  8
0
100
AcDbEllipse
 62
7
  6
BYLAYER
 10
54.6237706482
 20
48.2177033027
 30
0.0
 11
11.5600239517
 21
11.5528949874
 31
0.0
 40
0.0631661312
 41
-1.9502066947
 42
-1.9051036029
  0
ELLIPSE
  5
329
100
AcDbEntity
  8
0
100
AcDbEllipse
 62
7
  6
BYLAYER
 10
54.6237706482
 20
46.6924231974
 30
0.0
 11
10.207034137
 21
9.672197328
 31
0.0
 40
0.5661264515
 41
-2.3795532079
 42
-2.3344501161
  0
ELLIPSE
  5
32A
100
AcDbEntity
  8
0
100
AcDbEllipse
 62
7
  6
BYLAYER
 10
54.6237706482
 20
47.82844335
 30
0.0
 11
11.2192358625
 21
11.103573653
 31
0.0
 40
0.2593921815
 41
-2.1384546298
 42
-2.093351538
  0
ELLIPSE
  5
32B
100
AcDbEntity
  8
0
100
AcDbEllipse
 62
7
  6
BYLAYER
 10
54.6237706482
 20
46.3283118988
 30
0.0
 11
9.9008743148
 21
9.1398053983
 31
0.0
 40
0.657738698
 41
-2.432844689
 42
-2.3877415972
  0
ELLIPSE
  5
32C
100
AcDbEntity
  8
0
100
AcDbEllipse
 62
7
  6
BYLAYER
 10
54.6237706482
 20
47.6028936264
 30
0.0
 11
11.0191384116
 21
10.8359096051
 31
0.0
 40
0.3294650235
 41
-2.2004782149
 42
-2.1553751231
  0
ELLIPSE
  5
32D
100
AcDbEntity
  8
0
100
AcDbEllipse
 62
7
  6
BYLAYER
 10
54.6237706482
 20
45.9438783631
 30
0.0
 11
9.6390686169
 21
8.472058128
 31
0.0
 40
0.7581403628
 41
-2.4749476518
 42
-2.42984456
  0
ELLIPSE
  5
32E
100
AcDbEntity
  8
0
100
AcDbEllipse
 62
7
  6
BYLAYER
 10
54.6237706482
 20
47.3352132189
 30
0.0
 11
10.7798633581
 21
10.5096998268
 31
0.0
 40
0.4032531911
 41
-2.2617477902
 42
-2.2166446984
  0
ELLIPSE
  5
32F
100
AcDbEntity
  8
0
100
AcDbEllipse
 62
7
  6
BYLAYER
 10
54.6237706482
 20
48.1385007724
 30
0.0
 11
11.4912004934
 21
11.4626280056
 31
0.0
 40
0.1269935126
 41
-2.0131697603
 42
-1.9680666685
  0
ELLIPSE
  5
330
100
AcDbEntity
  8
0
100
AcDbEllipse
 62
7
  6
BYLAYER
 10
54.6237706482
 20
45.5457003547
 30
0.0
 11
9.6458827394
 21
7.3844602403
 31
0.0
 40
0.8684143762
 41
-2.4738859132
 42
-2.4287828214
  0
ELLIPSE
  5
331
100
AcDbEntity
  8
0
100
AcDbEllipse
 62
7
  6
BYLAYER
 10
54.6237706482
 20
42.0634783166
 30
0.0
 11
11.5600239517
 21
-11.5528949874
 31
0.0
 40
0.0631661312
 41
1.9051036029
 42
1.9502066947
  0
ELLIPSE
  5
332
100
AcDbEntity
  8
0
100
AcDbEllipse
 62
7
  6
BYLAYER
 10
54.6237706482
 20
42.1426808469
 30
0.0
 11
11.4912004934
 21
-11.4626280056
 31
0.0
 40
0.1269935126
 41
1.9680666685
 42
2.0131697603
  0
ELLIPSE
  5
333
100
AcDbEntity
  8
0
100
AcDbEllipse
 62
7
  6
BYLAYER
 10
54.6237706482
 20
42.2731784478
 30
0.0
 11
11.377213794
 21
-11.3126576757
 31
0.0
 40
0.1921623568
 41
2.0308564696
 42
2.0759595615
  0
ELLIPSE
  5
334
100
AcDbEntity
  8
0
100
AcDbEllipse
 62
7
  6
BYLAYER
 10
54.6237706482
 20
42.4527382693
 30
0.0
 11
11.2192358625
 21
-11.103573653
 31
0.0
 40
0.2593921815
 41
2.093351538
 42
2.1384546298
  0
ELLIPSE
  5
335
100
AcDbEntity
  8
0
100
AcDbEllipse
 62
7
  6
BYLAYER
 10
54.6237706482
 20
42.6782879929
 30
0.0
 11
11.0191384116
 21
-10.8359096051
 31
0.0
 40
0.3294650235
 41
2.1553751231
 42
2.2004782149
  0
ELLIPSE
  5
336
100
AcDbEntity
  8
0
100
AcDbEllipse
 62
7
  6
BYLAYER
 10
54.6237706482
 20
42.9459684004
 30
0.0
 11
10.7798633581
 21
-10.5096998268
 31
0.0
 40
0.4032531911
 41
2.2166446984
 42
2.2617477902
  0
ELLIPSE
  5
337
100
AcDbEntity
  8
0
100
AcDbEllipse
 62
7
  6
BYLAYER
 10
54.6237706482
 20
43.2511994058
 30
0.0
 11
10.5062434209
 21
-10.1235279518
 31
0.0
 40
0.4817532195
 41
2.2766632237
 42
2.3217663156
  0
ELLIPSE
  5
338
100
AcDbEntity
  8
0
100
AcDbEllipse
 62
7
  6
BYLAYER
 10
54.6237706482
 20
43.5887584219
 30
0.0
 11
10.207034137
 21
-9.672197328
 31
0.0
 40
0.5661264515
 41
2.3344501161
 42
2.3795532079
  0
ELLIPSE
  5
339
100
AcDbEntity
  8
0
100
AcDbEllipse
 62
7
  6
BYLAYER
 10
54.6237706482
 20
43.9528697205
 30
0.0
 11
9.9008743148
 21
-9.1398053983
 31
0.0
 40
0.657738698
 41
2.3877415972
 42
2.432844689
  0
ELLIPSE
  5
33A
100
AcDbEntity
  8
0
100
AcDbEllipse
 62
7
  6
BYLAYER
 10
54.6237706482
 20
44.3373032561
 30
0.0
 11
9.6390686169
 21
-8.472058128
 31
0.0
 40
0.7581403628
 41
2.42984456
 42
2.4749476518
  0
ELLIPSE
  5
33B
100
AcDbEntity
  8
0
100
AcDbEllipse
 62
7
  6
BYLAYER
 10
54.6237706482
 20
44.7354812646
 30
0.0
 11
9.6458827394
 21
-7.3844602403
 31
0.0
 40
0.8684143762
 41
2.4287828214
 42
2.4738859132
  0
ENDSEC
  0
SECTION
  2
OBJECTS
  0
DICTIONARY
  5
C
100
AcDbDictionary
280
0
281
1
  3
ACAD_GROUP
350
D
  3
ACAD_MLINESTYLE
350
17
  3
ACAD_LAYOUT
350
1A
  3
ACAD_PLOTSETTINGS
350
19
  3
ACAD_PLOTSTYLENAME
350
E
  0
DICTIONARY
  5
D
102
{ACAD_REACTORS
330
C
102
}
100
AcDbDictionary
280
0
281
1
  0
ACDBDICTIONARYWDFLT
  5
E
102
{ACAD_REACTORS
330
C
102
}
100
AcDbDictionary
281
1
  3
Normal
350
F
100
AcDbDictionaryWithDefault
340
F
  0
DICTIONARY
  5
17
102
{ACAD_REACTORS
330
C
102
}
100
AcDbDictionary
280
0
281
1
  3
Standard
350
18
  0
DICTIONARY
  5
19
102
{ACAD_REACTORS
330
C
102
}
100
AcDbDictionary
281
1
  0
DICTIONARY
  5
1A
102
{ACAD_REACTORS
330
C
102
}
100
AcDbDictionary
281
1
  3
Model
350
33C
  3
Layout1
350
33D
  0
ACDBPLACEHOLDER
  5
F
102
{ACAD_REACTORS
330
E
102
}
  0
MLINESTYLE
  5
18
102
{ACAD_REACTORS
330
17
102
}
100
AcDbMlineStyle
  2
STANDARD
 70
0
  3

 62
256
 51
90.0
 52
90.0
 71
2
 49
0.5
 62
256
  6
BYLAYER
 49
-0.5
 62
256
  6
BYLAYER
  0
LAYOUT
  5
33C
102
{ACAD_REACTORS
330
1A
102
}
100
AcDbPlotSettings
  1

  2
none_device
  4

  6

 40
0.0
 41
0.0
 42
0.0
 43
0.0
 44
210.0
 45
297.0
 46
0.0
 47
0.0
 48
0.0
 49
0.0
140
0.0
141
0.0
142
1.0
143
1.0
 70
1024
 72
1
 73
0
 74
0
  7

 75
0
147
1.0
148
0.0
149
0.0
100
AcDbLayout
  1
Model
 70
0
 71
0
 10
0.0
 20
0.0
 11
210.0
 21
297.0
 12
0.0
 22
0.0
 32
0.0
 14
0.0
 24
0.0
 34
0.0
 15
0.0
 25
0.0
 35
0.0
146
0.0
 13
0.0
 23
0.0
 33
0.0
 16
1.0
 26
0.0
 36
0.0
 17
0.0
 27
1.0
 37
0.0
 76
0
330
210
345
0
346
0
  0
LAYOUT
  5
33D
102
{ACAD_REACTORS
330
1A
102
}
100
AcDbPlotSettings
  1

  2
none_device
  4

  6

 40
0.0
 41
0.0
 42
0.0
 43
0.0
 44
210.0
 45
297.0
 46
0.0
 47
0.0
 48
0.0
 49
0.0
140
0.0
141
0.0
142
1.0
143
1.0
 70
0
 72
1
 73
0
 74
0
  7

 75
0
147
1.0
148
0.0
149
0.0
100
AcDbLayout
  1
Layout1
 70
0
 71
1
 10
0.0
 20
0.0
 11
210.0
 21
297.0
 12
0.0
 22
0.0
 32
0.0
 14
0.0
 24
0.0
 34
0.0
 15
0.0
 25
0.0
 35
0.0
146
0.0
 13
0.0
 23
0.0
 33
0.0
 16
1.0
 26
0.0
 36
0.0
 17
0.0
 27
1.0
 37
0.0
 76
0
330
211
345
0
346
0
  0
ENDSEC
  0
EOF
