999
DXF file: C:\Users\sesa63760\OneDrive - Schneider Electric\Documents\7-Dev\_Creo\CAD\MCADPP0000259_3D-CAD\drw0001_2.dxf
999
Pro/ENGINEER 2019471 by Parametric Technology Corporation
  0
SECTION
  2
HEADER
  9
$ACADVER
  1
AC1024
  9
$DWGCODEPAGE
  3
ANSI_1252
  9
$EXTMAX
 10
175.8201404018
 20
248.659912854
 30
0.0
  9
$EXTMIN
 10
0.0
 20
0.0
 30
0.0
  9
$LIMMIN
 10
0.0
 20
0.0
  9
$LIMMAX
 10
175.8201404018
 20
248.659912854
  9
$VIEWCTR
 10
87.9100702009
 20
124.329956427
  9
$VIEWSIZE
 40
248.659912854
  9
$CLAYER
  8
0
  9
$LTSCALE
 40
16.2089424675
  9
$CELTYPE
  6
BYLAYER
  9
$DIMSCALE
 40
1.0
  9
$DIMASZ
 40
2.0930969095
  9
$DIMEXO
 40
1.0
  9
$DIMDLI
 40
11.1989057048
  9
$DIMEXE
 40
1.0
  9
$DIMCEN
 40
2.6523724038
  9
$DIMLFAC
 40
1.0
  9
$DIMBLK
  1
_FILLED
  9
$DIMALT
 70
0
  9
$DIMALTF
 40
0.0393700787
  9
$DIMTXT
 40
2.9303356734
  9
$DIMTOL
 70
1
  9
$DIMLIM
 70
0
  9
$DIMTFAC
 40
1.0
  9
$DIMTP
 40
0.01
  9
$DIMTM
 40
0.01
  9
$DIMGAP
 40
0.625
  9
$DIMDSEP
 70
46
  9
$AUNITS
 70
0
  9
$PDMODE
 70
3
  9
$PDSIZE
 40
0.3125
  9
$HANDSEED
  5
3D3
  9
$TILEMODE
 70
1
  9
$MEASUREMENT
 70
1
  9
$INSUNITS
 70
4
  0
ENDSEC
  0
SECTION
  2
CLASSES
  0
CLASS
  1
ACDBDICTIONARYWDFLT
  2
AcDbDictionaryWithDefault
  3
AutoCAD 2000
 90
0
 91
1
280
0
281
0
  0
CLASS
  1
ACDBPLACEHOLDER
  2
AcDbPlaceHolder
  3
AutoCAD 2000
 90
0
 91
1
280
0
281
0
  0
CLASS
  1
LAYOUT
  2
AcDbLayout
  3
AutoCAD 2000
 90
0
 91
0
280
0
281
0
  0
ENDSEC
  0
SECTION
  2
TABLES
  0
TABLE
  2
VPORT
  5
8
100
AcDbSymbolTable
 70
2
  0
VPORT
  5
1F4
100
AcDbSymbolTableRecord
100
AcDbViewportTableRecord
  2
*ACTIVE
 70
0
 10
0.0
 20
0.0
 11
1.0
 21
1.0
 12
87.9100702009
 22
124.329956427
 13
0.0
 23
0.0
 14
1.0
 24
1.0
 15
0.0
 25
0.0
 16
0.0
 26
0.0
 36
1.0
 17
0.0
 27
0.0
 37
0.0
 40
248.659912854
 41
0.7070707071
 42
50.0
 43
0.0
 44
0.0
 50
0.0
 51
0.0
 71
0
 72
100
 73
1
 74
1
 75
0
 76
0
 77
0
 78
0
  0
ENDTAB
  0
TABLE
  2
LTYPE
  5
5
100
AcDbSymbolTable
 70
6
  0
LTYPE
  5
14
100
AcDbSymbolTableRecord
100
AcDbLinetypeTableRecord
  2
BYBLOCK
 70
0
  3

 72
65
 73
0
 40
0.0
  0
LTYPE
  5
15
100
AcDbSymbolTableRecord
100
AcDbLinetypeTableRecord
  2
BYLAYER
 70
0
  3

 72
65
 73
0
 40
0.0
  0
LTYPE
  5
16
100
AcDbSymbolTableRecord
100
AcDbLinetypeTableRecord
  2
CONTINUOUS
 70
64
  3
Solid line
 72
65
 73
0
 40
0.0
  0
LTYPE
  5
1F5
100
AcDbSymbolTableRecord
100
AcDbLinetypeTableRecord
  2
CENTER
 70
64
  3
____ _ ____ _ ____ _ ____ _ ____ _ ____ _ ____
 72
65
 73
4
 40
0.6
 49
0.375
 74
0
 49
-0.075
 74
0
 49
0.075
 74
0
 49
-0.075
 74
0
  0
LTYPE
  5
1F6
100
AcDbSymbolTableRecord
100
AcDbLinetypeTableRecord
  2
HIDDEN
 70
64
  3
- - - - - - - - - - - - - - - - - - - -
 72
65
 73
2
 40
0.2
 49
0.1
 74
0
 49
-0.1
 74
0
  0
LTYPE
  5
1F7
100
AcDbSymbolTableRecord
100
AcDbLinetypeTableRecord
  2
PHANTOM
 70
64
  3
_____ _ _ _____ _ _ _____ _ _ _____
 72
65
 73
6
 40
0.8
 49
0.45
 74
0
 49
-0.05
 74
0
 49
0.1
 74
0
 49
-0.05
 74
0
 49
0.1
 74
0
 49
-0.05
 74
0
  0
LTYPE
  5
1F8
100
AcDbSymbolTableRecord
100
AcDbLinetypeTableRecord
  2
DOT
 70
64
  3
. . . . . . . . . . . . . . . . . . . .
 72
65
 73
2
 40
0.2
 49
0.1
 74
0
 49
-0.1
 74
0
  0
LTYPE
  5
1F9
100
AcDbSymbolTableRecord
100
AcDbLinetypeTableRecord
  2
DASHED
 70
64
  3
- - - - - - - - - - - - - - - - - - - -
 72
65
 73
2
 40
0.2
 49
0.1
 74
0
 49
-0.1
 74
0
  0
ENDTAB
  0
TABLE
  2
LAYER
  5
2
100
AcDbSymbolTable
 70
36
  0
LAYER
  5
10
100
AcDbSymbolTableRecord
100
AcDbLayerTableRecord
  2
0
 70
0
 62
7
  6
CONTINUOUS
370
-3
390
F
  0
LAYER
  5
1FA
100
AcDbSymbolTableRecord
100
AcDbLayerTableRecord
  2
DEFAULT_1
 70
0
 62
7
  6
CENTER
370
-3
390
F
  0
LAYER
  5
1FB
100
AcDbSymbolTableRecord
100
AcDbLayerTableRecord
  2
DEFAULT_2
 70
0
 62
8
  6
HIDDEN
370
-3
390
F
  0
LAYER
  5
1FC
100
AcDbSymbolTableRecord
100
AcDbLayerTableRecord
  2
DEFAULT_3
 70
0
 62
7
  6
PHANTOM
370
-3
390
F
  0
LAYER
  5
1FD
100
AcDbSymbolTableRecord
100
AcDbLayerTableRecord
  2
00_COMPONENTS
 70
0
 62
7
  6
CONTINUOUS
370
-3
390
F
  0
LAYER
  5
1FE
100
AcDbSymbolTableRecord
100
AcDbLayerTableRecord
  2
01_1_DEFAULT_DATUMS
 70
0
 62
7
  6
CONTINUOUS
370
-3
390
F
  0
LAYER
  5
1FF
100
AcDbSymbolTableRecord
100
AcDbLayerTableRecord
  2
01_PLANES
 70
0
 62
7
  6
CONTINUOUS
370
-3
390
F
  0
LAYER
  5
200
100
AcDbSymbolTableRecord
100
AcDbLayerTableRecord
  2
02_COORD_SYS
 70
0
 62
7
  6
CONTINUOUS
370
-3
390
F
  0
LAYER
  5
201
100
AcDbSymbolTableRecord
100
AcDbLayerTableRecord
  2
03_AXES
 70
0
 62
7
  6
CONTINUOUS
370
-3
390
F
  0
LAYER
  5
202
100
AcDbSymbolTableRecord
100
AcDbLayerTableRecord
  2
04_POINTS
 70
0
 62
7
  6
CONTINUOUS
370
-3
390
F
  0
LAYER
  5
203
100
AcDbSymbolTableRecord
100
AcDbLayerTableRecord
  2
05_CURVES
 70
0
 62
7
  6
CONTINUOUS
370
-3
390
F
  0
LAYER
  5
204
100
AcDbSymbolTableRecord
100
AcDbLayerTableRecord
  2
06_SURFS
 70
0
 62
7
  6
CONTINUOUS
370
-3
390
F
  0
LAYER
  5
205
100
AcDbSymbolTableRecord
100
AcDbLayerTableRecord
  2
07_COSMETICS
 70
0
 62
7
  6
CONTINUOUS
370
-3
390
F
  0
LAYER
  5
206
100
AcDbSymbolTableRecord
100
AcDbLayerTableRecord
  2
10_NOTES
 70
0
 62
7
  6
CONTINUOUS
370
-3
390
F
  0
LAYER
  5
207
100
AcDbSymbolTableRecord
100
AcDbLayerTableRecord
  2
11_NOTES_PUB
 70
0
 62
7
  6
CONTINUOUS
370
-3
390
F
  0
LAYER
  5
208
100
AcDbSymbolTableRecord
100
AcDbLayerTableRecord
  2
13_REF_GTOL
 70
0
 62
7
  6
CONTINUOUS
370
-3
390
F
  0
LAYER
  5
209
100
AcDbSymbolTableRecord
100
AcDbLayerTableRecord
  2
16_MISC
 70
0
 62
7
  6
CONTINUOUS
370
-3
390
F
  0
LAYER
  5
20A
100
AcDbSymbolTableRecord
100
AcDbLayerTableRecord
  2
17_NO_PRINT
 70
0
 62
7
  6
CONTINUOUS
370
-3
390
F
  0
LAYER
  5
20B
100
AcDbSymbolTableRecord
100
AcDbLayerTableRecord
  2
18_DATUM_CAMS_JOINTS
 70
0
 62
7
  6
CONTINUOUS
370
-3
390
F
  0
LAYER
  5
20C
100
AcDbSymbolTableRecord
100
AcDbLayerTableRecord
  2
19_DATUM_FUNCTIONAL
 70
0
 62
7
  6
CONTINUOUS
370
-3
390
F
  0
LAYER
  5
20D
100
AcDbSymbolTableRecord
100
AcDbLayerTableRecord
  2
20_DATUM_KINEMATIC_SCHEME
 70
0
 62
7
  6
CONTINUOUS
370
-3
390
F
  0
LAYER
  5
20E
100
AcDbSymbolTableRecord
100
AcDbLayerTableRecord
  2
INTFCLR_3
 70
0
 62
7
  6
CONTINUOUS
370
-3
390
F
  0
LAYER
  5
20F
100
AcDbSymbolTableRecord
100
AcDbLayerTableRecord
  2
black
 70
0
 62
7
  6
CONTINUOUS
370
-3
390
F
  0
ENDTAB
  0
TABLE
  2
STYLE
  5
3
100
AcDbSymbolTable
 70
1
  0
STYLE
  5
11
100
AcDbSymbolTableRecord
100
AcDbTextStyleTableRecord
  2
STANDARD
 70
0
 40
0.0
 41
0.8
 50
0.0
 71
0
 42
0.2
  3
txt
  4

  0
STYLE
  5
210
100
AcDbSymbolTableRecord
100
AcDbTextStyleTableRecord
  2
TEXTSTYLE_1
 70
0
 40
0.0
 41
0.8
 50
0.0
 71
0
 42
0.2
  3
gdt
  4

  0
ENDTAB
  0
TABLE
  2
VIEW
  5
6
100
AcDbSymbolTable
 70
0
  0
ENDTAB
  0
TABLE
  2
UCS
  5
7
100
AcDbSymbolTable
 70
0
  0
ENDTAB
  0
TABLE
  2
APPID
  5
9
100
AcDbSymbolTable
 70
1
  0
APPID
  5
211
100
AcDbSymbolTableRecord
100
AcDbRegAppTableRecord
  2
ACAD
 70
0
  0
ENDTAB
  0
TABLE
  2
BLOCK_RECORD
  5
1
100
AcDbSymbolTable
 70
0
  0
BLOCK_RECORD
  5
212
100
AcDbSymbolTableRecord
100
AcDbBlockTableRecord
  2
*Model_Space
  0
BLOCK_RECORD
  5
213
100
AcDbSymbolTableRecord
100
AcDbBlockTableRecord
  2
*Paper_Space
  0
BLOCK_RECORD
  5
214
100
AcDbSymbolTableRecord
100
AcDbBlockTableRecord
  2
_FILLED
  0
ENDTAB
  0
TABLE
  2
DIMSTYLE
  5
A
100
AcDbSymbolTable
 70
1
100
AcDbDimStyleTable
 71
0
  0
DIMSTYLE
105
215
100
AcDbSymbolTableRecord
100
AcDbDimStyleTableRecord
  2
STANDARD
 70
0
  3

  4

 40
1.0
 41
2.0930969095
 42
1.0
 43
0.38
 44
1.0
 45
0.0
 46
0.0
 47
0.01
 48
0.01
140
2.9303356734
141
0.09
142
0.0
143
25.4
144
1.0
145
0.0
146
1.0
147
0.625
 71
1
 72
0
 73
0
 74
0
 75
0
 76
0
 77
1
 78
8
 79
2
170
0
171
1
172
0
173
0
174
0
175
0
176
0
177
0
178
0
270
2
179
2
271
2
272
2
273
2
274
2
275
0
280
0
281
0
282
0
283
1
284
8
285
0
286
0
287
3
288
0
340
11
278
46
341
214
342
214
343
214
344
214
  0
ENDTAB
  0
ENDSEC
  0
SECTION
  2
BLOCKS
  0
BLOCK
  5
20
100
AcDbEntity
  8
0
100
AcDbBlockBegin
  2
*Model_Space
 70
0
 10
0.0
 20
0.0
 30
0.0
  3
*Model_Space
  1

  0
ENDBLK
  5
21
100
AcDbEntity
  8
0
100
AcDbBlockEnd
  0
BLOCK
  5
1C
100
AcDbEntity
  8
0
100
AcDbBlockBegin
  2
*Paper_Space
 70
0
 10
0.0
 20
0.0
 30
0.0
  3
*Paper_Space
  1

  0
ENDBLK
  5
1D
100
AcDbEntity
  8
0
100
AcDbBlockEnd
  0
BLOCK
  5
216
100
AcDbEntity
  8
0
100
AcDbBlockBegin
  2
_FILLED
 70
64
 10
0.0
 20
0.0
  3
_FILLED
  1

  0
SOLID
  5
217
100
AcDbEntity
  8
0
  6
BYBLOCK
 62
0
100
AcDbTrace
 10
0.0
 20
0.0
 11
-1.0
 21
0.25
 12
-1.0
 22
-0.25
 13
-1.0
 23
-0.25
  0
ENDBLK
  5
218
100
AcDbEntity
  8
0
  6
BYBLOCK
 62
0
100
AcDbBlockEnd
  0
ENDSEC
  0
SECTION
  2
ENTITIES
  0
LINE
  5
219
100
AcDbEntity
  8
INTFCLR_3
100
AcDbLine
 62
7
  6
CONTINUOUS
 10
19.2774993948
 20
155.6234204793
 11
19.2774993948
 21
106.6690048916
  0
LINE
  5
21A
100
AcDbEntity
  8
INTFCLR_3
100
AcDbLine
 62
7
  6
CONTINUOUS
 10
19.2774993948
 20
101.577836067
 11
19.2774993948
 21
89.1234204793
  0
LINE
  5
21B
100
AcDbEntity
  8
INTFCLR_3
100
AcDbLine
 62
7
  6
CONTINUOUS
 10
19.3774993948
 20
154.1234204793
 11
19.3774993948
 21
110.1234204793
  0
LINE
  5
21C
100
AcDbEntity
  8
INTFCLR_3
100
AcDbLine
 62
7
  6
CONTINUOUS
 10
20.0774993948
 20
154.1234204793
 11
20.0774993948
 21
110.1234204793
  0
LINE
  5
21D
100
AcDbEntity
  8
INTFCLR_3
100
AcDbLine
 62
7
  6
CONTINUOUS
 10
20.4774993948
 20
155.6234204793
 11
20.4774993948
 21
153.4234204793
  0
LINE
  5
21E
100
AcDbEntity
  8
INTFCLR_3
100
AcDbLine
 62
7
  6
CONTINUOUS
 10
21.3774993948
 20
155.6234204793
 11
21.3774993948
 21
120.8234204793
  0
LINE
  5
21F
100
AcDbEntity
  8
INTFCLR_3
100
AcDbLine
 62
7
  6
CONTINUOUS
 10
21.5274993948
 20
89.1234204793
 11
21.5274993948
 21
76.6234204793
  0
LINE
  5
220
100
AcDbEntity
  8
INTFCLR_3
100
AcDbLine
 62
7
  6
CONTINUOUS
 10
21.8774993948
 20
153.0734204793
 11
21.8774993948
 21
114.1234204793
  0
LINE
  5
221
100
AcDbEntity
  8
INTFCLR_3
100
AcDbLine
 62
7
  6
CONTINUOUS
 10
21.9774993948
 20
108.6234204793
 11
21.9774993948
 21
99.6234204793
  0
LINE
  5
222
100
AcDbEntity
  8
INTFCLR_3
100
AcDbLine
 62
7
  6
CONTINUOUS
 10
22.0774993948
 20
154.1234204793
 11
22.0774993948
 21
110.1234204793
  0
LINE
  5
223
100
AcDbEntity
  8
INTFCLR_3
100
AcDbLine
 62
7
  6
CONTINUOUS
 10
22.1274993948
 20
99.6234204793
 11
22.1274993948
 21
97.5234204793
  0
LINE
  5
224
100
AcDbEntity
  8
INTFCLR_3
100
AcDbLine
 62
7
  6
CONTINUOUS
 10
22.8774993948
 20
108.6234204793
 11
22.8774993948
 21
99.6234204793
  0
LINE
  5
225
100
AcDbEntity
  8
INTFCLR_3
100
AcDbLine
 62
7
  6
CONTINUOUS
 10
23.6774993948
 20
120.0734204793
 11
23.6774993948
 21
116.7734204793
  0
LINE
  5
226
100
AcDbEntity
  8
INTFCLR_3
100
AcDbLine
 62
7
  6
CONTINUOUS
 10
23.8774993948
 20
153.4734204793
 11
23.8774993948
 21
105.7134204793
  0
LINE
  5
227
100
AcDbEntity
  8
INTFCLR_3
100
AcDbLine
 62
7
  6
CONTINUOUS
 10
24.1274993948
 20
108.6234204793
 11
24.1274993948
 21
97.5234204793
  0
LINE
  5
228
100
AcDbEntity
  8
INTFCLR_3
100
AcDbLine
 62
7
  6
CONTINUOUS
 10
25.1774993948
 20
120.0734204793
 11
25.1774993948
 21
116.7734204793
  0
LINE
  5
229
100
AcDbEntity
  8
INTFCLR_3
100
AcDbLine
 62
7
  6
CONTINUOUS
 10
25.4024993948
 20
137.903302401
 11
25.4024993948
 21
109.733302401
  0
LINE
  5
22A
100
AcDbEntity
  8
INTFCLR_3
100
AcDbLine
 62
7
  6
CONTINUOUS
 10
27.8774993948
 20
152.6477959082
 11
27.8774993948
 21
146.3234204793
  0
LINE
  5
22B
100
AcDbEntity
  8
INTFCLR_3
100
AcDbLine
 62
7
  6
CONTINUOUS
 10
27.9274993948
 20
104.1234204793
 11
27.9274993948
 21
76.6234204793
  0
LINE
  5
22C
100
AcDbEntity
  8
INTFCLR_3
100
AcDbLine
 62
7
  6
CONTINUOUS
 10
26.3851376272
 20
146.3234204793
 11
23.8774993948
 21
141.9800636538
  0
LINE
  5
22D
100
AcDbEntity
  8
INTFCLR_3
100
AcDbLine
 62
7
  6
CONTINUOUS
 10
31.3024993948
 20
148.123302401
 11
25.4024993948
 21
137.903302401
  0
LINE
  5
22E
100
AcDbEntity
  8
INTFCLR_3
100
AcDbLine
 62
7
  6
CONTINUOUS
 10
29.1274993948
 20
130.0261737257
 11
29.1274993948
 21
106.4814433361
  0
LINE
  5
22F
100
AcDbEntity
  8
INTFCLR_3
100
AcDbLine
 62
7
  6
CONTINUOUS
 10
29.5024993948
 20
152.6425593887
 11
29.5024993948
 21
149.1234204793
  0
LINE
  5
230
100
AcDbEntity
  8
INTFCLR_3
100
AcDbLine
 62
7
  6
CONTINUOUS
 10
31.1274993948
 20
91.1234204793
 11
31.1274993948
 21
76.6234204793
  0
LINE
  5
231
100
AcDbEntity
  8
INTFCLR_3
100
AcDbLine
 62
7
  6
CONTINUOUS
 10
31.3024993948
 20
149.1234204793
 11
31.3024993948
 21
148.123302401
  0
LINE
  5
232
100
AcDbEntity
  8
INTFCLR_3
100
AcDbLine
 62
7
  6
CONTINUOUS
 10
32.3774993948
 20
153.4420013624
 11
32.3774993948
 21
130.0261737257
  0
LINE
  5
233
100
AcDbEntity
  8
INTFCLR_3
100
AcDbLine
 62
7
  6
CONTINUOUS
 10
32.6374993948
 20
118.6734204793
 11
32.6374993948
 21
109.9034204793
  0
LINE
  5
234
100
AcDbEntity
  8
INTFCLR_3
100
AcDbLine
 62
7
  6
CONTINUOUS
 10
35.3074993948
 20
114.8534204793
 11
35.3074993948
 21
109.9034204793
  0
LINE
  5
235
100
AcDbEntity
  8
INTFCLR_3
100
AcDbLine
 62
7
  6
CONTINUOUS
 10
41.6274993948
 20
115.5861737257
 11
41.6274993948
 21
106.5861737257
  0
LINE
  5
236
100
AcDbEntity
  8
INTFCLR_3
100
AcDbLine
 62
7
  6
CONTINUOUS
 10
42.7965913235
 20
134.9124395735
 11
32.6374993948
 21
118.6734204793
  0
LINE
  5
237
100
AcDbEntity
  8
INTFCLR_3
100
AcDbLine
 62
7
  6
CONTINUOUS
 10
156.7274993948
 20
76.6234204793
 11
147.1274993948
 21
76.6234204793
  0
LINE
  5
238
100
AcDbEntity
  8
INTFCLR_3
100
AcDbLine
 62
7
  6
CONTINUOUS
 10
121.1274993948
 20
76.6234204793
 11
113.0524993948
 21
76.6234204793
  0
LINE
  5
239
100
AcDbEntity
  8
INTFCLR_3
100
AcDbLine
 62
7
  6
CONTINUOUS
 10
110.2024993948
 20
76.6234204793
 11
102.1274993948
 21
76.6234204793
  0
LINE
  5
23A
100
AcDbEntity
  8
INTFCLR_3
100
AcDbLine
 62
7
  6
CONTINUOUS
 10
76.1274993948
 20
76.6234204793
 11
68.0524993948
 21
76.6234204793
  0
LINE
  5
23B
100
AcDbEntity
  8
INTFCLR_3
100
AcDbLine
 62
7
  6
CONTINUOUS
 10
65.2024993948
 20
76.6234204793
 11
57.1274993948
 21
76.6234204793
  0
LINE
  5
23C
100
AcDbEntity
  8
INTFCLR_3
100
AcDbLine
 62
7
  6
CONTINUOUS
 10
31.1274993948
 20
76.6234204793
 11
21.5274993948
 21
76.6234204793
  0
LINE
  5
23D
100
AcDbEntity
  8
INTFCLR_3
100
AcDbLine
 62
7
  6
CONTINUOUS
 10
46.6274993948
 20
115.5861737257
 11
46.6274993948
 21
106.5861737257
  0
LINE
  5
23E
100
AcDbEntity
  8
INTFCLR_3
100
AcDbLine
 62
7
  6
CONTINUOUS
 10
44.1224993948
 20
131.9975801929
 11
36.928029276
 21
120.4974246228
  0
LINE
  5
23F
100
AcDbEntity
  8
INTFCLR_3
100
AcDbLine
 62
7
  6
CONTINUOUS
 10
52.9374993948
 20
114.8534204793
 11
52.9374993948
 21
109.9034204793
  0
LINE
  5
240
100
AcDbEntity
  8
INTFCLR_3
100
AcDbLine
 62
7
  6
CONTINUOUS
 10
55.6074993948
 20
118.6734204793
 11
55.6074993948
 21
109.9034204793
  0
LINE
  5
241
100
AcDbEntity
  8
INTFCLR_3
100
AcDbLine
 62
7
  6
CONTINUOUS
 10
55.8774993948
 20
153.4420013624
 11
55.8774993948
 21
130.0261737257
  0
LINE
  5
242
100
AcDbEntity
  8
INTFCLR_3
100
AcDbLine
 62
7
  6
CONTINUOUS
 10
70.5574993948
 20
153.4734204793
 11
69.3865309079
 21
152.4334204793
  0
LINE
  5
243
100
AcDbEntity
  8
INTFCLR_3
100
AcDbLine
 62
7
  6
CONTINUOUS
 10
69.3865309079
 20
152.4334204793
 11
67.9721921273
 21
151.8034204793
  0
LINE
  5
244
100
AcDbEntity
  8
INTFCLR_3
100
AcDbLine
 62
7
  6
CONTINUOUS
 10
158.9774993948
 20
89.1234204793
 11
156.7274993948
 21
89.1234204793
  0
LINE
  5
245
100
AcDbEntity
  8
INTFCLR_3
100
AcDbLine
 62
7
  6
CONTINUOUS
 10
21.5274993948
 20
89.1234204793
 11
19.2774993948
 21
89.1234204793
  0
LINE
  5
246
100
AcDbEntity
  8
INTFCLR_3
100
AcDbLine
 62
7
  6
CONTINUOUS
 10
44.1224993948
 20
131.9975801929
 11
51.3169695136
 21
120.4974246228
  0
LINE
  5
247
100
AcDbEntity
  8
INTFCLR_3
100
AcDbLine
 62
7
  6
CONTINUOUS
 10
56.9524993948
 20
149.1234204793
 11
56.9524993948
 21
148.123302401
  0
LINE
  5
248
100
AcDbEntity
  8
INTFCLR_3
100
AcDbLine
 62
7
  6
CONTINUOUS
 10
57.1274993948
 20
91.1234204793
 11
57.1274993948
 21
76.6234204793
  0
LINE
  5
249
100
AcDbEntity
  8
INTFCLR_3
100
AcDbLine
 62
7
  6
CONTINUOUS
 10
58.7524993948
 20
152.6425593887
 11
58.7524993948
 21
149.1234204793
  0
LINE
  5
24A
100
AcDbEntity
  8
INTFCLR_3
100
AcDbLine
 62
7
  6
CONTINUOUS
 10
59.1274993948
 20
130.0261737257
 11
59.1274993948
 21
106.4814433361
  0
LINE
  5
24B
100
AcDbEntity
  8
INTFCLR_3
100
AcDbLine
 62
7
  6
CONTINUOUS
 10
60.3274993948
 20
104.1234204793
 11
60.3274993948
 21
76.6234204793
  0
LINE
  5
24C
100
AcDbEntity
  8
INTFCLR_3
100
AcDbLine
 62
7
  6
CONTINUOUS
 10
60.3774993948
 20
152.6477959082
 11
60.3774993948
 21
146.3234204793
  0
LINE
  5
24D
100
AcDbEntity
  8
INTFCLR_3
100
AcDbLine
 62
7
  6
CONTINUOUS
 10
61.6274993948
 20
109.1234204793
 11
61.6274993948
 21
104.1234204793
  0
LINE
  5
24E
100
AcDbEntity
  8
INTFCLR_3
100
AcDbLine
 62
7
  6
CONTINUOUS
 10
45.4484074661
 20
134.9124395735
 11
55.6074993948
 21
118.6734204793
  0
LINE
  5
24F
100
AcDbEntity
  8
INTFCLR_3
100
AcDbLine
 62
7
  6
CONTINUOUS
 10
62.7274993948
 20
153.1365377262
 11
62.7274993948
 21
146.3234204793
  0
LINE
  5
250
100
AcDbEntity
  8
INTFCLR_3
100
AcDbLine
 62
7
  6
CONTINUOUS
 10
62.8489176479
 20
109.7333034237
 11
62.8489176479
 21
137.9095067152
  0
LINE
  5
251
100
AcDbEntity
  8
INTFCLR_3
100
AcDbLine
 62
7
  6
CONTINUOUS
 10
64.5274993948
 20
141.723302401
 11
64.5274993948
 21
109.853742349
  0
LINE
  5
252
100
AcDbEntity
  8
INTFCLR_3
100
AcDbLine
 62
7
  6
CONTINUOUS
 10
65.2024993948
 20
84.5087396523
 11
65.2024993948
 21
76.6234204793
  0
LINE
  5
253
100
AcDbEntity
  8
INTFCLR_3
100
AcDbLine
 62
7
  6
CONTINUOUS
 10
65.4274993948
 20
171.1234204793
 11
65.4274993948
 21
166.1234204793
  0
LINE
  5
254
100
AcDbEntity
  8
INTFCLR_3
100
AcDbLine
 62
7
  6
CONTINUOUS
 10
65.6654320074
 20
149.7234204793
 11
65.6654320074
 21
146.3234204793
  0
LINE
  5
255
100
AcDbEntity
  8
INTFCLR_3
100
AcDbLine
 62
7
  6
CONTINUOUS
 10
67.9721921273
 20
151.8034204793
 11
67.6054320074
 21
149.7234204793
  0
LINE
  5
256
100
AcDbEntity
  8
INTFCLR_3
100
AcDbLine
 62
7
  6
CONTINUOUS
 10
71.3833788056
 20
146.3234204793
 11
68.7274993948
 21
141.723302401
  0
LINE
  5
257
100
AcDbEntity
  8
INTFCLR_3
100
AcDbLine
 62
7
  6
CONTINUOUS
 10
76.3024993948
 20
148.123302401
 11
70.4024993948
 21
137.903302401
  0
LINE
  5
258
100
AcDbEntity
  8
INTFCLR_3
100
AcDbLine
 62
7
  6
CONTINUOUS
 10
156.1274993948
 20
97.5234204793
 11
154.1274993948
 21
97.5234204793
  0
LINE
  5
259
100
AcDbEntity
  8
INTFCLR_3
100
AcDbLine
 62
7
  6
CONTINUOUS
 10
24.1274993948
 20
97.5234204793
 11
22.1274993948
 21
97.5234204793
  0
LINE
  5
25A
100
AcDbEntity
  8
INTFCLR_3
100
AcDbLine
 62
7
  6
CONTINUOUS
 10
158.9774993948
 20
99.6234204793
 11
154.1274993948
 21
99.6234204793
  0
LINE
  5
25B
100
AcDbEntity
  8
INTFCLR_3
100
AcDbLine
 62
7
  6
CONTINUOUS
 10
24.1274993948
 20
99.6234204793
 11
19.2774993948
 21
99.6234204793
  0
LINE
  5
25C
100
AcDbEntity
  8
INTFCLR_3
100
AcDbLine
 62
7
  6
CONTINUOUS
 10
70.4052837392
 20
109.7408314521
 11
73.1324993948
 21
105.7134204793
  0
LINE
  5
25D
100
AcDbEntity
  8
INTFCLR_3
100
AcDbLine
 62
7
  6
CONTINUOUS
 10
67.6054320074
 20
149.7234204793
 11
67.6054320074
 21
146.3234204793
  0
LINE
  5
25E
100
AcDbEntity
  8
INTFCLR_3
100
AcDbLine
 62
7
  6
CONTINUOUS
 10
68.0524993948
 20
84.5087396523
 11
68.0524993948
 21
76.6234204793
  0
LINE
  5
25F
100
AcDbEntity
  8
INTFCLR_3
100
AcDbLine
 62
7
  6
CONTINUOUS
 10
68.7274993948
 20
141.723302401
 11
68.7274993948
 21
109.853742349
  0
LINE
  5
260
100
AcDbEntity
  8
INTFCLR_3
100
AcDbLine
 62
7
  6
CONTINUOUS
 10
70.4024993948
 20
109.7367221634
 11
70.4024993948
 21
137.903302401
  0
LINE
  5
261
100
AcDbEntity
  8
INTFCLR_3
100
AcDbLine
 62
7
  6
CONTINUOUS
 10
70.5274993948
 20
153.1365377262
 11
70.5274993948
 21
146.3234204793
  0
LINE
  5
262
100
AcDbEntity
  8
INTFCLR_3
100
AcDbLine
 62
7
  6
CONTINUOUS
 10
71.6274993948
 20
109.1234204793
 11
71.6274993948
 21
104.1234204793
  0
LINE
  5
263
100
AcDbEntity
  8
INTFCLR_3
100
AcDbLine
 62
7
  6
CONTINUOUS
 10
72.8274993948
 20
104.1234204793
 11
72.8274993948
 21
76.6234204793
  0
LINE
  5
264
100
AcDbEntity
  8
INTFCLR_3
100
AcDbLine
 62
7
  6
CONTINUOUS
 10
72.8774993948
 20
152.6477959082
 11
72.8774993948
 21
146.3234204793
  0
LINE
  5
265
100
AcDbEntity
  8
INTFCLR_3
100
AcDbLine
 62
7
  6
CONTINUOUS
 10
114.2395713663
 20
152.3434204793
 11
112.9553797554
 21
151.7980489438
  0
LINE
  5
266
100
AcDbEntity
  8
INTFCLR_3
100
AcDbLine
 62
7
  6
CONTINUOUS
 10
154.1274993948
 20
104.1234204793
 11
116.6274993948
 21
104.1234204793
  0
LINE
  5
267
100
AcDbEntity
  8
INTFCLR_3
100
AcDbLine
 62
7
  6
CONTINUOUS
 10
106.6274993948
 20
104.1234204793
 11
71.6274993948
 21
104.1234204793
  0
LINE
  5
268
100
AcDbEntity
  8
INTFCLR_3
100
AcDbLine
 62
7
  6
CONTINUOUS
 10
61.6274993948
 20
104.1234204793
 11
24.1274993948
 21
104.1234204793
  0
LINE
  5
269
100
AcDbEntity
  8
INTFCLR_3
100
AcDbLine
 62
7
  6
CONTINUOUS
 10
154.3774993948
 20
105.7134204793
 11
118.1324993948
 21
105.7134204793
  0
LINE
  5
26A
100
AcDbEntity
  8
INTFCLR_3
100
AcDbLine
 62
7
  6
CONTINUOUS
 10
105.1224993948
 20
105.7134204793
 11
73.1324993948
 21
105.7134204793
  0
LINE
  5
26B
100
AcDbEntity
  8
INTFCLR_3
100
AcDbLine
 62
7
  6
CONTINUOUS
 10
60.1224993948
 20
105.7134204793
 11
23.8774993948
 21
105.7134204793
  0
LINE
  5
26C
100
AcDbEntity
  8
INTFCLR_3
100
AcDbLine
 62
7
  6
CONTINUOUS
 10
29.1274993948
 20
106.4814433361
 11
59.1274993948
 21
106.4814433361
  0
LINE
  5
26D
100
AcDbEntity
  8
INTFCLR_3
100
AcDbLine
 62
7
  6
CONTINUOUS
 10
74.1274993948
 20
106.4814433361
 11
104.1274993948
 21
106.4814433361
  0
LINE
  5
26E
100
AcDbEntity
  8
INTFCLR_3
100
AcDbLine
 62
7
  6
CONTINUOUS
 10
119.1274993948
 20
106.4814433361
 11
149.1274993948
 21
106.4814433361
  0
LINE
  5
26F
100
AcDbEntity
  8
INTFCLR_3
100
AcDbLine
 62
7
  6
CONTINUOUS
 10
149.1274993948
 20
106.5861737257
 11
136.6274993948
 21
106.5861737257
  0
LINE
  5
270
100
AcDbEntity
  8
INTFCLR_3
100
AcDbLine
 62
7
  6
CONTINUOUS
 10
131.6274993948
 20
106.5861737257
 11
119.1274993948
 21
106.5861737257
  0
LINE
  5
271
100
AcDbEntity
  8
INTFCLR_3
100
AcDbLine
 62
7
  6
CONTINUOUS
 10
104.1274993948
 20
106.5861737257
 11
91.6274993948
 21
106.5861737257
  0
LINE
  5
272
100
AcDbEntity
  8
INTFCLR_3
100
AcDbLine
 62
7
  6
CONTINUOUS
 10
86.6274993948
 20
106.5861737257
 11
74.1274993948
 21
106.5861737257
  0
LINE
  5
273
100
AcDbEntity
  8
INTFCLR_3
100
AcDbLine
 62
7
  6
CONTINUOUS
 10
59.1274993948
 20
106.5861737257
 11
46.6274993948
 21
106.5861737257
  0
LINE
  5
274
100
AcDbEntity
  8
INTFCLR_3
100
AcDbLine
 62
7
  6
CONTINUOUS
 10
41.6274993948
 20
106.5861737257
 11
29.1274993948
 21
106.5861737257
  0
LINE
  5
275
100
AcDbEntity
  8
INTFCLR_3
100
AcDbLine
 62
7
  6
CONTINUOUS
 10
154.3774993948
 20
106.633302401
 11
136.6274993948
 21
106.633302401
  0
LINE
  5
276
100
AcDbEntity
  8
INTFCLR_3
100
AcDbLine
 62
7
  6
CONTINUOUS
 10
131.6274993948
 20
106.633302401
 11
117.5115726711
 21
106.633302401
  0
LINE
  5
277
100
AcDbEntity
  8
INTFCLR_3
100
AcDbLine
 62
7
  6
CONTINUOUS
 10
105.7441362419
 20
106.633302401
 11
91.6274993948
 21
106.633302401
  0
LINE
  5
278
100
AcDbEntity
  8
INTFCLR_3
100
AcDbLine
 62
7
  6
CONTINUOUS
 10
86.6274993948
 20
106.633302401
 11
72.5108625477
 21
106.633302401
  0
LINE
  5
279
100
AcDbEntity
  8
INTFCLR_3
100
AcDbLine
 62
7
  6
CONTINUOUS
 10
60.7434261185
 20
106.633302401
 11
46.6274993948
 21
106.633302401
  0
LINE
  5
27A
100
AcDbEntity
  8
INTFCLR_3
100
AcDbLine
 62
7
  6
CONTINUOUS
 10
41.6274993948
 20
106.633302401
 11
23.8774993948
 21
106.633302401
  0
LINE
  5
27B
100
AcDbEntity
  8
INTFCLR_3
100
AcDbLine
 62
7
  6
CONTINUOUS
 10
65.2996190342
 20
151.7980489438
 11
65.6654320074
 21
149.7234204793
  0
LINE
  5
27C
100
AcDbEntity
  8
INTFCLR_3
100
AcDbLine
 62
7
  6
CONTINUOUS
 10
74.1274993948
 20
130.0261737257
 11
74.1274993948
 21
106.4814433361
  0
LINE
  5
27D
100
AcDbEntity
  8
INTFCLR_3
100
AcDbLine
 62
7
  6
CONTINUOUS
 10
74.5024993948
 20
152.6425593887
 11
74.5024993948
 21
149.1234204793
  0
LINE
  5
27E
100
AcDbEntity
  8
INTFCLR_3
100
AcDbLine
 62
7
  6
CONTINUOUS
 10
75.4274993948
 20
171.1234204793
 11
75.4274993948
 21
155.6234204793
  0
LINE
  5
27F
100
AcDbEntity
  8
INTFCLR_3
100
AcDbLine
 62
7
  6
CONTINUOUS
 10
76.1274993948
 20
91.1234204793
 11
76.1274993948
 21
76.6234204793
  0
LINE
  5
280
100
AcDbEntity
  8
INTFCLR_3
100
AcDbLine
 62
7
  6
CONTINUOUS
 10
76.3024993948
 20
149.1234204793
 11
76.3024993948
 21
148.123302401
  0
LINE
  5
281
100
AcDbEntity
  8
INTFCLR_3
100
AcDbLine
 62
7
  6
CONTINUOUS
 10
77.3774993948
 20
153.4420013624
 11
77.3774993948
 21
130.0261737257
  0
LINE
  5
282
100
AcDbEntity
  8
INTFCLR_3
100
AcDbLine
 62
7
  6
CONTINUOUS
 10
77.6474993948
 20
118.6734204793
 11
77.6474993948
 21
109.9034204793
  0
LINE
  5
283
100
AcDbEntity
  8
INTFCLR_3
100
AcDbLine
 62
7
  6
CONTINUOUS
 10
62.8489176479
 20
109.7418862694
 11
60.1224993948
 21
105.7134204793
  0
LINE
  5
284
100
AcDbEntity
  8
INTFCLR_3
100
AcDbLine
 62
7
  6
CONTINUOUS
 10
158.9774993948
 20
108.6234204793
 11
154.1274993948
 21
108.6234204793
  0
LINE
  5
285
100
AcDbEntity
  8
INTFCLR_3
100
AcDbLine
 62
7
  6
CONTINUOUS
 10
24.1274993948
 20
108.6234204793
 11
19.2774993948
 21
108.6234204793
  0
LINE
  5
286
100
AcDbEntity
  8
INTFCLR_3
100
AcDbLine
 62
7
  6
CONTINUOUS
 10
116.6274993948
 20
109.1234204793
 11
106.6274993948
 21
109.1234204793
  0
LINE
  5
287
100
AcDbEntity
  8
INTFCLR_3
100
AcDbLine
 62
7
  6
CONTINUOUS
 10
71.6274993948
 20
109.1234204793
 11
61.6274993948
 21
109.1234204793
  0
LINE
  5
288
100
AcDbEntity
  8
INTFCLR_3
100
AcDbLine
 62
7
  6
CONTINUOUS
 10
154.3774993948
 20
109.733302401
 11
152.8524993948
 21
109.733302401
  0
LINE
  5
289
100
AcDbEntity
  8
INTFCLR_3
100
AcDbLine
 62
7
  6
CONTINUOUS
 10
115.4190510136
 20
109.733302401
 11
107.8390510136
 21
109.733302401
  0
LINE
  5
28A
100
AcDbEntity
  8
INTFCLR_3
100
AcDbLine
 62
7
  6
CONTINUOUS
 10
70.415947776
 20
109.733302401
 11
62.835947776
 21
109.733302401
  0
LINE
  5
28B
100
AcDbEntity
  8
INTFCLR_3
100
AcDbLine
 62
7
  6
CONTINUOUS
 10
25.4024993948
 20
109.733302401
 11
23.8774993948
 21
109.733302401
  0
LINE
  5
28C
100
AcDbEntity
  8
INTFCLR_3
100
AcDbLine
 62
7
  6
CONTINUOUS
 10
113.7274993948
 20
109.853742349
 11
109.5274993948
 21
109.853742349
  0
LINE
  5
28D
100
AcDbEntity
  8
INTFCLR_3
100
AcDbLine
 62
7
  6
CONTINUOUS
 10
68.7274993948
 20
109.853742349
 11
64.5274993948
 21
109.853742349
  0
LINE
  5
28E
100
AcDbEntity
  8
INTFCLR_3
100
AcDbLine
 62
7
  6
CONTINUOUS
 10
145.6274993948
 20
109.9034204793
 11
142.9574993948
 21
109.9034204793
  0
LINE
  5
28F
100
AcDbEntity
  8
INTFCLR_3
100
AcDbLine
 62
7
  6
CONTINUOUS
 10
125.3274993948
 20
109.9034204793
 11
122.6574993948
 21
109.9034204793
  0
LINE
  5
290
100
AcDbEntity
  8
INTFCLR_3
100
AcDbLine
 62
7
  6
CONTINUOUS
 10
100.6174993948
 20
109.9034204793
 11
97.9474993948
 21
109.9034204793
  0
LINE
  5
291
100
AcDbEntity
  8
INTFCLR_3
100
AcDbLine
 62
7
  6
CONTINUOUS
 10
80.3174993948
 20
109.9034204793
 11
77.6474993948
 21
109.9034204793
  0
LINE
  5
292
100
AcDbEntity
  8
INTFCLR_3
100
AcDbLine
 62
7
  6
CONTINUOUS
 10
55.6074993948
 20
109.9034204793
 11
52.9374993948
 21
109.9034204793
  0
LINE
  5
293
100
AcDbEntity
  8
INTFCLR_3
100
AcDbLine
 62
7
  6
CONTINUOUS
 10
35.3074993948
 20
109.9034204793
 11
32.6374993948
 21
109.9034204793
  0
LINE
  5
294
100
AcDbEntity
  8
INTFCLR_3
100
AcDbLine
 62
7
  6
CONTINUOUS
 10
154.3774993948
 20
109.9584727386
 11
152.8524993948
 21
109.9584727386
  0
LINE
  5
295
100
AcDbEntity
  8
INTFCLR_3
100
AcDbLine
 62
7
  6
CONTINUOUS
 10
115.4024993948
 20
109.9584727386
 11
113.7274993948
 21
109.9584727386
  0
LINE
  5
296
100
AcDbEntity
  8
INTFCLR_3
100
AcDbLine
 62
7
  6
CONTINUOUS
 10
109.5274993948
 20
109.9584727386
 11
107.8524993948
 21
109.9584727386
  0
LINE
  5
297
100
AcDbEntity
  8
INTFCLR_3
100
AcDbLine
 62
7
  6
CONTINUOUS
 10
70.4024993948
 20
109.9584727386
 11
68.7274993948
 21
109.9584727386
  0
LINE
  5
298
100
AcDbEntity
  8
INTFCLR_3
100
AcDbLine
 62
7
  6
CONTINUOUS
 10
64.5274993948
 20
109.9584727386
 11
62.8524993948
 21
109.9584727386
  0
LINE
  5
299
100
AcDbEntity
  8
INTFCLR_3
100
AcDbLine
 62
7
  6
CONTINUOUS
 10
25.4024993948
 20
109.9584727386
 11
23.8774993948
 21
109.9584727386
  0
LINE
  5
29A
100
AcDbEntity
  8
INTFCLR_3
100
AcDbLine
 62
7
  6
CONTINUOUS
 10
158.9774993948
 20
110.1234204793
 11
156.1774993948
 21
110.1234204793
  0
LINE
  5
29B
100
AcDbEntity
  8
INTFCLR_3
100
AcDbLine
 62
7
  6
CONTINUOUS
 10
22.0774993948
 20
110.1234204793
 11
19.2774993948
 21
110.1234204793
  0
LINE
  5
29C
100
AcDbEntity
  8
INTFCLR_3
100
AcDbLine
 62
7
  6
CONTINUOUS
 10
56.9524993948
 20
148.123302401
 11
62.8524993948
 21
137.903302401
  0
LINE
  5
29D
100
AcDbEntity
  8
INTFCLR_3
100
AcDbLine
 62
7
  6
CONTINUOUS
 10
61.8733788056
 20
146.3234204793
 11
64.5274993948
 21
141.723302401
  0
LINE
  5
29E
100
AcDbEntity
  8
INTFCLR_3
100
AcDbLine
 62
7
  6
CONTINUOUS
 10
80.3174993948
 20
114.8534204793
 11
80.3174993948
 21
109.9034204793
  0
LINE
  5
29F
100
AcDbEntity
  8
INTFCLR_3
100
AcDbLine
 62
7
  6
CONTINUOUS
 10
81.1274993948
 20
153.4234204793
 11
81.1274993948
 21
149.3234204793
  0
LINE
  5
2A0
100
AcDbEntity
  8
INTFCLR_3
100
AcDbLine
 62
7
  6
CONTINUOUS
 10
82.2274993948
 20
171.1234204793
 11
82.2274993948
 21
155.6234204793
  0
LINE
  5
2A1
100
AcDbEntity
  8
INTFCLR_3
100
AcDbLine
 62
7
  6
CONTINUOUS
 10
82.7274993948
 20
153.4234204793
 11
82.7274993948
 21
149.3234204793
  0
LINE
  5
2A2
100
AcDbEntity
  8
INTFCLR_3
100
AcDbLine
 62
7
  6
CONTINUOUS
 10
83.1274993948
 20
171.1234204793
 11
83.1274993948
 21
166.1234204793
  0
LINE
  5
2A3
100
AcDbEntity
  8
INTFCLR_3
100
AcDbLine
 62
7
  6
CONTINUOUS
 10
87.8065913235
 20
134.9124395735
 11
77.6474993948
 21
118.6734204793
  0
LINE
  5
2A4
100
AcDbEntity
  8
INTFCLR_3
100
AcDbLine
 62
7
  6
CONTINUOUS
 10
115.5574993948
 20
153.4734204793
 11
114.2395713663
 21
152.3434204793
  0
LINE
  5
2A5
100
AcDbEntity
  8
INTFCLR_3
100
AcDbLine
 62
7
  6
CONTINUOUS
 10
158.9774993948
 20
114.1234204793
 11
19.2774993948
 21
114.1234204793
  0
LINE
  5
2A6
100
AcDbEntity
  8
INTFCLR_3
100
AcDbLine
 62
7
  6
CONTINUOUS
 10
156.3774993948
 20
114.6234204793
 11
21.8774993948
 21
114.6234204793
  0
LINE
  5
2A7
100
AcDbEntity
  8
INTFCLR_3
100
AcDbLine
 62
7
  6
CONTINUOUS
 10
158.9774993948
 20
114.7484665526
 11
156.3774993948
 21
114.7484665526
  0
LINE
  5
2A8
100
AcDbEntity
  8
INTFCLR_3
100
AcDbLine
 62
7
  6
CONTINUOUS
 10
21.8774993948
 20
114.7484665526
 11
19.2774993948
 21
114.7484665526
  0
LINE
  5
2A9
100
AcDbEntity
  8
INTFCLR_3
100
AcDbLine
 62
7
  6
CONTINUOUS
 10
136.6274993948
 20
115.5861737257
 11
131.6274993948
 21
115.5861737257
  0
LINE
  5
2AA
100
AcDbEntity
  8
INTFCLR_3
100
AcDbLine
 62
7
  6
CONTINUOUS
 10
91.6274993948
 20
115.5861737257
 11
86.6274993948
 21
115.5861737257
  0
LINE
  5
2AB
100
AcDbEntity
  8
INTFCLR_3
100
AcDbLine
 62
7
  6
CONTINUOUS
 10
46.6274993948
 20
115.5861737257
 11
41.6274993948
 21
115.5861737257
  0
LINE
  5
2AC
100
AcDbEntity
  8
INTFCLR_3
100
AcDbLine
 62
7
  6
CONTINUOUS
 10
158.9774993948
 20
116.398374406
 11
156.3774993948
 21
116.398374406
  0
LINE
  5
2AD
100
AcDbEntity
  8
INTFCLR_3
100
AcDbLine
 62
7
  6
CONTINUOUS
 10
21.8774993948
 20
116.398374406
 11
19.2774993948
 21
116.398374406
  0
LINE
  5
2AE
100
AcDbEntity
  8
INTFCLR_3
100
AcDbLine
 62
7
  6
CONTINUOUS
 10
25.1774993948
 20
116.7734204793
 11
23.6774993948
 21
116.7734204793
  0
LINE
  5
2AF
100
AcDbEntity
  8
INTFCLR_3
100
AcDbLine
 62
7
  6
CONTINUOUS
 10
149.1274993948
 20
118.0261737257
 11
119.1274993948
 21
118.0261737257
  0
LINE
  5
2B0
100
AcDbEntity
  8
INTFCLR_3
100
AcDbLine
 62
7
  6
CONTINUOUS
 10
104.1274993948
 20
118.0261737257
 11
74.1274993948
 21
118.0261737257
  0
LINE
  5
2B1
100
AcDbEntity
  8
INTFCLR_3
100
AcDbLine
 62
7
  6
CONTINUOUS
 10
59.1274993948
 20
118.0261737257
 11
29.1274993948
 21
118.0261737257
  0
LINE
  5
2B2
100
AcDbEntity
  8
INTFCLR_3
100
AcDbLine
 62
7
  6
CONTINUOUS
 10
86.6274993948
 20
115.5861737257
 11
86.6274993948
 21
106.5861737257
  0
LINE
  5
2B3
100
AcDbEntity
  8
INTFCLR_3
100
AcDbLine
 62
7
  6
CONTINUOUS
 10
89.1324993948
 20
131.9975801929
 11
81.9380292761
 21
120.4974246228
  0
LINE
  5
2B4
100
AcDbEntity
  8
INTFCLR_3
100
AcDbLine
 62
7
  6
CONTINUOUS
 10
158.9774993948
 20
120.8234204793
 11
156.3774993948
 21
120.8234204793
  0
LINE
  5
2B5
100
AcDbEntity
  8
INTFCLR_3
100
AcDbLine
 62
7
  6
CONTINUOUS
 10
21.8774993948
 20
120.8234204793
 11
19.2774993948
 21
120.8234204793
  0
LINE
  5
2B6
100
AcDbEntity
  8
INTFCLR_3
100
AcDbLine
 62
7
  6
CONTINUOUS
 10
149.1274993948
 20
124.0261737257
 11
119.1274993948
 21
124.0261737257
  0
LINE
  5
2B7
100
AcDbEntity
  8
INTFCLR_3
100
AcDbLine
 62
7
  6
CONTINUOUS
 10
104.1274993948
 20
124.0261737257
 11
74.1274993948
 21
124.0261737257
  0
LINE
  5
2B8
100
AcDbEntity
  8
INTFCLR_3
100
AcDbLine
 62
7
  6
CONTINUOUS
 10
59.1274993948
 20
124.0261737257
 11
29.1274993948
 21
124.0261737257
  0
LINE
  5
2B9
100
AcDbEntity
  8
INTFCLR_3
100
AcDbLine
 62
7
  6
CONTINUOUS
 10
91.6274993948
 20
115.5861737257
 11
91.6274993948
 21
106.5861737257
  0
LINE
  5
2BA
100
AcDbEntity
  8
INTFCLR_3
100
AcDbLine
 62
7
  6
CONTINUOUS
 10
149.1274993948
 20
130.0261737257
 11
145.8774993948
 21
130.0261737257
  0
LINE
  5
2BB
100
AcDbEntity
  8
INTFCLR_3
100
AcDbLine
 62
7
  6
CONTINUOUS
 10
122.3774993948
 20
130.0261737257
 11
119.1274993948
 21
130.0261737257
  0
LINE
  5
2BC
100
AcDbEntity
  8
INTFCLR_3
100
AcDbLine
 62
7
  6
CONTINUOUS
 10
104.1274993948
 20
130.0261737257
 11
100.8774993948
 21
130.0261737257
  0
LINE
  5
2BD
100
AcDbEntity
  8
INTFCLR_3
100
AcDbLine
 62
7
  6
CONTINUOUS
 10
77.3774993948
 20
130.0261737257
 11
74.1274993948
 21
130.0261737257
  0
LINE
  5
2BE
100
AcDbEntity
  8
INTFCLR_3
100
AcDbLine
 62
7
  6
CONTINUOUS
 10
59.1274993948
 20
130.0261737257
 11
55.8774993948
 21
130.0261737257
  0
LINE
  5
2BF
100
AcDbEntity
  8
INTFCLR_3
100
AcDbLine
 62
7
  6
CONTINUOUS
 10
32.3774993948
 20
130.0261737257
 11
29.1274993948
 21
130.0261737257
  0
LINE
  5
2C0
100
AcDbEntity
  8
INTFCLR_3
100
AcDbLine
 62
7
  6
CONTINUOUS
 10
62.6974993948
 20
153.4734204793
 11
64.0154274233
 21
152.3434204793
  0
LINE
  5
2C1
100
AcDbEntity
  8
INTFCLR_3
100
AcDbLine
 62
7
  6
CONTINUOUS
 10
89.1324993948
 20
131.9975801929
 11
96.3269695136
 21
120.4974246228
  0
LINE
  5
2C2
100
AcDbEntity
  8
INTFCLR_3
100
AcDbLine
 62
7
  6
CONTINUOUS
 10
97.9474993948
 20
114.8534204793
 11
97.9474993948
 21
109.9034204793
  0
LINE
  5
2C3
100
AcDbEntity
  8
INTFCLR_3
100
AcDbLine
 62
7
  6
CONTINUOUS
 10
100.6174993948
 20
118.6734204793
 11
100.6174993948
 21
109.9034204793
  0
LINE
  5
2C4
100
AcDbEntity
  8
INTFCLR_3
100
AcDbLine
 62
7
  6
CONTINUOUS
 10
100.8774993948
 20
153.4420013624
 11
100.8774993948
 21
130.0261737257
  0
LINE
  5
2C5
100
AcDbEntity
  8
INTFCLR_3
100
AcDbLine
 62
7
  6
CONTINUOUS
 10
135.4684074661
 20
134.9124395735
 11
132.8165913235
 21
134.9124395735
  0
LINE
  5
2C6
100
AcDbEntity
  8
INTFCLR_3
100
AcDbLine
 62
7
  6
CONTINUOUS
 10
90.4584074661
 20
134.9124395735
 11
87.8065913235
 21
134.9124395735
  0
LINE
  5
2C7
100
AcDbEntity
  8
INTFCLR_3
100
AcDbLine
 62
7
  6
CONTINUOUS
 10
45.4484074661
 20
134.9124395735
 11
42.7965913235
 21
134.9124395735
  0
LINE
  5
2C8
100
AcDbEntity
  8
INTFCLR_3
100
AcDbLine
 62
7
  6
CONTINUOUS
 10
90.4584074661
 20
134.9124395735
 11
100.6174993948
 21
118.6734204793
  0
LINE
  5
2C9
100
AcDbEntity
  8
INTFCLR_3
100
AcDbLine
 62
7
  6
CONTINUOUS
 10
101.9524993948
 20
149.1234204793
 11
101.9524993948
 21
148.123302401
  0
LINE
  5
2CA
100
AcDbEntity
  8
INTFCLR_3
100
AcDbLine
 62
7
  6
CONTINUOUS
 10
102.1274993948
 20
91.1234204793
 11
102.1274993948
 21
76.6234204793
  0
LINE
  5
2CB
100
AcDbEntity
  8
INTFCLR_3
100
AcDbLine
 62
7
  6
CONTINUOUS
 10
103.7524993948
 20
152.6425593887
 11
103.7524993948
 21
149.1234204793
  0
LINE
  5
2CC
100
AcDbEntity
  8
INTFCLR_3
100
AcDbLine
 62
7
  6
CONTINUOUS
 10
104.1274993948
 20
130.0261737257
 11
104.1274993948
 21
106.4814433361
  0
LINE
  5
2CD
100
AcDbEntity
  8
INTFCLR_3
100
AcDbLine
 62
7
  6
CONTINUOUS
 10
105.3774993948
 20
152.6477959082
 11
105.3774993948
 21
146.3234204793
  0
LINE
  5
2CE
100
AcDbEntity
  8
INTFCLR_3
100
AcDbLine
 62
7
  6
CONTINUOUS
 10
105.4274993948
 20
104.1234204793
 11
105.4274993948
 21
76.6234204793
  0
LINE
  5
2CF
100
AcDbEntity
  8
INTFCLR_3
100
AcDbLine
 62
7
  6
CONTINUOUS
 10
106.6274993948
 20
109.1234204793
 11
106.6274993948
 21
104.1234204793
  0
LINE
  5
2D0
100
AcDbEntity
  8
INTFCLR_3
100
AcDbLine
 62
7
  6
CONTINUOUS
 10
116.381619984
 20
146.3234204793
 11
113.7274993948
 21
141.723302401
  0
LINE
  5
2D1
100
AcDbEntity
  8
INTFCLR_3
100
AcDbLine
 62
7
  6
CONTINUOUS
 10
121.3024993948
 20
148.123302401
 11
115.4024993948
 21
137.903302401
  0
LINE
  5
2D2
100
AcDbEntity
  8
INTFCLR_3
100
AcDbLine
 62
7
  6
CONTINUOUS
 10
143.6774993948
 20
140.9172237789
 11
142.0774993948
 21
140.9172237789
  0
LINE
  5
2D3
100
AcDbEntity
  8
INTFCLR_3
100
AcDbLine
 62
7
  6
CONTINUOUS
 10
65.2996190342
 20
151.7980489438
 11
64.0154274233
 21
152.3434204793
  0
LINE
  5
2D4
100
AcDbEntity
  8
INTFCLR_3
100
AcDbLine
 62
7
  6
CONTINUOUS
 10
118.1324993948
 20
105.7134204793
 11
115.4060811417
 21
109.7418862694
  0
LINE
  5
2D5
100
AcDbEntity
  8
INTFCLR_3
100
AcDbLine
 62
7
  6
CONTINUOUS
 10
107.7274993948
 20
153.1365377262
 11
107.7274993948
 21
146.3234204793
  0
LINE
  5
2D6
100
AcDbEntity
  8
INTFCLR_3
100
AcDbLine
 62
7
  6
CONTINUOUS
 10
107.8497150504
 20
109.7333034237
 11
107.8497150504
 21
137.9081254519
  0
LINE
  5
2D7
100
AcDbEntity
  8
INTFCLR_3
100
AcDbLine
 62
7
  6
CONTINUOUS
 10
109.5274993948
 20
141.723302401
 11
109.5274993948
 21
109.853742349
  0
LINE
  5
2D8
100
AcDbEntity
  8
INTFCLR_3
100
AcDbLine
 62
7
  6
CONTINUOUS
 10
110.2024993948
 20
84.5087396523
 11
110.2024993948
 21
76.6234204793
  0
LINE
  5
2D9
100
AcDbEntity
  8
INTFCLR_3
100
AcDbLine
 62
7
  6
CONTINUOUS
 10
110.6495667822
 20
149.7234204793
 11
110.6495667822
 21
146.3234204793
  0
LINE
  5
2DA
100
AcDbEntity
  8
INTFCLR_3
100
AcDbLine
 62
7
  6
CONTINUOUS
 10
112.9553797554
 20
151.7980489438
 11
112.5895667822
 21
149.7234204793
  0
LINE
  5
2DB
100
AcDbEntity
  8
INTFCLR_3
100
AcDbLine
 62
7
  6
CONTINUOUS
 10
154.3774993948
 20
146.3234204793
 11
150.3774993948
 21
146.3234204793
  0
LINE
  5
2DC
100
AcDbEntity
  8
INTFCLR_3
100
AcDbLine
 62
7
  6
CONTINUOUS
 10
117.8774993948
 20
146.3234204793
 11
112.5895667822
 21
146.3234204793
  0
LINE
  5
2DD
100
AcDbEntity
  8
INTFCLR_3
100
AcDbLine
 62
7
  6
CONTINUOUS
 10
110.6495667822
 20
146.3234204793
 11
105.3774993948
 21
146.3234204793
  0
LINE
  5
2DE
100
AcDbEntity
  8
INTFCLR_3
100
AcDbLine
 62
7
  6
CONTINUOUS
 10
72.8774993948
 20
146.3234204793
 11
67.6054320074
 21
146.3234204793
  0
LINE
  5
2DF
100
AcDbEntity
  8
INTFCLR_3
100
AcDbLine
 62
7
  6
CONTINUOUS
 10
65.6654320074
 20
146.3234204793
 11
60.3774993948
 21
146.3234204793
  0
LINE
  5
2E0
100
AcDbEntity
  8
INTFCLR_3
100
AcDbLine
 62
7
  6
CONTINUOUS
 10
27.8774993948
 20
146.3234204793
 11
23.8774993948
 21
146.3234204793
  0
LINE
  5
2E1
100
AcDbEntity
  8
INTFCLR_3
100
AcDbLine
 62
7
  6
CONTINUOUS
 10
101.9524993948
 20
148.123302401
 11
107.8497150504
 21
137.9081254519
  0
LINE
  5
2E2
100
AcDbEntity
  8
INTFCLR_3
100
AcDbLine
 62
7
  6
CONTINUOUS
 10
112.5895667822
 20
149.7234204793
 11
112.5895667822
 21
146.3234204793
  0
LINE
  5
2E3
100
AcDbEntity
  8
INTFCLR_3
100
AcDbLine
 62
7
  6
CONTINUOUS
 10
113.0524993948
 20
84.5087396523
 11
113.0524993948
 21
76.6234204793
  0
LINE
  5
2E4
100
AcDbEntity
  8
INTFCLR_3
100
AcDbLine
 62
7
  6
CONTINUOUS
 10
113.7274993948
 20
141.723302401
 11
113.7274993948
 21
109.853742349
  0
LINE
  5
2E5
100
AcDbEntity
  8
INTFCLR_3
100
AcDbLine
 62
7
  6
CONTINUOUS
 10
115.4024993948
 20
109.7365981167
 11
115.4024993948
 21
137.903302401
  0
LINE
  5
2E6
100
AcDbEntity
  8
INTFCLR_3
100
AcDbLine
 62
7
  6
CONTINUOUS
 10
115.5274993948
 20
153.1365377262
 11
115.5274993948
 21
146.3234204793
  0
LINE
  5
2E7
100
AcDbEntity
  8
INTFCLR_3
100
AcDbLine
 62
7
  6
CONTINUOUS
 10
116.6274993948
 20
109.1234204793
 11
116.6274993948
 21
104.1234204793
  0
LINE
  5
2E8
100
AcDbEntity
  8
INTFCLR_3
100
AcDbLine
 62
7
  6
CONTINUOUS
 10
117.8774993948
 20
152.6477959082
 11
117.8774993948
 21
146.3234204793
  0
LINE
  5
2E9
100
AcDbEntity
  8
INTFCLR_3
100
AcDbLine
 62
7
  6
CONTINUOUS
 10
117.9274993948
 20
104.1234204793
 11
117.9274993948
 21
76.6234204793
  0
LINE
  5
2EA
100
AcDbEntity
  8
INTFCLR_3
100
AcDbLine
 62
7
  6
CONTINUOUS
 10
107.8497150504
 20
109.7408314521
 11
105.1224993948
 21
105.7134204793
  0
LINE
  5
2EB
100
AcDbEntity
  8
INTFCLR_3
100
AcDbLine
 62
7
  6
CONTINUOUS
 10
139.1462816522
 20
131.2368828791
 11
136.5460784873
 21
129.0550533624
  0
LINE
  5
2EC
100
AcDbEntity
  8
INTFCLR_3
100
AcDbLine
 62
7
  6
CONTINUOUS
 10
140.1747418277
 20
130.0112117701
 11
137.5745386628
 21
127.8293822534
  0
LINE
  5
2ED
100
AcDbEntity
  8
INTFCLR_3
100
AcDbLine
 62
7
  6
CONTINUOUS
 10
148.7524993948
 20
149.1234204793
 11
119.5024993948
 21
149.1234204793
  0
LINE
  5
2EE
100
AcDbEntity
  8
INTFCLR_3
100
AcDbLine
 62
7
  6
CONTINUOUS
 10
103.7524993948
 20
149.1234204793
 11
74.5024993948
 21
149.1234204793
  0
LINE
  5
2EF
100
AcDbEntity
  8
INTFCLR_3
100
AcDbLine
 62
7
  6
CONTINUOUS
 10
58.7524993948
 20
149.1234204793
 11
29.5024993948
 21
149.1234204793
  0
LINE
  5
2F0
100
AcDbEntity
  8
INTFCLR_3
100
AcDbLine
 62
7
  6
CONTINUOUS
 10
82.7274993948
 20
149.3234204793
 11
81.1274993948
 21
149.3234204793
  0
LINE
  5
2F1
100
AcDbEntity
  8
INTFCLR_3
100
AcDbLine
 62
7
  6
CONTINUOUS
 10
112.5895667822
 20
149.7234204793
 11
110.6495667822
 21
149.7234204793
  0
LINE
  5
2F2
100
AcDbEntity
  8
INTFCLR_3
100
AcDbLine
 62
7
  6
CONTINUOUS
 10
67.6054320074
 20
149.7234204793
 11
65.6654320074
 21
149.7234204793
  0
LINE
  5
2F3
100
AcDbEntity
  8
INTFCLR_3
100
AcDbLine
 62
7
  6
CONTINUOUS
 10
150.3774993948
 20
150.3284727386
 11
148.7524993948
 21
150.3284727386
  0
LINE
  5
2F4
100
AcDbEntity
  8
INTFCLR_3
100
AcDbLine
 62
7
  6
CONTINUOUS
 10
119.5024993948
 20
150.3284727386
 11
117.8774993948
 21
150.3284727386
  0
LINE
  5
2F5
100
AcDbEntity
  8
INTFCLR_3
100
AcDbLine
 62
7
  6
CONTINUOUS
 10
105.3774993948
 20
150.3284727386
 11
103.7524993948
 21
150.3284727386
  0
LINE
  5
2F6
100
AcDbEntity
  8
INTFCLR_3
100
AcDbLine
 62
7
  6
CONTINUOUS
 10
74.5024993948
 20
150.3284727386
 11
72.8774993948
 21
150.3284727386
  0
LINE
  5
2F7
100
AcDbEntity
  8
INTFCLR_3
100
AcDbLine
 62
7
  6
CONTINUOUS
 10
60.3774993948
 20
150.3284727386
 11
58.7524993948
 21
150.3284727386
  0
LINE
  5
2F8
100
AcDbEntity
  8
INTFCLR_3
100
AcDbLine
 62
7
  6
CONTINUOUS
 10
29.5024993948
 20
150.3284727386
 11
27.8774993948
 21
150.3284727386
  0
LINE
  5
2F9
100
AcDbEntity
  8
INTFCLR_3
100
AcDbLine
 62
7
  6
CONTINUOUS
 10
81.1274993948
 20
150.5234679488
 11
82.7274993948
 21
150.5234679488
  0
LINE
  5
2FA
100
AcDbEntity
  8
INTFCLR_3
100
AcDbLine
 62
7
  6
CONTINUOUS
 10
82.7274993948
 20
151.3734204793
 11
81.1274993948
 21
151.3734204793
  0
LINE
  5
2FB
100
AcDbEntity
  8
INTFCLR_3
100
AcDbLine
 62
7
  6
CONTINUOUS
 10
81.1274993948
 20
152.2233730098
 11
82.7274993948
 21
152.2233730098
  0
LINE
  5
2FC
100
AcDbEntity
  8
INTFCLR_3
100
AcDbLine
 62
7
  6
CONTINUOUS
 10
150.3774993948
 20
152.3981833914
 11
148.7524993948
 21
152.3981833914
  0
LINE
  5
2FD
100
AcDbEntity
  8
INTFCLR_3
100
AcDbLine
 62
7
  6
CONTINUOUS
 10
119.5024993948
 20
152.3981833914
 11
117.8774993948
 21
152.3981833914
  0
LINE
  5
2FE
100
AcDbEntity
  8
INTFCLR_3
100
AcDbLine
 62
7
  6
CONTINUOUS
 10
105.3774993948
 20
152.3981833914
 11
103.7524993948
 21
152.3981833914
  0
LINE
  5
2FF
100
AcDbEntity
  8
INTFCLR_3
100
AcDbLine
 62
7
  6
CONTINUOUS
 10
74.5024993948
 20
152.3981833914
 11
72.8774993948
 21
152.3981833914
  0
LINE
  5
300
100
AcDbEntity
  8
INTFCLR_3
100
AcDbLine
 62
7
  6
CONTINUOUS
 10
60.3774993948
 20
152.3981833914
 11
58.7524993948
 21
152.3981833914
  0
LINE
  5
301
100
AcDbEntity
  8
INTFCLR_3
100
AcDbLine
 62
7
  6
CONTINUOUS
 10
29.5024993948
 20
152.3981833914
 11
27.8774993948
 21
152.3981833914
  0
LINE
  5
302
100
AcDbEntity
  8
INTFCLR_3
100
AcDbLine
 62
7
  6
CONTINUOUS
 10
148.7524993948
 20
152.6425593887
 11
119.5024993948
 21
152.6425593887
  0
LINE
  5
303
100
AcDbEntity
  8
INTFCLR_3
100
AcDbLine
 62
7
  6
CONTINUOUS
 10
103.7524993948
 20
152.6425593887
 11
74.5024993948
 21
152.6425593887
  0
LINE
  5
304
100
AcDbEntity
  8
INTFCLR_3
100
AcDbLine
 62
7
  6
CONTINUOUS
 10
58.7524993948
 20
152.6425593887
 11
29.5024993948
 21
152.6425593887
  0
LINE
  5
305
100
AcDbEntity
  8
INTFCLR_3
100
AcDbLine
 62
7
  6
CONTINUOUS
 10
154.3774993948
 20
152.6477959082
 11
150.3774993948
 21
152.6477959082
  0
LINE
  5
306
100
AcDbEntity
  8
INTFCLR_3
100
AcDbLine
 62
7
  6
CONTINUOUS
 10
117.8774993948
 20
152.6477959082
 11
115.5274993948
 21
152.6477959082
  0
LINE
  5
307
100
AcDbEntity
  8
INTFCLR_3
100
AcDbLine
 62
7
  6
CONTINUOUS
 10
107.7274993948
 20
152.6477959082
 11
105.3774993948
 21
152.6477959082
  0
LINE
  5
308
100
AcDbEntity
  8
INTFCLR_3
100
AcDbLine
 62
7
  6
CONTINUOUS
 10
72.8774993948
 20
152.6477959082
 11
70.5274993948
 21
152.6477959082
  0
LINE
  5
309
100
AcDbEntity
  8
INTFCLR_3
100
AcDbLine
 62
7
  6
CONTINUOUS
 10
62.7274993948
 20
152.6477959082
 11
60.3774993948
 21
152.6477959082
  0
LINE
  5
30A
100
AcDbEntity
  8
INTFCLR_3
100
AcDbLine
 62
7
  6
CONTINUOUS
 10
27.8774993948
 20
152.6477959082
 11
23.8774993948
 21
152.6477959082
  0
LINE
  5
30B
100
AcDbEntity
  8
INTFCLR_3
100
AcDbLine
 62
7
  6
CONTINUOUS
 10
106.871619984
 20
146.3234204793
 11
109.5274993948
 21
141.723302401
  0
LINE
  5
30C
100
AcDbEntity
  8
INTFCLR_3
100
AcDbLine
 62
7
  6
CONTINUOUS
 10
110.2828066623
 20
151.8034204793
 11
110.6495667822
 21
149.7234204793
  0
LINE
  5
30D
100
AcDbEntity
  8
INTFCLR_3
100
AcDbLine
 62
7
  6
CONTINUOUS
 10
119.1274993948
 20
130.0261737257
 11
119.1274993948
 21
106.4814433361
  0
LINE
  5
30E
100
AcDbEntity
  8
INTFCLR_3
100
AcDbLine
 62
7
  6
CONTINUOUS
 10
119.5024993948
 20
152.6425593887
 11
119.5024993948
 21
149.1234204793
  0
LINE
  5
30F
100
AcDbEntity
  8
INTFCLR_3
100
AcDbLine
 62
7
  6
CONTINUOUS
 10
121.1274993948
 20
91.1234204793
 11
121.1274993948
 21
76.6234204793
  0
LINE
  5
310
100
AcDbEntity
  8
INTFCLR_3
100
AcDbLine
 62
7
  6
CONTINUOUS
 10
121.3024993948
 20
149.1234204793
 11
121.3024993948
 21
148.123302401
  0
LINE
  5
311
100
AcDbEntity
  8
INTFCLR_3
100
AcDbLine
 62
7
  6
CONTINUOUS
 10
122.3774993948
 20
153.4420013624
 11
122.3774993948
 21
130.0261737257
  0
LINE
  5
312
100
AcDbEntity
  8
INTFCLR_3
100
AcDbLine
 62
7
  6
CONTINUOUS
 10
122.6574993948
 20
118.6734204793
 11
122.6574993948
 21
109.9034204793
  0
LINE
  5
313
100
AcDbEntity
  8
INTFCLR_3
100
AcDbLine
 62
7
  6
CONTINUOUS
 10
132.8165913235
 20
134.9124395735
 11
122.6574993948
 21
118.6734204793
  0
LINE
  5
314
100
AcDbEntity
  8
INTFCLR_3
100
AcDbLine
 62
7
  6
CONTINUOUS
 10
134.1424993948
 20
131.9975801929
 11
126.9480292761
 21
120.4974246228
  0
LINE
  5
315
100
AcDbEntity
  8
INTFCLR_3
100
AcDbLine
 62
7
  6
CONTINUOUS
 10
156.3774993948
 20
153.0734204793
 11
82.7274993948
 21
153.0734204793
  0
LINE
  5
316
100
AcDbEntity
  8
INTFCLR_3
100
AcDbLine
 62
7
  6
CONTINUOUS
 10
81.1274993948
 20
153.0734204793
 11
21.8774993948
 21
153.0734204793
  0
LINE
  5
317
100
AcDbEntity
  8
INTFCLR_3
100
AcDbLine
 62
7
  6
CONTINUOUS
 10
115.5274993948
 20
153.1365377262
 11
115.1645903482
 21
153.1365377262
  0
LINE
  5
318
100
AcDbEntity
  8
INTFCLR_3
100
AcDbLine
 62
7
  6
CONTINUOUS
 10
108.0768062099
 20
153.1365377262
 11
107.7274993948
 21
153.1365377262
  0
LINE
  5
319
100
AcDbEntity
  8
INTFCLR_3
100
AcDbLine
 62
7
  6
CONTINUOUS
 10
70.5274993948
 20
153.1365377262
 11
70.1781925797
 21
153.1365377262
  0
LINE
  5
31A
100
AcDbEntity
  8
INTFCLR_3
100
AcDbLine
 62
7
  6
CONTINUOUS
 10
63.0904084414
 20
153.1365377262
 11
62.7274993948
 21
153.1365377262
  0
LINE
  5
31B
100
AcDbEntity
  8
INTFCLR_3
100
AcDbLine
 62
7
  6
CONTINUOUS
 10
32.3774993948
 20
153.3372709729
 11
55.8774993948
 21
153.3372709729
  0
LINE
  5
31C
100
AcDbEntity
  8
INTFCLR_3
100
AcDbLine
 62
7
  6
CONTINUOUS
 10
77.3774993948
 20
153.3372709729
 11
100.8774993948
 21
153.3372709729
  0
LINE
  5
31D
100
AcDbEntity
  8
INTFCLR_3
100
AcDbLine
 62
7
  6
CONTINUOUS
 10
122.3774993948
 20
153.3372709729
 11
145.8774993948
 21
153.3372709729
  0
LINE
  5
31E
100
AcDbEntity
  8
INTFCLR_3
100
AcDbLine
 62
7
  6
CONTINUOUS
 10
157.7774993948
 20
153.4234204793
 11
20.4774993948
 21
153.4234204793
  0
LINE
  5
31F
100
AcDbEntity
  8
INTFCLR_3
100
AcDbLine
 62
7
  6
CONTINUOUS
 10
145.8774993948
 20
153.4420013624
 11
122.3774993948
 21
153.4420013624
  0
LINE
  5
320
100
AcDbEntity
  8
INTFCLR_3
100
AcDbLine
 62
7
  6
CONTINUOUS
 10
100.8774993948
 20
153.4420013624
 11
77.3774993948
 21
153.4420013624
  0
LINE
  5
321
100
AcDbEntity
  8
INTFCLR_3
100
AcDbLine
 62
7
  6
CONTINUOUS
 10
55.8774993948
 20
153.4420013624
 11
32.3774993948
 21
153.4420013624
  0
LINE
  5
322
100
AcDbEntity
  8
INTFCLR_3
100
AcDbLine
 62
7
  6
CONTINUOUS
 10
23.8774993948
 20
153.4734204793
 11
62.6974993948
 21
153.4734204793
  0
LINE
  5
323
100
AcDbEntity
  8
INTFCLR_3
100
AcDbLine
 62
7
  6
CONTINUOUS
 10
70.5574993948
 20
153.4734204793
 11
107.6974993948
 21
153.4734204793
  0
LINE
  5
324
100
AcDbEntity
  8
INTFCLR_3
100
AcDbLine
 62
7
  6
CONTINUOUS
 10
115.5574993948
 20
153.4734204793
 11
154.3774993948
 21
153.4734204793
  0
LINE
  5
325
100
AcDbEntity
  8
INTFCLR_3
100
AcDbLine
 62
7
  6
CONTINUOUS
 10
158.9774993948
 20
154.1234204793
 11
156.1774993948
 21
154.1234204793
  0
LINE
  5
326
100
AcDbEntity
  8
INTFCLR_3
100
AcDbLine
 62
7
  6
CONTINUOUS
 10
22.0774993948
 20
154.1234204793
 11
19.2774993948
 21
154.1234204793
  0
LINE
  5
327
100
AcDbEntity
  8
INTFCLR_3
100
AcDbLine
 62
7
  6
CONTINUOUS
 10
158.9774993948
 20
155.6234204793
 11
19.2774993948
 21
155.6234204793
  0
LINE
  5
328
100
AcDbEntity
  8
INTFCLR_3
100
AcDbLine
 62
7
  6
CONTINUOUS
 10
110.2828066623
 20
151.8034204793
 11
108.8684678817
 21
152.4334204793
  0
LINE
  5
329
100
AcDbEntity
  8
INTFCLR_3
100
AcDbLine
 62
7
  6
CONTINUOUS
 10
108.8684678817
 20
152.4334204793
 11
107.6974993948
 21
153.4734204793
  0
LINE
  5
32A
100
AcDbEntity
  8
INTFCLR_3
100
AcDbLine
 62
7
  6
CONTINUOUS
 10
125.3274993948
 20
114.8534204793
 11
125.3274993948
 21
109.9034204793
  0
LINE
  5
32B
100
AcDbEntity
  8
INTFCLR_3
100
AcDbLine
 62
7
  6
CONTINUOUS
 10
137.5745386628
 20
127.8293822534
 11
136.5460784873
 21
129.0550533624
  0
LINE
  5
32C
100
AcDbEntity
  8
INTFCLR_3
100
AcDbLine
 62
7
  6
CONTINUOUS
 10
131.6274993948
 20
115.5861737257
 11
131.6274993948
 21
106.5861737257
  0
LINE
  5
32D
100
AcDbEntity
  8
INTFCLR_3
100
AcDbLine
 62
7
  6
CONTINUOUS
 10
149.2089203024
 20
129.0550533624
 11
148.1804601269
 21
127.8293822534
  0
LINE
  5
32E
100
AcDbEntity
  8
INTFCLR_3
100
AcDbLine
 62
7
  6
CONTINUOUS
 10
83.1274993948
 20
166.1234204793
 11
65.4274993948
 21
166.1234204793
  0
LINE
  5
32F
100
AcDbEntity
  8
INTFCLR_3
100
AcDbLine
 62
7
  6
CONTINUOUS
 10
82.2274993948
 20
168.0334204793
 11
75.4274993948
 21
168.0334204793
  0
LINE
  5
330
100
AcDbEntity
  8
INTFCLR_3
100
AcDbLine
 62
7
  6
CONTINUOUS
 10
148.1804601269
 20
127.8293822534
 11
145.5802569619
 21
130.0112117701
  0
LINE
  5
331
100
AcDbEntity
  8
INTFCLR_3
100
AcDbLine
 62
7
  6
CONTINUOUS
 10
149.2089203024
 20
129.0550533624
 11
146.6087171374
 21
131.2368828791
  0
LINE
  5
332
100
AcDbEntity
  8
INTFCLR_3
100
AcDbLine
 62
7
  6
CONTINUOUS
 10
134.1424993948
 20
131.9975801929
 11
141.3369695136
 21
120.4974246228
  0
LINE
  5
333
100
AcDbEntity
  8
INTFCLR_3
100
AcDbLine
 62
7
  6
CONTINUOUS
 10
135.4684074661
 20
134.9124395735
 11
145.6274993948
 21
118.6734204793
  0
LINE
  5
334
100
AcDbEntity
  8
INTFCLR_3
100
AcDbLine
 62
7
  6
CONTINUOUS
 10
136.6274993948
 20
115.5861737257
 11
136.6274993948
 21
106.5861737257
  0
LINE
  5
335
100
AcDbEntity
  8
INTFCLR_3
100
AcDbLine
 62
7
  6
CONTINUOUS
 10
83.1274993948
 20
171.1234204793
 11
65.4274993948
 21
171.1234204793
  0
LINE
  5
336
100
AcDbEntity
  8
INTFCLR_3
100
AcDbLine
 62
7
  6
CONTINUOUS
 10
142.0774993948
 20
140.9172237789
 11
142.0774993948
 21
137.5228996137
  0
LINE
  5
337
100
AcDbEntity
  8
INTFCLR_3
100
AcDbLine
 62
7
  6
CONTINUOUS
 10
142.9574993948
 20
114.8534204793
 11
142.9574993948
 21
109.9034204793
  0
LINE
  5
338
100
AcDbEntity
  8
INTFCLR_3
100
AcDbLine
 62
7
  6
CONTINUOUS
 10
143.6774993948
 20
140.9172237789
 11
143.6774993948
 21
137.5228996137
  0
LINE
  5
339
100
AcDbEntity
  8
INTFCLR_3
100
AcDbLine
 62
7
  6
CONTINUOUS
 10
145.6274993948
 20
118.6734204793
 11
145.6274993948
 21
109.9034204793
  0
LINE
  5
33A
100
AcDbEntity
  8
INTFCLR_3
100
AcDbLine
 62
7
  6
CONTINUOUS
 10
145.8774993948
 20
153.4420013624
 11
145.8774993948
 21
130.0261737257
  0
LINE
  5
33B
100
AcDbEntity
  8
INTFCLR_3
100
AcDbLine
 62
7
  6
CONTINUOUS
 10
146.9524993948
 20
149.1234204793
 11
146.9524993948
 21
148.123302401
  0
LINE
  5
33C
100
AcDbEntity
  8
INTFCLR_3
100
AcDbLine
 62
7
  6
CONTINUOUS
 10
147.1274993948
 20
91.1234204793
 11
147.1274993948
 21
76.6234204793
  0
LINE
  5
33D
100
AcDbEntity
  8
INTFCLR_3
100
AcDbLine
 62
7
  6
CONTINUOUS
 10
148.7524993948
 20
152.6425593887
 11
148.7524993948
 21
149.1234204793
  0
LINE
  5
33E
100
AcDbEntity
  8
INTFCLR_3
100
AcDbLine
 62
7
  6
CONTINUOUS
 10
149.1274993948
 20
130.0261737257
 11
149.1274993948
 21
106.4814433361
  0
LINE
  5
33F
100
AcDbEntity
  8
INTFCLR_3
100
AcDbLine
 62
7
  6
CONTINUOUS
 10
150.3274993948
 20
104.1234204793
 11
150.3274993948
 21
76.6234204793
  0
LINE
  5
340
100
AcDbEntity
  8
INTFCLR_3
100
AcDbLine
 62
7
  6
CONTINUOUS
 10
150.3774993948
 20
152.6477959082
 11
150.3774993948
 21
146.3234204793
  0
LINE
  5
341
100
AcDbEntity
  8
INTFCLR_3
100
AcDbLine
 62
7
  6
CONTINUOUS
 10
146.9524993948
 20
148.123302401
 11
152.8524993948
 21
137.903302401
  0
LINE
  5
342
100
AcDbEntity
  8
INTFCLR_3
100
AcDbLine
 62
7
  6
CONTINUOUS
 10
152.8524993948
 20
137.903302401
 11
152.8524993948
 21
109.733302401
  0
LINE
  5
343
100
AcDbEntity
  8
INTFCLR_3
100
AcDbLine
 62
7
  6
CONTINUOUS
 10
154.1274993948
 20
108.6234204793
 11
154.1274993948
 21
97.5234204793
  0
LINE
  5
344
100
AcDbEntity
  8
INTFCLR_3
100
AcDbLine
 62
7
  6
CONTINUOUS
 10
154.3774993948
 20
153.4734204793
 11
154.3774993948
 21
105.7134204793
  0
LINE
  5
345
100
AcDbEntity
  8
INTFCLR_3
100
AcDbLine
 62
7
  6
CONTINUOUS
 10
155.3774993948
 20
108.6234204793
 11
155.3774993948
 21
99.6234204793
  0
LINE
  5
346
100
AcDbEntity
  8
INTFCLR_3
100
AcDbLine
 62
7
  6
CONTINUOUS
 10
156.1274993948
 20
99.6234204793
 11
156.1274993948
 21
97.5234204793
  0
LINE
  5
347
100
AcDbEntity
  8
INTFCLR_3
100
AcDbLine
 62
7
  6
CONTINUOUS
 10
156.1774993948
 20
154.1234204793
 11
156.1774993948
 21
110.1234204793
  0
LINE
  5
348
100
AcDbEntity
  8
INTFCLR_3
100
AcDbLine
 62
7
  6
CONTINUOUS
 10
156.2774993948
 20
108.6234204793
 11
156.2774993948
 21
99.6234204793
  0
LINE
  5
349
100
AcDbEntity
  8
INTFCLR_3
100
AcDbLine
 62
7
  6
CONTINUOUS
 10
156.3774993948
 20
153.0734204793
 11
156.3774993948
 21
114.1234204793
  0
LINE
  5
34A
100
AcDbEntity
  8
INTFCLR_3
100
AcDbLine
 62
7
  6
CONTINUOUS
 10
156.7274993948
 20
89.1234204793
 11
156.7274993948
 21
76.6234204793
  0
LINE
  5
34B
100
AcDbEntity
  8
INTFCLR_3
100
AcDbLine
 62
7
  6
CONTINUOUS
 10
156.8774993948
 20
155.6234204793
 11
156.8774993948
 21
120.8234204793
  0
LINE
  5
34C
100
AcDbEntity
  8
INTFCLR_3
100
AcDbLine
 62
7
  6
CONTINUOUS
 10
151.8698611624
 20
146.3234204793
 11
154.3774993948
 21
141.9800636538
  0
LINE
  5
34D
100
AcDbEntity
  8
INTFCLR_3
100
AcDbLine
 62
7
  6
CONTINUOUS
 10
157.7774993948
 20
155.6234204793
 11
157.7774993948
 21
153.4234204793
  0
LINE
  5
34E
100
AcDbEntity
  8
INTFCLR_3
100
AcDbLine
 62
7
  6
CONTINUOUS
 10
158.1774993948
 20
154.1234204793
 11
158.1774993948
 21
110.1234204793
  0
LINE
  5
34F
100
AcDbEntity
  8
INTFCLR_3
100
AcDbLine
 62
7
  6
CONTINUOUS
 10
158.8774993948
 20
154.1234204793
 11
158.8774993948
 21
110.1234204793
  0
LINE
  5
350
100
AcDbEntity
  8
INTFCLR_3
100
AcDbLine
 62
7
  6
CONTINUOUS
 10
158.9774993948
 20
155.6234204793
 11
158.9774993948
 21
106.6690048916
  0
LINE
  5
351
100
AcDbEntity
  8
INTFCLR_3
100
AcDbLine
 62
7
  6
CONTINUOUS
 10
158.9774993948
 20
101.577836067
 11
158.9774993948
 21
89.1234204793
  0
ARC
  5
352
100
AcDbEntity
  8
INTFCLR_3
100
AcDbCircle
 62
7
  6
CONTINUOUS
 10
74.2774993948
 20
137.073460099
 40
33.7499802623
100
AcDbArc
 50
77.231044996
 51
102.768955004
  0
ARC
  5
353
100
AcDbEntity
  8
INTFCLR_3
100
AcDbCircle
 62
7
  6
CONTINUOUS
 10
44.1274993948
 20
91.1234204793
 40
12.9999564919
100
AcDbArc
 50
0.0
 51
180.0
  0
CIRCLE
  5
354
100
AcDbEntity
  8
INTFCLR_3
100
AcDbCircle
 62
7
  6
CONTINUOUS
 10
66.6274993948
 20
104.1234204793
 40
4.9999650484
  0
ARC
  5
355
100
AcDbEntity
  8
INTFCLR_3
100
AcDbCircle
 62
7
  6
CONTINUOUS
 10
52.6174993948
 20
117.8161894544
 40
2.98
100
AcDbArc
 50
115.8756484245
 51
276.164452928
  0
ARC
  5
356
100
AcDbEntity
  8
INTFCLR_3
100
AcDbCircle
 62
7
  6
CONTINUOUS
 10
35.6274993948
 20
117.8161894544
 40
2.98
100
AcDbArc
 50
263.835547072
 51
64.1243515756
  0
ARC
  5
357
100
AcDbEntity
  8
INTFCLR_3
100
AcDbCircle
 62
7
  6
CONTINUOUS
 10
80.6374993948
 20
117.8161894544
 40
2.98
100
AcDbArc
 50
263.835547072
 51
64.1243515748
  0
CIRCLE
  5
358
100
AcDbEntity
  8
INTFCLR_3
100
AcDbCircle
 62
7
  6
CONTINUOUS
 10
66.6274993948
 20
104.1234204793
 40
2.6
  0
ARC
  5
359
100
AcDbEntity
  8
INTFCLR_3
100
AcDbCircle
 62
7
  6
CONTINUOUS
 10
19.1274993948
 20
104.1234204793
 40
2.55
100
AcDbArc
 50
273.3722866842
 51
86.6277133158
  0
ARC
  5
35A
100
AcDbEntity
  8
INTFCLR_3
100
AcDbCircle
 62
7
  6
CONTINUOUS
 10
66.6274993948
 20
86.6234204793
 40
2.5499723055
100
AcDbArc
 50
303.9744759503
 51
236.0255240497
  0
CIRCLE
  5
35B
100
AcDbEntity
  8
INTFCLR_3
100
AcDbCircle
 62
7
  6
CONTINUOUS
 10
66.6274993948
 20
94.3734204793
 40
1.5
  0
CIRCLE
  5
35C
100
AcDbEntity
  8
INTFCLR_3
100
AcDbCircle
 62
7
  6
CONTINUOUS
 10
23.9774993948
 20
94.3734204793
 40
1.5
  0
ARC
  5
35D
100
AcDbEntity
  8
INTFCLR_3
100
AcDbCircle
 62
7
  6
CONTINUOUS
 10
24.4274993948
 20
120.0734204793
 40
0.7499581151
100
AcDbArc
 50
0.0
 51
180.0000000001
  0
ARC
  5
35E
100
AcDbEntity
  8
INTFCLR_3
100
AcDbCircle
 62
7
  6
CONTINUOUS
 10
74.2774993948
 20
200.1733808596
 40
33.7499802623
100
AcDbArc
 50
257.231044996
 51
282.768955004
  0
ARC
  5
35F
100
AcDbEntity
  8
INTFCLR_3
100
AcDbCircle
 62
7
  6
CONTINUOUS
 10
81.4274993948
 20
168.6234204793
 40
1.3999581926
100
AcDbArc
 50
282.7689550038
 51
77.2310449962
  0
ARC
  5
360
100
AcDbEntity
  8
INTFCLR_3
100
AcDbCircle
 62
7
  6
CONTINUOUS
 10
67.1274993948
 20
168.6234204793
 40
1.3999581926
100
AcDbArc
 50
102.7689550038
 51
257.2310449962
  0
ARC
  5
361
100
AcDbEntity
  8
INTFCLR_3
100
AcDbCircle
 62
7
  6
CONTINUOUS
 10
89.1274993948
 20
91.1234204793
 40
12.9999564919
100
AcDbArc
 50
0.0
 51
180.0
  0
CIRCLE
  5
362
100
AcDbEntity
  8
INTFCLR_3
100
AcDbCircle
 62
7
  6
CONTINUOUS
 10
111.6274993948
 20
104.1234204793
 40
4.9999650484
  0
CIRCLE
  5
363
100
AcDbEntity
  8
INTFCLR_3
100
AcDbCircle
 62
7
  6
CONTINUOUS
 10
111.6274993948
 20
104.1234204793
 40
2.6
  0
ARC
  5
364
100
AcDbEntity
  8
INTFCLR_3
100
AcDbCircle
 62
7
  6
CONTINUOUS
 10
111.6274993948
 20
86.6234204793
 40
2.5499723055
100
AcDbArc
 50
303.9744759503
 51
236.0255240497
  0
CIRCLE
  5
365
100
AcDbEntity
  8
INTFCLR_3
100
AcDbCircle
 62
7
  6
CONTINUOUS
 10
111.6274993948
 20
94.3734204793
 40
1.5
  0
CIRCLE
  5
366
100
AcDbEntity
  8
INTFCLR_3
100
AcDbCircle
 62
7
  6
CONTINUOUS
 10
123.3774993948
 20
133.3234204793
 40
5.9
  0
CIRCLE
  5
367
100
AcDbEntity
  8
INTFCLR_3
100
AcDbCircle
 62
7
  6
CONTINUOUS
 10
110.8774993948
 20
133.3234204793
 40
5.9
  0
CIRCLE
  5
368
100
AcDbEntity
  8
INTFCLR_3
100
AcDbCircle
 62
7
  6
CONTINUOUS
 10
98.3774993948
 20
133.3234204793
 40
5.9
  0
CIRCLE
  5
369
100
AcDbEntity
  8
INTFCLR_3
100
AcDbCircle
 62
7
  6
CONTINUOUS
 10
123.3774993948
 20
133.3234204793
 40
3.4999640014
  0
CIRCLE
  5
36A
100
AcDbEntity
  8
INTFCLR_3
100
AcDbCircle
 62
7
  6
CONTINUOUS
 10
110.8774993948
 20
133.3234204793
 40
3.4999640014
  0
CIRCLE
  5
36B
100
AcDbEntity
  8
INTFCLR_3
100
AcDbCircle
 62
7
  6
CONTINUOUS
 10
98.3774993948
 20
133.3234204793
 40
3.4999640014
  0
ARC
  5
36C
100
AcDbEntity
  8
INTFCLR_3
100
AcDbCircle
 62
7
  6
CONTINUOUS
 10
97.6274993948
 20
117.8161894544
 40
2.98
100
AcDbArc
 50
115.8756484252
 51
276.164452928
  0
ARC
  5
36D
100
AcDbEntity
  8
INTFCLR_3
100
AcDbCircle
 62
7
  6
CONTINUOUS
 10
134.1274993948
 20
91.1234204793
 40
12.9999564919
100
AcDbArc
 50
0.0
 51
180.0
  0
ARC
  5
36E
100
AcDbEntity
  8
INTFCLR_3
100
AcDbCircle
 62
7
  6
CONTINUOUS
 10
159.1274993948
 20
104.1234204793
 40
2.55
100
AcDbArc
 50
93.3722866834
 51
266.6277133166
  0
CIRCLE
  5
36F
100
AcDbEntity
  8
INTFCLR_3
100
AcDbCircle
 62
7
  6
CONTINUOUS
 10
154.2774993948
 20
94.3734204793
 40
1.5
  0
ARC
  5
370
100
AcDbEntity
  8
INTFCLR_3
100
AcDbCircle
 62
7
  6
CONTINUOUS
 10
125.6474993948
 20
117.8161894544
 40
2.98
100
AcDbArc
 50
263.835547072
 51
64.1243515748
  0
ARC
  5
371
100
AcDbEntity
  8
INTFCLR_3
100
AcDbCircle
 62
7
  6
CONTINUOUS
 10
142.6374993948
 20
117.8161894544
 40
2.98
100
AcDbArc
 50
115.8756484252
 51
276.164452928
  0
CIRCLE
  5
372
100
AcDbEntity
  8
INTFCLR_3
100
AcDbCircle
 62
7
  6
CONTINUOUS
 10
141.6074993948
 20
131.1234204793
 40
0.8149544851
  0
CIRCLE
  5
373
100
AcDbEntity
  8
INTFCLR_3
100
AcDbCircle
 62
7
  6
CONTINUOUS
 10
140.3374993948
 20
133.3234204793
 40
0.8149544851
  0
CIRCLE
  5
374
100
AcDbEntity
  8
INTFCLR_3
100
AcDbCircle
 62
7
  6
CONTINUOUS
 10
137.4574993948
 20
132.3734204793
 40
0.7499581151
  0
CIRCLE
  5
375
100
AcDbEntity
  8
INTFCLR_3
100
AcDbCircle
 62
7
  6
CONTINUOUS
 10
141.6074993948
 20
135.5234204793
 40
0.8149544851
  0
CIRCLE
  5
376
100
AcDbEntity
  8
INTFCLR_3
100
AcDbCircle
 62
7
  6
CONTINUOUS
 10
140.1274993948
 20
138.0934204793
 40
0.7499581151
  0
ARC
  5
377
100
AcDbEntity
  8
INTFCLR_3
100
AcDbCircle
 62
7
  6
CONTINUOUS
 10
142.8774993948
 20
133.3234204793
 40
6.95
100
AcDbArc
 50
96.6098493808
 51
213.3901506191
  0
ARC
  5
378
100
AcDbEntity
  8
INTFCLR_3
100
AcDbCircle
 62
7
  6
CONTINUOUS
 10
142.8774993948
 20
133.3234204793
 40
6.95
100
AcDbArc
 50
326.6098493808
 51
83.3901506192
  0
ARC
  5
379
100
AcDbEntity
  8
INTFCLR_3
100
AcDbCircle
 62
7
  6
CONTINUOUS
 10
142.8774993948
 20
133.3234204793
 40
6.9499623667
100
AcDbArc
 50
226.6098493808
 51
313.3901506192
  0
ARC
  5
37A
100
AcDbEntity
  8
INTFCLR_3
100
AcDbCircle
 62
7
  6
CONTINUOUS
 10
142.8774993948
 20
133.3234204793
 40
4.275
100
AcDbArc
 50
330.785604081
 51
79.2143959191
  0
ARC
  5
37B
100
AcDbEntity
  8
INTFCLR_3
100
AcDbCircle
 62
7
  6
CONTINUOUS
 10
142.8774993948
 20
133.3234204793
 40
4.275
100
AcDbArc
 50
100.7856040809
 51
209.214395919
  0
ARC
  5
37C
100
AcDbEntity
  8
INTFCLR_3
100
AcDbCircle
 62
7
  6
CONTINUOUS
 10
142.8774993948
 20
133.3234204793
 40
4.2749372009
100
AcDbArc
 50
230.7856040807
 51
309.2143959193
  0
CIRCLE
  5
37D
100
AcDbEntity
  8
INTFCLR_3
100
AcDbCircle
 62
7
  6
CONTINUOUS
 10
142.8774993948
 20
133.3234204793
 40
1.55
  0
CIRCLE
  5
37E
100
AcDbEntity
  8
INTFCLR_3
100
AcDbCircle
 62
7
  6
CONTINUOUS
 10
144.1474993948
 20
131.1234204793
 40
0.8149544851
  0
CIRCLE
  5
37F
100
AcDbEntity
  8
INTFCLR_3
100
AcDbCircle
 62
7
  6
CONTINUOUS
 10
145.4174993948
 20
133.3234204793
 40
0.8149544851
  0
CIRCLE
  5
380
100
AcDbEntity
  8
INTFCLR_3
100
AcDbCircle
 62
7
  6
CONTINUOUS
 10
142.8774993948
 20
133.3234204793
 40
0.7499581151
  0
CIRCLE
  5
381
100
AcDbEntity
  8
INTFCLR_3
100
AcDbCircle
 62
7
  6
CONTINUOUS
 10
148.2974993948
 20
132.3734204793
 40
0.7499581151
  0
CIRCLE
  5
382
100
AcDbEntity
  8
INTFCLR_3
100
AcDbCircle
 62
7
  6
CONTINUOUS
 10
144.1474993948
 20
135.5234204793
 40
0.8149544851
  0
CIRCLE
  5
383
100
AcDbEntity
  8
INTFCLR_3
100
AcDbCircle
 62
7
  6
CONTINUOUS
 10
145.6274993948
 20
138.0934204793
 40
0.7499581151
  0
SPLINE
  5
384
100
AcDbEntity
  8
INTFCLR_3
100
AcDbSpline
 62
7
  6
CONTINUOUS
 70
0
 71
3
 72
19
 73
15
 74
0
 42
0.0000001
 43
0.0000001
 44
0.0000000001
 40
0.0
 40
0.0
 40
0.0
 40
0.0
 40
0.0836665357
 40
0.1669611028
 40
0.2498676056
 40
0.3323764987
 40
0.4155619769
 40
0.4987352901
 40
0.5818384247
 40
0.66506757
 40
0.7481489315
 40
0.8319095526
 40
0.9160046532
 40
1.0
 40
1.0
 40
1.0
 40
1.0
 10
116.6274993948
 20
104.1234204793
 30
0.0
 10
116.6251074744
 20
104.5602390079
 30
0.0
 10
116.5130394323
 20
105.4362806414
 30
0.0
 10
116.0054544802
 20
106.6541309535
 30
0.0
 10
115.2060604686
 20
107.6960133938
 30
0.0
 10
114.166030596
 20
108.4967689098
 30
0.0
 10
112.9535045185
 20
109.0036809167
 30
0.0
 10
111.6480709413
 20
109.1805045266
 30
0.0
 10
110.3410507779
 20
109.0142387216
 30
0.0
 10
109.1217510828
 20
108.5161364402
 30
0.0
 10
108.0696683166
 20
107.7180460655
 30
0.0
 10
107.2576736275
 20
106.6705638205
 30
0.0
 10
106.7434614961
 20
105.4439428318
 30
0.0
 10
106.6293189686
 20
104.5619585125
 30
0.0
 10
106.6274993948
 20
104.1234204793
 30
0.0
  0
SPLINE
  5
385
100
AcDbEntity
  8
INTFCLR_3
100
AcDbSpline
 62
7
  6
CONTINUOUS
 70
0
 71
3
 72
17
 73
13
 74
0
 42
0.0000001
 43
0.0000001
 44
0.0000000001
 40
0.0
 40
0.0
 40
0.0
 40
0.0
 40
0.1005445494
 40
0.2004453512
 40
0.2993463806
 40
0.3988240636
 40
0.4987295948
 40
0.5985521541
 40
0.6982676195
 40
0.7980764323
 40
0.8990139516
 40
1.0
 40
1.0
 40
1.0
 40
1.0
 10
109.0274993948
 20
104.1234204793
 30
0.0
 10
109.0300431813
 20
104.3960357147
 30
0.0
 10
109.1132524021
 20
104.9434438194
 30
0.0
 10
109.4905155582
 20
105.6773708891
 30
0.0
 10
110.0710966913
 20
106.2588756858
 30
0.0
 10
110.8025881683
 20
106.634172589
 30
0.0
 10
111.6166410882
 20
106.7663595707
 30
0.0
 10
112.4323707568
 20
106.6407418779
 30
0.0
 10
113.1694746624
 20
106.2699296937
 30
0.0
 10
113.7581302571
 20
105.6875882138
 30
0.0
 10
114.1405272138
 20
104.9486981058
 30
0.0
 10
114.2253786466
 20
104.3972364969
 30
0.0
 10
114.2274993948
 20
104.1234204793
 30
0.0
  0
SPLINE
  5
386
100
AcDbEntity
  8
INTFCLR_3
100
AcDbSpline
 62
7
  6
CONTINUOUS
 70
0
 71
3
 72
17
 73
13
 74
0
 42
0.0000001
 43
0.0000001
 44
0.0000000001
 40
0.0
 40
0.0
 40
0.0
 40
0.0
 40
0.1005445494
 40
0.2004453512
 40
0.2993463806
 40
0.3988240636
 40
0.4987295948
 40
0.5985521541
 40
0.6982676195
 40
0.7980764323
 40
0.8990139516
 40
1.0
 40
1.0
 40
1.0
 40
1.0
 10
114.2274993948
 20
104.1234204793
 30
0.0
 10
114.2249556083
 20
103.8508052439
 30
0.0
 10
114.1417463875
 20
103.3033971392
 30
0.0
 10
113.7644832315
 20
102.5694700695
 30
0.0
 10
113.1839020983
 20
101.9879652728
 30
0.0
 10
112.4524106213
 20
101.6126683697
 30
0.0
 10
111.6383577014
 20
101.4804813879
 30
0.0
 10
110.8226280328
 20
101.6060990807
 30
0.0
 10
110.0855241272
 20
101.9769112649
 30
0.0
 10
109.4968685326
 20
102.5592527448
 30
0.0
 10
109.1144715758
 20
103.2981428528
 30
0.0
 10
109.0296201431
 20
103.8496044617
 30
0.0
 10
109.0274993948
 20
104.1234204793
 30
0.0
  0
SPLINE
  5
387
100
AcDbEntity
  8
INTFCLR_3
100
AcDbSpline
 62
7
  6
CONTINUOUS
 70
0
 71
3
 72
19
 73
15
 74
0
 42
0.0000001
 43
0.0000001
 44
0.0000000001
 40
0.0
 40
0.0
 40
0.0
 40
0.0
 40
0.0836665357
 40
0.1669611028
 40
0.2498676056
 40
0.3323764987
 40
0.4155619769
 40
0.4987352901
 40
0.5818384247
 40
0.66506757
 40
0.7481489315
 40
0.8319095526
 40
0.9160046532
 40
1.0
 40
1.0
 40
1.0
 40
1.0
 10
71.6274993948
 20
104.1234204793
 30
0.0
 10
71.6251074744
 20
104.5602390079
 30
0.0
 10
71.5130394323
 20
105.4362806414
 30
0.0
 10
71.0054544802
 20
106.6541309535
 30
0.0
 10
70.2060604686
 20
107.6960133938
 30
0.0
 10
69.166030596
 20
108.4967689098
 30
0.0
 10
67.9535045185
 20
109.0036809167
 30
0.0
 10
66.6480709413
 20
109.1805045266
 30
0.0
 10
65.3410507779
 20
109.0142387216
 30
0.0
 10
64.1217510828
 20
108.5161364402
 30
0.0
 10
63.0696683166
 20
107.7180460655
 30
0.0
 10
62.2576736275
 20
106.6705638205
 30
0.0
 10
61.7434614961
 20
105.4439428318
 30
0.0
 10
61.6293189686
 20
104.5619585125
 30
0.0
 10
61.6274993948
 20
104.1234204793
 30
0.0
  0
SPLINE
  5
388
100
AcDbEntity
  8
INTFCLR_3
100
AcDbSpline
 62
7
  6
CONTINUOUS
 70
0
 71
3
 72
17
 73
13
 74
0
 42
0.0000001
 43
0.0000001
 44
0.0000000001
 40
0.0
 40
0.0
 40
0.0
 40
0.0
 40
0.1005445494
 40
0.2004453512
 40
0.2993463806
 40
0.3988240636
 40
0.4987295948
 40
0.5985521541
 40
0.6982676195
 40
0.7980764323
 40
0.8990139516
 40
1.0
 40
1.0
 40
1.0
 40
1.0
 10
64.0274993948
 20
104.1234204793
 30
0.0
 10
64.0300431813
 20
104.3960357147
 30
0.0
 10
64.1132524021
 20
104.9434438194
 30
0.0
 10
64.4905155582
 20
105.6773708891
 30
0.0
 10
65.0710966913
 20
106.2588756858
 30
0.0
 10
65.8025881683
 20
106.634172589
 30
0.0
 10
66.6166410882
 20
106.7663595707
 30
0.0
 10
67.4323707568
 20
106.6407418779
 30
0.0
 10
68.1694746624
 20
106.2699296937
 30
0.0
 10
68.7581302571
 20
105.6875882138
 30
0.0
 10
69.1405272138
 20
104.9486981058
 30
0.0
 10
69.2253786466
 20
104.3972364969
 30
0.0
 10
69.2274993948
 20
104.1234204793
 30
0.0
  0
SPLINE
  5
389
100
AcDbEntity
  8
INTFCLR_3
100
AcDbSpline
 62
7
  6
CONTINUOUS
 70
0
 71
3
 72
17
 73
13
 74
0
 42
0.0000001
 43
0.0000001
 44
0.0000000001
 40
0.0
 40
0.0
 40
0.0
 40
0.0
 40
0.1005445494
 40
0.2004453512
 40
0.2993463806
 40
0.3988240636
 40
0.4987295948
 40
0.5985521541
 40
0.6982676195
 40
0.7980764323
 40
0.8990139516
 40
1.0
 40
1.0
 40
1.0
 40
1.0
 10
69.2274993948
 20
104.1234204793
 30
0.0
 10
69.2249556083
 20
103.8508052439
 30
0.0
 10
69.1417463875
 20
103.3033971392
 30
0.0
 10
68.7644832315
 20
102.5694700695
 30
0.0
 10
68.1839020983
 20
101.9879652728
 30
0.0
 10
67.4524106213
 20
101.6126683697
 30
0.0
 10
66.6383577014
 20
101.4804813879
 30
0.0
 10
65.8226280328
 20
101.6060990807
 30
0.0
 10
65.0855241272
 20
101.9769112649
 30
0.0
 10
64.4968685326
 20
102.5592527448
 30
0.0
 10
64.1144715758
 20
103.2981428528
 30
0.0
 10
64.0296201431
 20
103.8496044617
 30
0.0
 10
64.0274993948
 20
104.1234204793
 30
0.0
  0
SPLINE
  5
38A
100
AcDbEntity
  8
INTFCLR_3
100
AcDbSpline
 62
7
  6
CONTINUOUS
 70
0
 71
3
 72
17
 73
13
 74
0
 42
0.0000001
 43
0.0000001
 44
0.0000000001
 40
0.0
 40
0.0
 40
0.0
 40
0.0
 40
0.1006423538
 40
0.2008591078
 40
0.3007548224
 40
0.4004270844
 40
0.4999878817
 40
0.5995496559
 40
0.6992248416
 40
0.7991254207
 40
0.8993489597
 40
1.0
 40
1.0
 40
1.0
 40
1.0
 10
19.2774993948
 20
106.6690048916
 30
0.0
 10
19.5346194625
 20
106.6518126135
 30
0.0
 10
20.0469621134
 20
106.545290302
 30
0.0
 10
20.7269395546
 20
106.1591660373
 30
0.0
 10
21.2603434227
 20
105.5910848581
 30
0.0
 10
21.5997622699
 20
104.8914158949
 30
0.0
 10
21.7162750325
 20
104.1235135552
 30
0.0
 10
21.5998167146
 20
103.3555950591
 30
0.0
 10
21.2604341328
 20
102.6558823301
 30
0.0
 10
20.7270345173
 20
102.0877438516
 30
0.0
 10
20.0470240253
 20
101.7015665919
 30
0.0
 10
19.5346415364
 20
101.595031599
 30
0.0
 10
19.2774993948
 20
101.577836067
 30
0.0
  0
SPLINE
  5
38B
100
AcDbEntity
  8
INTFCLR_3
100
AcDbSpline
 62
7
  6
CONTINUOUS
 70
0
 71
3
 72
23
 73
19
 74
0
 42
0.0000001
 43
0.0000001
 44
0.0000000001
 40
0.0
 40
0.0
 40
0.0
 40
0.0
 40
0.0632910191
 40
0.1262173908
 40
0.1889162497
 40
0.2513290411
 40
0.3144035106
 40
0.3770537797
 40
0.4393489846
 40
0.5014207813
 40
0.5633471913
 40
0.6252130457
 40
0.687214706
 40
0.7494974666
 40
0.8112161777
 40
0.8737155275
 40
0.9367763473
 40
1.0
 40
1.0
 40
1.0
 40
1.0
 10
110.2024993948
 20
84.5087396523
 30
0.0
 10
109.9775391666
 20
84.6635094179
 30
0.0
 10
109.5701629098
 20
85.0407070949
 30
0.0
 10
109.1778852943
 20
85.7712931415
 30
0.0
 10
109.0341584633
 20
86.5837080973
 30
0.0
 10
109.1529442578
 20
87.4008677031
 30
0.0
 10
109.5225508459
 20
88.1393430479
 30
0.0
 10
110.1054808625
 20
88.7232585209
 30
0.0
 10
110.8378386736
 20
89.0932701769
 30
0.0
 10
111.6458048045
 20
89.2161058413
 30
0.0
 10
112.4500177834
 20
89.0820920933
 30
0.0
 10
113.17266329
 20
88.7053309867
 30
0.0
 10
113.7437894345
 20
88.1216924699
 30
0.0
 10
114.1044524056
 20
87.3896329162
 30
0.0
 10
114.220140453
 20
86.5798295258
 30
0.0
 10
114.0769138271
 20
85.7707672819
 30
0.0
 10
113.6847887086
 20
85.0407471296
 30
0.0
 10
113.2773662634
 20
84.6631321287
 30
0.0
 10
113.0524993948
 20
84.5087396523
 30
0.0
  0
SPLINE
  5
38C
100
AcDbEntity
  8
INTFCLR_3
100
AcDbSpline
 62
7
  6
CONTINUOUS
 70
0
 71
3
 72
19
 73
15
 74
0
 42
0.0000001
 43
0.0000001
 44
0.0000000001
 40
0.0
 40
0.0
 40
0.0
 40
0.0
 40
0.0836665357
 40
0.1669611028
 40
0.2498676056
 40
0.3323764987
 40
0.4155619769
 40
0.4987352901
 40
0.5818384247
 40
0.66506757
 40
0.7481489315
 40
0.8319095526
 40
0.9160046532
 40
1.0
 40
1.0
 40
1.0
 40
1.0
 10
116.6274993948
 20
104.1234204793
 30
0.0
 10
116.6251074744
 20
103.6866019507
 30
0.0
 10
116.5130394323
 20
102.8105603172
 30
0.0
 10
116.0054544802
 20
101.5927100051
 30
0.0
 10
115.2060604686
 20
100.5508275648
 30
0.0
 10
114.166030596
 20
99.7500720488
 30
0.0
 10
112.9535045185
 20
99.2431600419
 30
0.0
 10
111.6480709413
 20
99.066336432
 30
0.0
 10
110.3410507779
 20
99.232602237
 30
0.0
 10
109.1217510828
 20
99.7307045184
 30
0.0
 10
108.0696683166
 20
100.5287948931
 30
0.0
 10
107.2576736275
 20
101.5762771381
 30
0.0
 10
106.7434614961
 20
102.8028981268
 30
0.0
 10
106.6293189686
 20
103.6848824461
 30
0.0
 10
106.6274993948
 20
104.1234204793
 30
0.0
  0
SPLINE
  5
38D
100
AcDbEntity
  8
INTFCLR_3
100
AcDbSpline
 62
7
  6
CONTINUOUS
 70
0
 71
3
 72
23
 73
19
 74
0
 42
0.0000001
 43
0.0000001
 44
0.0000000001
 40
0.0
 40
0.0
 40
0.0
 40
0.0
 40
0.0632910191
 40
0.1262173908
 40
0.1889162497
 40
0.2513290411
 40
0.3144035106
 40
0.3770537797
 40
0.4393489846
 40
0.5014207813
 40
0.5633471913
 40
0.6252130457
 40
0.687214706
 40
0.7494974666
 40
0.8112161777
 40
0.8737155275
 40
0.9367763473
 40
1.0
 40
1.0
 40
1.0
 40
1.0
 10
65.2024993948
 20
84.5087396523
 30
0.0
 10
64.9775391666
 20
84.6635094179
 30
0.0
 10
64.5701629098
 20
85.0407070949
 30
0.0
 10
64.1778852943
 20
85.7712931415
 30
0.0
 10
64.0341584633
 20
86.5837080973
 30
0.0
 10
64.1529442578
 20
87.4008677031
 30
0.0
 10
64.5225508459
 20
88.1393430479
 30
0.0
 10
65.1054808625
 20
88.7232585209
 30
0.0
 10
65.8378386736
 20
89.0932701769
 30
0.0
 10
66.6458048045
 20
89.2161058413
 30
0.0
 10
67.4500177834
 20
89.0820920933
 30
0.0
 10
68.17266329
 20
88.7053309868
 30
0.0
 10
68.7437894345
 20
88.1216924699
 30
0.0
 10
69.1044524056
 20
87.3896329162
 30
0.0
 10
69.220140453
 20
86.5798295258
 30
0.0
 10
69.0769138271
 20
85.7707672819
 30
0.0
 10
68.6847887086
 20
85.0407471296
 30
0.0
 10
68.2773662634
 20
84.6631321287
 30
0.0
 10
68.0524993948
 20
84.5087396523
 30
0.0
  0
SPLINE
  5
38E
100
AcDbEntity
  8
INTFCLR_3
100
AcDbSpline
 62
7
  6
CONTINUOUS
 70
0
 71
3
 72
19
 73
15
 74
0
 42
0.0000001
 43
0.0000001
 44
0.0000000001
 40
0.0
 40
0.0
 40
0.0
 40
0.0
 40
0.0836665357
 40
0.1669611028
 40
0.2498676056
 40
0.3323764987
 40
0.4155619769
 40
0.4987352901
 40
0.5818384247
 40
0.66506757
 40
0.7481489315
 40
0.8319095526
 40
0.9160046532
 40
1.0
 40
1.0
 40
1.0
 40
1.0
 10
71.6274993948
 20
104.1234204793
 30
0.0
 10
71.6251074744
 20
103.6866019507
 30
0.0
 10
71.5130394323
 20
102.8105603172
 30
0.0
 10
71.0054544802
 20
101.5927100051
 30
0.0
 10
70.2060604686
 20
100.5508275648
 30
0.0
 10
69.166030596
 20
99.7500720488
 30
0.0
 10
67.9535045185
 20
99.2431600419
 30
0.0
 10
66.6480709413
 20
99.066336432
 30
0.0
 10
65.3410507779
 20
99.232602237
 30
0.0
 10
64.1217510828
 20
99.7307045184
 30
0.0
 10
63.0696683166
 20
100.5287948931
 30
0.0
 10
62.2576736275
 20
101.5762771381
 30
0.0
 10
61.7434614961
 20
102.8028981268
 30
0.0
 10
61.6293189686
 20
103.6848824461
 30
0.0
 10
61.6274993948
 20
104.1234204793
 30
0.0
  0
SPLINE
  5
38F
100
AcDbEntity
  8
INTFCLR_3
100
AcDbSpline
 62
7
  6
CONTINUOUS
 70
0
 71
3
 72
15
 73
11
 74
0
 42
0.0000001
 43
0.0000001
 44
0.0000000001
 40
0.0
 40
0.0
 40
0.0
 40
0.0
 40
0.1256766858
 40
0.2507740675
 40
0.3754840685
 40
0.5
 40
0.6245159315
 40
0.7492259325
 40
0.8743233142
 40
1.0
 40
1.0
 40
1.0
 40
1.0
 10
102.1274993948
 20
91.1234204793
 30
0.0
 10
102.1251428324
 20
91.9774964825
 30
0.0
 10
101.9595380593
 20
93.6865083078
 30
0.0
 10
101.2098203646
 20
96.1424506556
 30
0.0
 10
100.0010884251
 20
98.3993315234
 30
0.0
 10
98.3786219894
 20
100.3745430739
 30
0.0
 10
96.4034104389
 20
101.9970095096
 30
0.0
 10
94.1465295711
 20
103.2057414491
 30
0.0
 10
91.6905872233
 20
103.9554591437
 30
0.0
 10
89.981575398
 20
104.1210639168
 30
0.0
 10
89.1274993948
 20
104.1234204793
 30
0.0
  0
SPLINE
  5
390
100
AcDbEntity
  8
INTFCLR_3
100
AcDbSpline
 62
7
  6
CONTINUOUS
 70
0
 71
3
 72
15
 73
11
 74
0
 42
0.0000001
 43
0.0000001
 44
0.0000000001
 40
0.0
 40
0.0
 40
0.0
 40
0.0
 40
0.1256766858
 40
0.2507740675
 40
0.3754840685
 40
0.5
 40
0.6245159315
 40
0.7492259325
 40
0.8743233142
 40
1.0
 40
1.0
 40
1.0
 40
1.0
 10
89.1274993948
 20
104.1234204793
 30
0.0
 10
88.2734233916
 20
104.1210639168
 30
0.0
 10
86.5644115663
 20
103.9554591437
 30
0.0
 10
84.1084692186
 20
103.2057414491
 30
0.0
 10
81.8515883508
 20
101.9970095096
 30
0.0
 10
79.8763768002
 20
100.3745430739
 30
0.0
 10
78.2539103645
 20
98.3993315234
 30
0.0
 10
77.045178425
 20
96.1424506556
 30
0.0
 10
76.2954607304
 20
93.6865083078
 30
0.0
 10
76.1298559573
 20
91.9774964825
 30
0.0
 10
76.1274993948
 20
91.1234204793
 30
0.0
  0
SPLINE
  5
391
100
AcDbEntity
  8
INTFCLR_3
100
AcDbSpline
 62
7
  6
CONTINUOUS
 70
0
 71
3
 72
15
 73
11
 74
0
 42
0.0000001
 43
0.0000001
 44
0.0000000001
 40
0.0
 40
0.0
 40
0.0
 40
0.0
 40
0.1256766858
 40
0.2507740675
 40
0.3754840685
 40
0.5
 40
0.6245159315
 40
0.7492259325
 40
0.8743233142
 40
1.0
 40
1.0
 40
1.0
 40
1.0
 10
134.1274993948
 20
104.1234204793
 30
0.0
 10
133.2734233916
 20
104.1210639168
 30
0.0
 10
131.5644115663
 20
103.9554591437
 30
0.0
 10
129.1084692186
 20
103.2057414491
 30
0.0
 10
126.8515883508
 20
101.9970095096
 30
0.0
 10
124.8763768002
 20
100.3745430739
 30
0.0
 10
123.2539103645
 20
98.3993315234
 30
0.0
 10
122.045178425
 20
96.1424506556
 30
0.0
 10
121.2954607304
 20
93.6865083078
 30
0.0
 10
121.1298559573
 20
91.9774964825
 30
0.0
 10
121.1274993948
 20
91.1234204793
 30
0.0
  0
SPLINE
  5
392
100
AcDbEntity
  8
INTFCLR_3
100
AcDbSpline
 62
7
  6
CONTINUOUS
 70
0
 71
3
 72
15
 73
11
 74
0
 42
0.0000001
 43
0.0000001
 44
0.0000000001
 40
0.0
 40
0.0
 40
0.0
 40
0.0
 40
0.1256766858
 40
0.2507740675
 40
0.3754840685
 40
0.5
 40
0.6245159315
 40
0.7492259325
 40
0.8743233142
 40
1.0
 40
1.0
 40
1.0
 40
1.0
 10
147.1274993948
 20
91.1234204793
 30
0.0
 10
147.1251428324
 20
91.9774964825
 30
0.0
 10
146.9595380593
 20
93.6865083078
 30
0.0
 10
146.2098203646
 20
96.1424506556
 30
0.0
 10
145.0010884251
 20
98.3993315234
 30
0.0
 10
143.3786219894
 20
100.3745430739
 30
0.0
 10
141.4034104389
 20
101.9970095096
 30
0.0
 10
139.1465295711
 20
103.2057414491
 30
0.0
 10
136.6905872233
 20
103.9554591437
 30
0.0
 10
134.981575398
 20
104.1210639168
 30
0.0
 10
134.1274993948
 20
104.1234204793
 30
0.0
  0
SPLINE
  5
393
100
AcDbEntity
  8
INTFCLR_3
100
AcDbSpline
 62
7
  6
CONTINUOUS
 70
0
 71
3
 72
15
 73
11
 74
0
 42
0.0000001
 43
0.0000001
 44
0.0000000001
 40
0.0
 40
0.0
 40
0.0
 40
0.0
 40
0.1256766858
 40
0.2507740675
 40
0.3754840685
 40
0.5
 40
0.6245159315
 40
0.7492259325
 40
0.8743233142
 40
1.0
 40
1.0
 40
1.0
 40
1.0
 10
57.1274993948
 20
91.1234204793
 30
0.0
 10
57.1251428324
 20
91.9774964825
 30
0.0
 10
56.9595380593
 20
93.6865083078
 30
0.0
 10
56.2098203646
 20
96.1424506556
 30
0.0
 10
55.0010884251
 20
98.3993315234
 30
0.0
 10
53.3786219894
 20
100.3745430739
 30
0.0
 10
51.4034104389
 20
101.9970095096
 30
0.0
 10
49.1465295711
 20
103.2057414491
 30
0.0
 10
46.6905872233
 20
103.9554591437
 30
0.0
 10
44.981575398
 20
104.1210639168
 30
0.0
 10
44.1274993948
 20
104.1234204793
 30
0.0
  0
SPLINE
  5
394
100
AcDbEntity
  8
INTFCLR_3
100
AcDbSpline
 62
7
  6
CONTINUOUS
 70
0
 71
3
 72
15
 73
11
 74
0
 42
0.0000001
 43
0.0000001
 44
0.0000000001
 40
0.0
 40
0.0
 40
0.0
 40
0.0
 40
0.1256766858
 40
0.2507740675
 40
0.3754840685
 40
0.5
 40
0.6245159315
 40
0.7492259325
 40
0.8743233142
 40
1.0
 40
1.0
 40
1.0
 40
1.0
 10
44.1274993948
 20
104.1234204793
 30
0.0
 10
43.2734233916
 20
104.1210639168
 30
0.0
 10
41.5644115663
 20
103.9554591437
 30
0.0
 10
39.1084692186
 20
103.2057414491
 30
0.0
 10
36.8515883508
 20
101.9970095096
 30
0.0
 10
34.8763768002
 20
100.3745430739
 30
0.0
 10
33.2539103645
 20
98.3993315234
 30
0.0
 10
32.045178425
 20
96.1424506556
 30
0.0
 10
31.2954607304
 20
93.6865083078
 30
0.0
 10
31.1298559573
 20
91.9774964825
 30
0.0
 10
31.1274993948
 20
91.1234204793
 30
0.0
  0
SPLINE
  5
395
100
AcDbEntity
  8
INTFCLR_3
100
AcDbSpline
 62
7
  6
CONTINUOUS
 70
0
 71
3
 72
17
 73
13
 74
0
 42
0.0000001
 43
0.0000001
 44
0.0000000001
 40
0.0
 40
0.0
 40
0.0
 40
0.0
 40
0.1006423538
 40
0.2008591078
 40
0.3007548224
 40
0.4004270844
 40
0.4999878817
 40
0.5995496559
 40
0.6992248416
 40
0.7991254207
 40
0.8993489597
 40
1.0
 40
1.0
 40
1.0
 40
1.0
 10
158.9774993948
 20
101.577836067
 30
0.0
 10
158.7203793272
 20
101.5950283451
 30
0.0
 10
158.2080366763
 20
101.7015506566
 30
0.0
 10
157.528059235
 20
102.0876749213
 30
0.0
 10
156.9946553669
 20
102.6557561005
 30
0.0
 10
156.6552365197
 20
103.3554250637
 30
0.0
 10
156.5387237571
 20
104.1233274034
 30
0.0
 10
156.6551820751
 20
104.8912458995
 30
0.0
 10
156.9945646569
 20
105.5909586285
 30
0.0
 10
157.5279642723
 20
106.159097107
 30
0.0
 10
158.2079747643
 20
106.5452743667
 30
0.0
 10
158.7203572532
 20
106.6518093596
 30
0.0
 10
158.9774993948
 20
106.6690048916
 30
0.0
  0
SPLINE
  5
396
100
AcDbEntity
  8
INTFCLR_3
100
AcDbSpline
 62
7
  6
CONTINUOUS
 70
0
 71
3
 72
17
 73
13
 74
0
 42
0.0000001
 43
0.0000001
 44
0.0000000001
 40
0.0
 40
0.0
 40
0.0
 40
0.0
 40
0.1005516952
 40
0.2007376561
 40
0.3006479981
 40
0.4003665234
 40
0.4999894081
 40
0.5996131455
 40
0.6993342239
 40
0.7992488154
 40
0.899440707
 40
1.0
 40
1.0
 40
1.0
 40
1.0
 10
52.9374993948
 20
114.8534204793
 30
0.0
 10
52.6604140493
 20
114.8252575704
 30
0.0
 10
52.0962654947
 20
114.8411932786
 30
0.0
 10
51.2941883166
 20
115.1027689881
 30
0.0
 10
50.5967522056
 20
115.5731910095
 30
0.0
 10
50.0572482313
 20
116.2166949574
 30
0.0
 10
49.7159593209
 20
116.9829960247
 30
0.0
 10
49.5986800332
 20
117.813630309
 30
0.0
 10
49.7145764931
 20
118.6453556198
 30
0.0
 10
50.0561932968
 20
119.4141686113
 30
0.0
 10
50.5973395778
 20
120.0614686057
 30
0.0
 10
51.0671316544
 20
120.3742897167
 30
0.0
 10
51.3169695136
 20
120.4974246228
 30
0.0
  0
SPLINE
  5
397
100
AcDbEntity
  8
INTFCLR_3
100
AcDbSpline
 62
7
  6
CONTINUOUS
 70
0
 71
3
 72
17
 73
13
 74
0
 42
0.0000001
 43
0.0000001
 44
0.0000000001
 40
0.0
 40
0.0
 40
0.0
 40
0.0
 40
0.1005516952
 40
0.2007376561
 40
0.3006479982
 40
0.4003665234
 40
0.4999894081
 40
0.5996131455
 40
0.6993342239
 40
0.7992488154
 40
0.899440707
 40
1.0
 40
1.0
 40
1.0
 40
1.0
 10
36.928029276
 20
120.4974246228
 30
0.0
 10
37.1778489302
 20
120.3743003826
 30
0.0
 10
37.6476105879
 20
120.0615040855
 30
0.0
 10
38.1887437304
 20
119.4142602571
 30
0.0
 10
38.5303794299
 20
118.6454956273
 30
0.0
 10
38.6463175327
 20
117.8137984314
 30
0.0
 10
38.5290878557
 20
116.9831645476
 30
0.0
 10
38.1878407868
 20
116.2168368217
 30
0.0
 10
37.6483571969
 20
115.5732869494
 30
0.0
 10
36.9509114469
 20
115.1028139084
 30
0.0
 10
36.1487933348
 20
114.8411975585
 30
0.0
 10
35.5846058307
 20
114.8252569536
 30
0.0
 10
35.3074993948
 20
114.8534204793
 30
0.0
  0
SPLINE
  5
398
100
AcDbEntity
  8
INTFCLR_3
100
AcDbSpline
 62
7
  6
CONTINUOUS
 70
0
 71
3
 72
17
 73
13
 74
0
 42
0.0000001
 43
0.0000001
 44
0.0000000001
 40
0.0
 40
0.0
 40
0.0
 40
0.0
 40
0.1005516952
 40
0.2007376561
 40
0.3006479981
 40
0.4003665234
 40
0.4999894081
 40
0.5996131455
 40
0.6993342239
 40
0.7992488154
 40
0.899440707
 40
1.0
 40
1.0
 40
1.0
 40
1.0
 10
97.9474993948
 20
114.8534204793
 30
0.0
 10
97.6704140493
 20
114.8252575704
 30
0.0
 10
97.1062654947
 20
114.8411932786
 30
0.0
 10
96.3041883166
 20
115.1027689881
 30
0.0
 10
95.6067522056
 20
115.5731910095
 30
0.0
 10
95.0672482313
 20
116.2166949574
 30
0.0
 10
94.7259593209
 20
116.9829960247
 30
0.0
 10
94.6086800332
 20
117.813630309
 30
0.0
 10
94.7245764931
 20
118.6453556198
 30
0.0
 10
95.0661932968
 20
119.4141686113
 30
0.0
 10
95.6073395778
 20
120.0614686057
 30
0.0
 10
96.0771316544
 20
120.3742897167
 30
0.0
 10
96.3269695136
 20
120.4974246228
 30
0.0
  0
SPLINE
  5
399
100
AcDbEntity
  8
INTFCLR_3
100
AcDbSpline
 62
7
  6
CONTINUOUS
 70
0
 71
3
 72
17
 73
13
 74
0
 42
0.0000001
 43
0.0000001
 44
0.0000000001
 40
0.0
 40
0.0
 40
0.0
 40
0.0
 40
0.1005516952
 40
0.2007376561
 40
0.3006479981
 40
0.4003665234
 40
0.4999894081
 40
0.5996131455
 40
0.6993342239
 40
0.7992488154
 40
0.899440707
 40
1.0
 40
1.0
 40
1.0
 40
1.0
 10
81.9380292761
 20
120.4974246228
 30
0.0
 10
82.1878489302
 20
120.3743003826
 30
0.0
 10
82.6576105879
 20
120.0615040855
 30
0.0
 10
83.1987437304
 20
119.4142602571
 30
0.0
 10
83.5403794299
 20
118.6454956273
 30
0.0
 10
83.6563175327
 20
117.8137984314
 30
0.0
 10
83.5390878557
 20
116.9831645476
 30
0.0
 10
83.1978407868
 20
116.2168368217
 30
0.0
 10
82.6583571969
 20
115.5732869494
 30
0.0
 10
81.9609114469
 20
115.1028139084
 30
0.0
 10
81.1587933348
 20
114.8411975585
 30
0.0
 10
80.5946058307
 20
114.8252569536
 30
0.0
 10
80.3174993948
 20
114.8534204793
 30
0.0
  0
SPLINE
  5
39A
100
AcDbEntity
  8
INTFCLR_3
100
AcDbSpline
 62
7
  6
CONTINUOUS
 70
0
 71
3
 72
17
 73
13
 74
0
 42
0.0000001
 43
0.0000001
 44
0.0000000001
 40
0.0
 40
0.0
 40
0.0
 40
0.0
 40
0.1005516952
 40
0.2007376561
 40
0.3006479981
 40
0.4003665234
 40
0.4999894081
 40
0.5996131455
 40
0.6993342239
 40
0.7992488154
 40
0.899440707
 40
1.0
 40
1.0
 40
1.0
 40
1.0
 10
142.9574993948
 20
114.8534204793
 30
0.0
 10
142.6804140493
 20
114.8252575704
 30
0.0
 10
142.1162654947
 20
114.8411932786
 30
0.0
 10
141.3141883166
 20
115.1027689881
 30
0.0
 10
140.6167522056
 20
115.5731910095
 30
0.0
 10
140.0772482313
 20
116.2166949574
 30
0.0
 10
139.7359593209
 20
116.9829960247
 30
0.0
 10
139.6186800332
 20
117.813630309
 30
0.0
 10
139.7345764931
 20
118.6453556198
 30
0.0
 10
140.0761932968
 20
119.4141686113
 30
0.0
 10
140.6173395778
 20
120.0614686057
 30
0.0
 10
141.0871316544
 20
120.3742897167
 30
0.0
 10
141.3369695136
 20
120.4974246228
 30
0.0
  0
SPLINE
  5
39B
100
AcDbEntity
  8
INTFCLR_3
100
AcDbSpline
 62
7
  6
CONTINUOUS
 70
0
 71
3
 72
17
 73
13
 74
0
 42
0.0000001
 43
0.0000001
 44
0.0000000001
 40
0.0
 40
0.0
 40
0.0
 40
0.0
 40
0.1005516952
 40
0.2007376561
 40
0.3006479981
 40
0.4003665234
 40
0.4999894081
 40
0.5996131455
 40
0.6993342239
 40
0.7992488154
 40
0.899440707
 40
1.0
 40
1.0
 40
1.0
 40
1.0
 10
126.9480292761
 20
120.4974246228
 30
0.0
 10
127.1978489302
 20
120.3743003826
 30
0.0
 10
127.6676105879
 20
120.0615040855
 30
0.0
 10
128.2087437304
 20
119.4142602571
 30
0.0
 10
128.5503794299
 20
118.6454956273
 30
0.0
 10
128.6663175327
 20
117.8137984314
 30
0.0
 10
128.5490878557
 20
116.9831645476
 30
0.0
 10
128.2078407868
 20
116.2168368217
 30
0.0
 10
127.6683571969
 20
115.5732869494
 30
0.0
 10
126.9709114469
 20
115.1028139084
 30
0.0
 10
126.1687933348
 20
114.8411975585
 30
0.0
 10
125.6046058307
 20
114.8252569536
 30
0.0
 10
125.3274993948
 20
114.8534204793
 30
0.0
  0
SPLINE
  5
39C
100
AcDbEntity
  8
INTFCLR_3
100
AcDbSpline
 62
7
  6
CONTINUOUS
 70
0
 71
3
 72
15
 73
11
 74
0
 42
0.0000001
 43
0.0000001
 44
0.0000000001
 40
0.0
 40
0.0
 40
0.0
 40
0.0
 40
0.1269478466
 40
0.2522324862
 40
0.3763979317
 40
0.5
 40
0.6236020684
 40
0.7477675138
 40
0.8730521534
 40
1.0
 40
1.0
 40
1.0
 40
1.0
 10
81.7369275246
 20
167.2580435231
 30
0.0
 10
81.8914637345
 20
167.2952541282
 30
0.0
 10
82.1906475152
 20
167.4161174894
 30
0.0
 10
82.5465508892
 20
167.7389989708
 30
0.0
 10
82.7751105149
 20
168.1562448117
 30
0.0
 10
82.8535830978
 20
168.6234204793
 30
0.0
 10
82.7751105149
 20
169.0905961469
 30
0.0
 10
82.5465508892
 20
169.5078419878
 30
0.0
 10
82.1906475152
 20
169.8307234692
 30
0.0
 10
81.8914637345
 20
169.9515868304
 30
0.0
 10
81.7369275246
 20
169.9887974355
 30
0.0
  0
SPLINE
  5
39D
100
AcDbEntity
  8
INTFCLR_3
100
AcDbSpline
 62
7
  6
CONTINUOUS
 70
0
 71
3
 72
15
 73
11
 74
0
 42
0.0000001
 43
0.0000001
 44
0.0000000001
 40
0.0
 40
0.0
 40
0.0
 40
0.0
 40
0.1269478466
 40
0.2522324862
 40
0.3763979316
 40
0.5
 40
0.6236020683
 40
0.7477675138
 40
0.8730521534
 40
1.0
 40
1.0
 40
1.0
 40
1.0
 10
66.818071265
 20
169.9887974355
 30
0.0
 10
66.6635350551
 20
169.9515868304
 30
0.0
 10
66.3643512745
 20
169.8307234692
 30
0.0
 10
66.0084479004
 20
169.5078419878
 30
0.0
 10
65.7798882748
 20
169.0905961469
 30
0.0
 10
65.7014156919
 20
168.6234204793
 30
0.0
 10
65.7798882748
 20
168.1562448117
 30
0.0
 10
66.0084479004
 20
167.7389989708
 30
0.0
 10
66.3643512745
 20
167.4161174894
 30
0.0
 10
66.6635350552
 20
167.2952541282
 30
0.0
 10
66.8180712651
 20
167.2580435231
 30
0.0
  0
SPLINE
  5
39E
100
AcDbEntity
  8
INTFCLR_3
100
AcDbSpline
 62
7
  6
CONTINUOUS
 70
0
 71
3
 72
15
 73
11
 74
0
 42
0.0000001
 43
0.0000001
 44
0.0000000001
 40
0.0
 40
0.0
 40
0.0
 40
0.0
 40
0.1271651494
 40
0.2516421134
 40
0.3743791938
 40
0.4987444213
 40
0.6230100771
 40
0.7463537061
 40
0.8721420081
 40
1.0
 40
1.0
 40
1.0
 40
1.0
 10
25.1774993948
 20
120.0734204793
 30
0.0
 10
25.1753259686
 20
120.1726289794
 30
0.0
 10
25.1384460469
 20
120.3712755879
 30
0.0
 10
24.9691656771
 20
120.6190228225
 30
0.0
 10
24.7220999615
 20
120.7838342401
 30
0.0
 10
24.4306475697
 20
120.8426805266
 30
0.0
 10
24.1382754931
 20
120.7861249788
 30
0.0
 10
23.8887015972
 20
120.6223069126
 30
0.0
 10
23.7171500248
 20
120.3734152151
 30
0.0
 10
23.6795453285
 20
120.1731724589
 30
0.0
 10
23.6774993948
 20
120.0734204793
 30
0.0
  0
SPLINE
  5
39F
100
AcDbEntity
  8
INTFCLR_3
100
AcDbSpline
 62
7
  6
CONTINUOUS
 70
0
 71
3
 72
16
 73
12
 74
0
 42
0.0000001
 43
0.0000001
 44
0.0000000001
 40
0.0
 40
0.0
 40
0.0
 40
0.0
 40
0.1115101736
 40
0.2227207926
 40
0.333716396
 40
0.4445924453
 40
0.5554246207
 40
0.6662989573
 40
0.7772911385
 40
0.8884966367
 40
1.0
 40
1.0
 40
1.0
 40
1.0
 10
148.6803496366
 20
129.4985768131
 30
0.0
 10
148.9679892261
 20
129.9382533269
 30
0.0
 10
149.4496473024
 20
130.8823038209
 30
0.0
 10
149.8286677589
 20
132.4219732506
 30
0.0
 10
149.8538361261
 20
134.0046077496
 30
0.0
 10
149.5235336579
 20
135.5507562241
 30
0.0
 10
148.8556016289
 20
136.9830757502
 30
0.0
 10
147.8834713627
 20
138.2298952754
 30
0.0
 10
146.6549357341
 20
139.2278477631
 30
0.0
 10
145.231903849
 20
139.9271205012
 30
0.0
 10
144.1991706816
 20
140.1649556389
 30
0.0
 10
143.6774993948
 20
140.2272237789
 30
0.0
  0
SPLINE
  5
3A0
100
AcDbEntity
  8
INTFCLR_3
100
AcDbSpline
 62
7
  6
CONTINUOUS
 70
0
 71
3
 72
14
 73
10
 74
0
 42
0.0000001
 43
0.0000001
 44
0.0000000001
 40
0.0
 40
0.0
 40
0.0
 40
0.0
 40
0.1432840355
 40
0.2861435998
 40
0.4287374646
 40
0.5712420088
 40
0.713839303
 40
0.856705718
 40
1.0
 40
1.0
 40
1.0
 40
1.0
 10
138.1031093285
 20
128.2729057041
 30
0.0
 10
138.4688180257
 20
127.9293390688
 30
0.0
 10
139.2730579087
 20
127.3164520593
 30
0.0
 10
140.6473896201
 20
126.6838420689
 30
0.0
 10
142.1226549854
 20
126.3599945963
 30
0.0
 10
143.6321385939
 20
126.3599709318
 30
0.0
 10
145.107448964
 20
126.6837844123
 30
0.0
 10
146.4818616991
 20
127.3163953639
 30
0.0
 10
147.2861527571
 20
127.929316474
 30
0.0
 10
147.6518894611
 20
128.2729057041
 30
0.0
  0
SPLINE
  5
3A1
100
AcDbEntity
  8
INTFCLR_3
100
AcDbSpline
 62
7
  6
CONTINUOUS
 70
0
 71
3
 72
16
 73
12
 74
0
 42
0.0000001
 43
0.0000001
 44
0.0000000001
 40
0.0
 40
0.0
 40
0.0
 40
0.0
 40
0.1115101736
 40
0.2227207926
 40
0.333716396
 40
0.4445924453
 40
0.5554246207
 40
0.6662989573
 40
0.7772911385
 40
0.8884966367
 40
1.0
 40
1.0
 40
1.0
 40
1.0
 10
142.0774993948
 20
140.2272237789
 30
0.0
 10
141.5557964805
 20
140.1649498727
 30
0.0
 10
140.523008002
 20
139.9270974051
 30
0.0
 10
139.0999231379
 20
139.2277634872
 30
0.0
 10
137.8713768598
 20
138.2297457284
 30
0.0
 10
136.8992727467
 20
136.982874276
 30
0.0
 10
136.2313907653
 20
135.5505314122
 30
0.0
 10
135.9011448865
 20
134.0043962816
 30
0.0
 10
135.926356409
 20
132.421811896
 30
0.0
 10
136.3053896777
 20
130.8822223761
 30
0.0
 10
136.7870254762
 20
129.9382253923
 30
0.0
 10
137.074649153
 20
129.4985768131
 30
0.0
  0
SPLINE
  5
3A2
100
AcDbEntity
  8
INTFCLR_3
100
AcDbSpline
 62
7
  6
CONTINUOUS
 70
0
 71
3
 72
14
 73
10
 74
0
 42
0.0000001
 43
0.0000001
 44
0.0000000001
 40
0.0
 40
0.0
 40
0.0
 40
0.0
 40
0.1435190796
 40
0.2863804032
 40
0.4288292691
 40
0.5711393721
 40
0.7135934855
 40
0.8564652826
 40
1.0
 40
1.0
 40
1.0
 40
1.0
 10
142.0774993948
 20
137.5228996137
 30
0.0
 10
141.6989029267
 20
137.4484251529
 30
0.0
 10
140.9576746772
 20
137.2032199935
 30
0.0
 10
139.9921577172
 20
136.5478342561
 30
0.0
 10
139.2371461474
 20
135.6624871096
 30
0.0
 10
138.7457669826
 20
134.608803588
 30
0.0
 10
138.5527942472
 20
133.4613085892
 30
0.0
 10
138.671322541
 20
132.3003131125
 30
0.0
 10
138.9599585357
 20
131.5748146374
 30
0.0
 10
139.1462816522
 20
131.2368828791
 30
0.0
  0
SPLINE
  5
3A3
100
AcDbEntity
  8
INTFCLR_3
100
AcDbSpline
 62
7
  6
CONTINUOUS
 70
0
 71
3
 72
12
 73
8
 74
0
 42
0.0000001
 43
0.0000001
 44
0.0000000001
 40
0.0
 40
0.0
 40
0.0
 40
0.0
 40
0.2016681718
 40
0.4008358177
 40
0.5991641823
 40
0.7983318282
 40
1.0
 40
1.0
 40
1.0
 40
1.0
 10
140.1747418277
 20
130.0112117701
 30
0.0
 10
140.4805971098
 20
129.7657955918
 30
0.0
 10
141.1535218293
 20
129.3508741155
 30
0.0
 10
142.2903948523
 20
129.0357433516
 30
0.0
 10
143.4646039373
 20
129.0357433516
 30
0.0
 10
144.6014769604
 20
129.3508741155
 30
0.0
 10
145.2744016799
 20
129.7657955918
 30
0.0
 10
145.5802569619
 20
130.0112117701
 30
0.0
  0
SPLINE
  5
3A4
100
AcDbEntity
  8
INTFCLR_3
100
AcDbSpline
 62
7
  6
CONTINUOUS
 70
0
 71
3
 72
14
 73
10
 74
0
 42
0.0000001
 43
0.0000001
 44
0.0000000001
 40
0.0
 40
0.0
 40
0.0
 40
0.0
 40
0.1435190796
 40
0.2863804032
 40
0.4288292691
 40
0.5711393721
 40
0.7135934855
 40
0.8564652826
 40
1.0
 40
1.0
 40
1.0
 40
1.0
 10
146.6087171374
 20
131.2368828791
 30
0.0
 10
146.7950235094
 20
131.5747758603
 30
0.0
 10
147.0836377944
 20
132.3002044802
 30
0.0
 10
147.202205531
 20
133.4611072137
 30
0.0
 10
147.0093023514
 20
134.6085698073
 30
0.0
 10
146.5179863837
 20
135.6622827982
 30
0.0
 10
145.7629946997
 20
136.5477040572
 30
0.0
 10
144.7974320476
 20
137.2031796237
 30
0.0
 10
144.0561363311
 20
137.4484130546
 30
0.0
 10
143.6774993948
 20
137.5228996137
 30
0.0
  0
SPLINE
  5
3A5
100
AcDbEntity
  8
INTFCLR_3
100
AcDbSpline
 62
7
  6
CONTINUOUS
 70
0
 71
3
 72
16
 73
12
 74
0
 42
0.0000001
 43
0.0000001
 44
0.0000000001
 40
0.0
 40
0.0
 40
0.0
 40
0.0
 40
0.1118522574
 40
0.2227870728
 40
0.3324619687
 40
0.4432843727
 40
0.5542193281
 40
0.6650477348
 40
0.7755587114
 40
0.8876161946
 40
1.0
 40
1.0
 40
1.0
 40
1.0
 10
144.4274993948
 20
133.3234204793
 30
0.0
 10
144.4251944985
 20
133.5040365056
 30
0.0
 10
144.3643536884
 20
133.8670125944
 30
0.0
 10
144.0880557437
 20
134.340362587
 30
0.0
 10
143.6703996922
 20
134.6915890184
 30
0.0
 10
143.1576728191
 20
134.8800196095
 30
0.0
 10
142.6096511534
 20
134.882188996
 30
0.0
 10
142.0941593967
 20
134.6973655707
 30
0.0
 10
141.6715305438
 20
134.3467269509
 30
0.0
 10
141.3915487751
 20
133.8705858309
 30
0.0
 10
141.3295452427
 20
133.5048980797
 30
0.0
 10
141.3274993948
 20
133.3234204793
 30
0.0
  0
SPLINE
  5
3A6
100
AcDbEntity
  8
INTFCLR_3
100
AcDbSpline
 62
7
  6
CONTINUOUS
 70
0
 71
3
 72
16
 73
12
 74
0
 42
0.0000001
 43
0.0000001
 44
0.0000000001
 40
0.0
 40
0.0
 40
0.0
 40
0.0
 40
0.1118522574
 40
0.2227870728
 40
0.3324619687
 40
0.4432843727
 40
0.5542193281
 40
0.6650477348
 40
0.7755587114
 40
0.8876161946
 40
1.0
 40
1.0
 40
1.0
 40
1.0
 10
141.3274993948
 20
133.3234204793
 30
0.0
 10
141.3298042912
 20
133.142804453
 30
0.0
 10
141.3906451013
 20
132.7798283642
 30
0.0
 10
141.6669430459
 20
132.3064783716
 30
0.0
 10
142.0845990975
 20
131.9552519402
 30
0.0
 10
142.5973259706
 20
131.7668213491
 30
0.0
 10
143.1453476362
 20
131.7646519626
 30
0.0
 10
143.6608393929
 20
131.9494753879
 30
0.0
 10
144.0834682458
 20
132.3001140078
 30
0.0
 10
144.3634500146
 20
132.7762551277
 30
0.0
 10
144.4254535469
 20
133.1419428789
 30
0.0
 10
144.4274993948
 20
133.3234204793
 30
0.0
  0
SPLINE
  5
3A7
100
AcDbEntity
  8
INTFCLR_3
100
AcDbSpline
 62
7
  6
CONTINUOUS
 70
0
 71
3
 72
15
 73
11
 74
0
 42
0.0000001
 43
0.0000001
 44
0.0000000001
 40
0.0
 40
0.0
 40
0.0
 40
0.0
 40
0.1271651494
 40
0.2516421134
 40
0.3743791938
 40
0.4987444213
 40
0.6230100771
 40
0.7463537061
 40
0.8721420081
 40
1.0
 40
1.0
 40
1.0
 40
1.0
 10
143.6274993948
 20
133.3234204793
 30
0.0
 10
143.6253259686
 20
133.4226289794
 30
0.0
 10
143.5884460469
 20
133.6212755879
 30
0.0
 10
143.4191656771
 20
133.8690228225
 30
0.0
 10
143.1720999615
 20
134.0338342401
 30
0.0
 10
142.8806475697
 20
134.0926805266
 30
0.0
 10
142.5882754931
 20
134.0361249788
 30
0.0
 10
142.3387015972
 20
133.8723069126
 30
0.0
 10
142.1671500248
 20
133.6234152151
 30
0.0
 10
142.1295453285
 20
133.4231724589
 30
0.0
 10
142.1274993948
 20
133.3234204793
 30
0.0
  0
SPLINE
  5
3A8
100
AcDbEntity
  8
INTFCLR_3
100
AcDbSpline
 62
7
  6
CONTINUOUS
 70
0
 71
3
 72
15
 73
11
 74
0
 42
0.0000001
 43
0.0000001
 44
0.0000000001
 40
0.0
 40
0.0
 40
0.0
 40
0.0
 40
0.1271651494
 40
0.2516421134
 40
0.3743791938
 40
0.4987444213
 40
0.6230100771
 40
0.7463537061
 40
0.8721420081
 40
1.0
 40
1.0
 40
1.0
 40
1.0
 10
142.1274993948
 20
133.3234204793
 30
0.0
 10
142.1296728211
 20
133.2242119792
 30
0.0
 10
142.1665527428
 20
133.0255653707
 30
0.0
 10
142.3358331125
 20
132.7778181361
 30
0.0
 10
142.5828988282
 20
132.6130067185
 30
0.0
 10
142.87435122
 20
132.554160432
 30
0.0
 10
143.1667232966
 20
132.6107159798
 30
0.0
 10
143.4162971924
 20
132.774534046
 30
0.0
 10
143.5878487649
 20
133.0234257435
 30
0.0
 10
143.6254534611
 20
133.2236684997
 30
0.0
 10
143.6274993948
 20
133.3234204793
 30
0.0
  0
SPLINE
  5
3A9
100
AcDbEntity
  8
INTFCLR_3
100
AcDbSpline
 62
7
  6
CONTINUOUS
 70
0
 71
3
 72
15
 73
11
 74
0
 42
0.0000001
 43
0.0000001
 44
0.0000000001
 40
0.0
 40
0.0
 40
0.0
 40
0.0
 40
0.1271651494
 40
0.2516421134
 40
0.3743791938
 40
0.4987444213
 40
0.6230100771
 40
0.7463537061
 40
0.8721420081
 40
1.0
 40
1.0
 40
1.0
 40
1.0
 10
144.9624993948
 20
135.5234204793
 30
0.0
 10
144.960137605
 20
135.6312270494
 30
0.0
 10
144.9200614234
 20
135.8470896973
 30
0.0
 10
144.7361100882
 20
136.1163083589
 30
0.0
 10
144.4676320106
 20
136.2954034327
 30
0.0
 10
144.1509204115
 20
136.3593497307
 30
0.0
 10
143.8332094216
 20
136.2978927021
 30
0.0
 10
143.5620057881
 20
136.1198770702
 30
0.0
 10
143.3755864127
 20
135.8494147589
 30
0.0
 10
143.3347226428
 20
135.6318176305
 30
0.0
 10
143.3324993948
 20
135.5234204793
 30
0.0
  0
SPLINE
  5
3AA
100
AcDbEntity
  8
INTFCLR_3
100
AcDbSpline
 62
7
  6
CONTINUOUS
 70
0
 71
3
 72
15
 73
11
 74
0
 42
0.0000001
 43
0.0000001
 44
0.0000000001
 40
0.0
 40
0.0
 40
0.0
 40
0.0
 40
0.1271651494
 40
0.2516421134
 40
0.3743791938
 40
0.4987444213
 40
0.6230100771
 40
0.7463537061
 40
0.8721420081
 40
1.0
 40
1.0
 40
1.0
 40
1.0
 10
143.3324993948
 20
135.5234204793
 30
0.0
 10
143.3348611847
 20
135.4156139092
 30
0.0
 10
143.3749373662
 20
135.1997512613
 30
0.0
 10
143.5588887014
 20
134.9305325997
 30
0.0
 10
143.8273667791
 20
134.7514375259
 30
0.0
 10
144.1440783782
 20
134.6874912279
 30
0.0
 10
144.461789368
 20
134.7489482565
 30
0.0
 10
144.7329930016
 20
134.9269638884
 30
0.0
 10
144.9194123769
 20
135.1974261997
 30
0.0
 10
144.9602761469
 20
135.4150233281
 30
0.0
 10
144.9624993948
 20
135.5234204793
 30
0.0
  0
SPLINE
  5
3AB
100
AcDbEntity
  8
INTFCLR_3
100
AcDbSpline
 62
7
  6
CONTINUOUS
 70
0
 71
3
 72
15
 73
11
 74
0
 42
0.0000001
 43
0.0000001
 44
0.0000000001
 40
0.0
 40
0.0
 40
0.0
 40
0.0
 40
0.1271651494
 40
0.2516421134
 40
0.3743791938
 40
0.4987444213
 40
0.6230100771
 40
0.7463537061
 40
0.8721420081
 40
1.0
 40
1.0
 40
1.0
 40
1.0
 10
142.4224993948
 20
135.5234204793
 30
0.0
 10
142.420137605
 20
135.6312270494
 30
0.0
 10
142.3800614234
 20
135.8470896973
 30
0.0
 10
142.1961100882
 20
136.1163083589
 30
0.0
 10
141.9276320106
 20
136.2954034327
 30
0.0
 10
141.6109204115
 20
136.3593497307
 30
0.0
 10
141.2932094216
 20
136.2978927021
 30
0.0
 10
141.0220057881
 20
136.1198770702
 30
0.0
 10
140.8355864127
 20
135.8494147589
 30
0.0
 10
140.7947226428
 20
135.6318176305
 30
0.0
 10
140.7924993948
 20
135.5234204793
 30
0.0
  0
SPLINE
  5
3AC
100
AcDbEntity
  8
INTFCLR_3
100
AcDbSpline
 62
7
  6
CONTINUOUS
 70
0
 71
3
 72
15
 73
11
 74
0
 42
0.0000001
 43
0.0000001
 44
0.0000000001
 40
0.0
 40
0.0
 40
0.0
 40
0.0
 40
0.1271651494
 40
0.2516421134
 40
0.3743791938
 40
0.4987444213
 40
0.6230100771
 40
0.7463537061
 40
0.8721420081
 40
1.0
 40
1.0
 40
1.0
 40
1.0
 10
140.7924993948
 20
135.5234204793
 30
0.0
 10
140.7948611847
 20
135.4156139092
 30
0.0
 10
140.8349373662
 20
135.1997512613
 30
0.0
 10
141.0188887014
 20
134.9305325997
 30
0.0
 10
141.2873667791
 20
134.7514375259
 30
0.0
 10
141.6040783782
 20
134.6874912279
 30
0.0
 10
141.921789368
 20
134.7489482565
 30
0.0
 10
142.1929930016
 20
134.9269638884
 30
0.0
 10
142.3794123769
 20
135.1974261997
 30
0.0
 10
142.4202761469
 20
135.4150233281
 30
0.0
 10
142.4224993948
 20
135.5234204793
 30
0.0
  0
SPLINE
  5
3AD
100
AcDbEntity
  8
INTFCLR_3
100
AcDbSpline
 62
7
  6
CONTINUOUS
 70
0
 71
3
 72
15
 73
11
 74
0
 42
0.0000001
 43
0.0000001
 44
0.0000000001
 40
0.0
 40
0.0
 40
0.0
 40
0.0
 40
0.1265481944
 40
0.2515787079
 40
0.3752058437
 40
0.4976374754
 40
0.6209910678
 40
0.7449631207
 40
0.8714406099
 40
1.0
 40
1.0
 40
1.0
 40
1.0
 10
144.9624993948
 20
131.1234204793
 30
0.0
 10
144.9605004772
 20
131.2307111242
 30
0.0
 10
144.9201439071
 20
131.4464751375
 30
0.0
 10
144.7362509154
 20
131.7165700592
 30
0.0
 10
144.4677230026
 20
131.8951665878
 30
0.0
 10
144.1530049253
 20
131.9588399384
 30
0.0
 10
143.8369963782
 20
131.899374331
 30
0.0
 10
143.5644566729
 20
131.7225932468
 30
0.0
 10
143.3760664502
 20
131.4512299229
 30
0.0
 10
143.3347633871
 20
131.2324116685
 30
0.0
 10
143.3324993948
 20
131.1234204793
 30
0.0
  0
SPLINE
  5
3AE
100
AcDbEntity
  8
INTFCLR_3
100
AcDbSpline
 62
7
  6
CONTINUOUS
 70
0
 71
3
 72
15
 73
11
 74
0
 42
0.0000001
 43
0.0000001
 44
0.0000000001
 40
0.0
 40
0.0
 40
0.0
 40
0.0
 40
0.1271651494
 40
0.2516421134
 40
0.3743791938
 40
0.4987444213
 40
0.6230100771
 40
0.7463537061
 40
0.8721420081
 40
1.0
 40
1.0
 40
1.0
 40
1.0
 10
143.3324993948
 20
131.1234204793
 30
0.0
 10
143.3348611847
 20
131.0156139092
 30
0.0
 10
143.3749373662
 20
130.7997512613
 30
0.0
 10
143.5588887014
 20
130.5305325997
 30
0.0
 10
143.8273667791
 20
130.3514375259
 30
0.0
 10
144.1440783782
 20
130.2874912279
 30
0.0
 10
144.461789368
 20
130.3489482565
 30
0.0
 10
144.7329930016
 20
130.5269638884
 30
0.0
 10
144.9194123769
 20
130.7974261997
 30
0.0
 10
144.9602761469
 20
131.0150233281
 30
0.0
 10
144.9624993948
 20
131.1234204793
 30
0.0
  0
SPLINE
  5
3AF
100
AcDbEntity
  8
INTFCLR_3
100
AcDbSpline
 62
7
  6
CONTINUOUS
 70
0
 71
3
 72
15
 73
11
 74
0
 42
0.0000001
 43
0.0000001
 44
0.0000000001
 40
0.0
 40
0.0
 40
0.0
 40
0.0
 40
0.1271651494
 40
0.2516421134
 40
0.3743791938
 40
0.4987444213
 40
0.6230100771
 40
0.7463537061
 40
0.8721420081
 40
1.0
 40
1.0
 40
1.0
 40
1.0
 10
142.4224993948
 20
131.1234204793
 30
0.0
 10
142.420137605
 20
131.2312270494
 30
0.0
 10
142.3800614234
 20
131.4470896973
 30
0.0
 10
142.1961100882
 20
131.7163083589
 30
0.0
 10
141.9276320106
 20
131.8954034327
 30
0.0
 10
141.6109204115
 20
131.9593497307
 30
0.0
 10
141.2932094216
 20
131.8978927021
 30
0.0
 10
141.0220057881
 20
131.7198770702
 30
0.0
 10
140.8355864127
 20
131.4494147589
 30
0.0
 10
140.7947226428
 20
131.2318176305
 30
0.0
 10
140.7924993948
 20
131.1234204793
 30
0.0
  0
SPLINE
  5
3B0
100
AcDbEntity
  8
INTFCLR_3
100
AcDbSpline
 62
7
  6
CONTINUOUS
 70
0
 71
3
 72
15
 73
11
 74
0
 42
0.0000001
 43
0.0000001
 44
0.0000000001
 40
0.0
 40
0.0
 40
0.0
 40
0.0
 40
0.1271651494
 40
0.2516421134
 40
0.3743791938
 40
0.4987444213
 40
0.6230100771
 40
0.7463537061
 40
0.8721420081
 40
1.0
 40
1.0
 40
1.0
 40
1.0
 10
140.7924993948
 20
131.1234204793
 30
0.0
 10
140.7948611847
 20
131.0156139092
 30
0.0
 10
140.8349373662
 20
130.7997512613
 30
0.0
 10
141.0188887014
 20
130.5305325997
 30
0.0
 10
141.2873667791
 20
130.3514375259
 30
0.0
 10
141.6040783782
 20
130.2874912279
 30
0.0
 10
141.921789368
 20
130.3489482565
 30
0.0
 10
142.1929930016
 20
130.5269638884
 30
0.0
 10
142.3794123769
 20
130.7974261997
 30
0.0
 10
142.4202761469
 20
131.0150233281
 30
0.0
 10
142.4224993948
 20
131.1234204793
 30
0.0
  0
SPLINE
  5
3B1
100
AcDbEntity
  8
INTFCLR_3
100
AcDbSpline
 62
7
  6
CONTINUOUS
 70
0
 71
3
 72
15
 73
11
 74
0
 42
0.0000001
 43
0.0000001
 44
0.0000000001
 40
0.0
 40
0.0
 40
0.0
 40
0.0
 40
0.1271651494
 40
0.2516421134
 40
0.3743791938
 40
0.4987444213
 40
0.6230100771
 40
0.7463537061
 40
0.8721420081
 40
1.0
 40
1.0
 40
1.0
 40
1.0
 10
146.2324993948
 20
133.3234204793
 30
0.0
 10
146.230137605
 20
133.4312270494
 30
0.0
 10
146.1900614234
 20
133.6470896973
 30
0.0
 10
146.0061100882
 20
133.9163083589
 30
0.0
 10
145.7376320106
 20
134.0954034327
 30
0.0
 10
145.4209204115
 20
134.1593497307
 30
0.0
 10
145.1032094216
 20
134.0978927021
 30
0.0
 10
144.8320057881
 20
133.9198770702
 30
0.0
 10
144.6455864127
 20
133.6494147589
 30
0.0
 10
144.6047226428
 20
133.4318176305
 30
0.0
 10
144.6024993948
 20
133.3234204793
 30
0.0
  0
SPLINE
  5
3B2
100
AcDbEntity
  8
INTFCLR_3
100
AcDbSpline
 62
7
  6
CONTINUOUS
 70
0
 71
3
 72
15
 73
11
 74
0
 42
0.0000001
 43
0.0000001
 44
0.0000000001
 40
0.0
 40
0.0
 40
0.0
 40
0.0
 40
0.1271651494
 40
0.2516421134
 40
0.3743791938
 40
0.4987444213
 40
0.6230100771
 40
0.7463537061
 40
0.8721420081
 40
1.0
 40
1.0
 40
1.0
 40
1.0
 10
144.6024993948
 20
133.3234204793
 30
0.0
 10
144.6048611847
 20
133.2156139092
 30
0.0
 10
144.6449373662
 20
132.9997512613
 30
0.0
 10
144.8288887014
 20
132.7305325997
 30
0.0
 10
145.0973667791
 20
132.5514375259
 30
0.0
 10
145.4140783782
 20
132.4874912279
 30
0.0
 10
145.731789368
 20
132.5489482565
 30
0.0
 10
146.0029930016
 20
132.7269638884
 30
0.0
 10
146.1894123769
 20
132.9974261997
 30
0.0
 10
146.2302761469
 20
133.2150233281
 30
0.0
 10
146.2324993948
 20
133.3234204793
 30
0.0
  0
SPLINE
  5
3B3
100
AcDbEntity
  8
INTFCLR_3
100
AcDbSpline
 62
7
  6
CONTINUOUS
 70
0
 71
3
 72
15
 73
11
 74
0
 42
0.0000001
 43
0.0000001
 44
0.0000000001
 40
0.0
 40
0.0
 40
0.0
 40
0.0
 40
0.1271651494
 40
0.2516421134
 40
0.3743791938
 40
0.4987444213
 40
0.6230100771
 40
0.7463537061
 40
0.8721420081
 40
1.0
 40
1.0
 40
1.0
 40
1.0
 10
141.1524993948
 20
133.3234204793
 30
0.0
 10
141.150137605
 20
133.4312270494
 30
0.0
 10
141.1100614234
 20
133.6470896973
 30
0.0
 10
140.9261100882
 20
133.9163083589
 30
0.0
 10
140.6576320106
 20
134.0954034327
 30
0.0
 10
140.3409204115
 20
134.1593497307
 30
0.0
 10
140.0232094216
 20
134.0978927021
 30
0.0
 10
139.7520057881
 20
133.9198770702
 30
0.0
 10
139.5655864127
 20
133.6494147589
 30
0.0
 10
139.5247226428
 20
133.4318176305
 30
0.0
 10
139.5224993948
 20
133.3234204793
 30
0.0
  0
SPLINE
  5
3B4
100
AcDbEntity
  8
INTFCLR_3
100
AcDbSpline
 62
7
  6
CONTINUOUS
 70
0
 71
3
 72
15
 73
11
 74
0
 42
0.0000001
 43
0.0000001
 44
0.0000000001
 40
0.0
 40
0.0
 40
0.0
 40
0.0
 40
0.1271651494
 40
0.2516421134
 40
0.3743791938
 40
0.4987444213
 40
0.6230100771
 40
0.7463537061
 40
0.8721420081
 40
1.0
 40
1.0
 40
1.0
 40
1.0
 10
139.5224993948
 20
133.3234204793
 30
0.0
 10
139.5248611847
 20
133.2156139092
 30
0.0
 10
139.5649373662
 20
132.9997512613
 30
0.0
 10
139.7488887014
 20
132.7305325997
 30
0.0
 10
140.0173667791
 20
132.5514375259
 30
0.0
 10
140.3340783782
 20
132.4874912279
 30
0.0
 10
140.651789368
 20
132.5489482565
 30
0.0
 10
140.9229930016
 20
132.7269638884
 30
0.0
 10
141.1094123769
 20
132.9974261997
 30
0.0
 10
141.1502761469
 20
133.2150233281
 30
0.0
 10
141.1524993948
 20
133.3234204793
 30
0.0
  0
SPLINE
  5
3B5
100
AcDbEntity
  8
INTFCLR_3
100
AcDbSpline
 62
7
  6
CONTINUOUS
 70
0
 71
3
 72
15
 73
11
 74
0
 42
0.0000001
 43
0.0000001
 44
0.0000000001
 40
0.0
 40
0.0
 40
0.0
 40
0.0
 40
0.1271651494
 40
0.2516421134
 40
0.3743791938
 40
0.4987444213
 40
0.6230100771
 40
0.7463537061
 40
0.8721420081
 40
1.0
 40
1.0
 40
1.0
 40
1.0
 10
146.3774993948
 20
138.0934204793
 30
0.0
 10
146.3753259686
 20
138.1926289794
 30
0.0
 10
146.3384460469
 20
138.3912755879
 30
0.0
 10
146.1691656771
 20
138.6390228225
 30
0.0
 10
145.9220999615
 20
138.8038342401
 30
0.0
 10
145.6306475697
 20
138.8626805266
 30
0.0
 10
145.3382754931
 20
138.8061249788
 30
0.0
 10
145.0887015972
 20
138.6423069126
 30
0.0
 10
144.9171500248
 20
138.3934152151
 30
0.0
 10
144.8795453285
 20
138.1931724589
 30
0.0
 10
144.8774993948
 20
138.0934204793
 30
0.0
  0
SPLINE
  5
3B6
100
AcDbEntity
  8
INTFCLR_3
100
AcDbSpline
 62
7
  6
CONTINUOUS
 70
0
 71
3
 72
15
 73
11
 74
0
 42
0.0000001
 43
0.0000001
 44
0.0000000001
 40
0.0
 40
0.0
 40
0.0
 40
0.0
 40
0.1271651494
 40
0.2516421134
 40
0.3743791938
 40
0.4987444213
 40
0.6230100771
 40
0.7463537061
 40
0.8721420081
 40
1.0
 40
1.0
 40
1.0
 40
1.0
 10
144.8774993948
 20
138.0934204793
 30
0.0
 10
144.8796728211
 20
137.9942119792
 30
0.0
 10
144.9165527428
 20
137.7955653707
 30
0.0
 10
145.0858331125
 20
137.5478181361
 30
0.0
 10
145.3328988282
 20
137.3830067185
 30
0.0
 10
145.62435122
 20
137.324160432
 30
0.0
 10
145.9167232966
 20
137.3807159798
 30
0.0
 10
146.1662971924
 20
137.544534046
 30
0.0
 10
146.3378487649
 20
137.7934257435
 30
0.0
 10
146.3754534611
 20
137.9936684997
 30
0.0
 10
146.3774993948
 20
138.0934204793
 30
0.0
  0
SPLINE
  5
3B7
100
AcDbEntity
  8
INTFCLR_3
100
AcDbSpline
 62
7
  6
CONTINUOUS
 70
0
 71
3
 72
15
 73
11
 74
0
 42
0.0000001
 43
0.0000001
 44
0.0000000001
 40
0.0
 40
0.0
 40
0.0
 40
0.0
 40
0.1271651494
 40
0.2516421134
 40
0.3743791938
 40
0.4987444213
 40
0.6230100771
 40
0.7463537061
 40
0.8721420081
 40
1.0
 40
1.0
 40
1.0
 40
1.0
 10
140.8774993948
 20
138.0934204793
 30
0.0
 10
140.8753259686
 20
138.1926289794
 30
0.0
 10
140.8384460469
 20
138.3912755879
 30
0.0
 10
140.6691656771
 20
138.6390228225
 30
0.0
 10
140.4220999615
 20
138.8038342401
 30
0.0
 10
140.1306475697
 20
138.8626805266
 30
0.0
 10
139.8382754931
 20
138.8061249788
 30
0.0
 10
139.5887015972
 20
138.6423069126
 30
0.0
 10
139.4171500248
 20
138.3934152151
 30
0.0
 10
139.3795453285
 20
138.1931724589
 30
0.0
 10
139.3774993948
 20
138.0934204793
 30
0.0
  0
SPLINE
  5
3B8
100
AcDbEntity
  8
INTFCLR_3
100
AcDbSpline
 62
7
  6
CONTINUOUS
 70
0
 71
3
 72
15
 73
11
 74
0
 42
0.0000001
 43
0.0000001
 44
0.0000000001
 40
0.0
 40
0.0
 40
0.0
 40
0.0
 40
0.1271651494
 40
0.2516421134
 40
0.3743791938
 40
0.4987444213
 40
0.6230100771
 40
0.7463537061
 40
0.8721420081
 40
1.0
 40
1.0
 40
1.0
 40
1.0
 10
139.3774993948
 20
138.0934204793
 30
0.0
 10
139.3796728211
 20
137.9942119792
 30
0.0
 10
139.4165527428
 20
137.7955653707
 30
0.0
 10
139.5858331125
 20
137.5478181361
 30
0.0
 10
139.8328988282
 20
137.3830067185
 30
0.0
 10
140.12435122
 20
137.324160432
 30
0.0
 10
140.4167232966
 20
137.3807159798
 30
0.0
 10
140.6662971924
 20
137.544534046
 30
0.0
 10
140.8378487649
 20
137.7934257435
 30
0.0
 10
140.8754534611
 20
137.9936684997
 30
0.0
 10
140.8774993948
 20
138.0934204793
 30
0.0
  0
SPLINE
  5
3B9
100
AcDbEntity
  8
INTFCLR_3
100
AcDbSpline
 62
7
  6
CONTINUOUS
 70
0
 71
3
 72
15
 73
11
 74
0
 42
0.0000001
 43
0.0000001
 44
0.0000000001
 40
0.0
 40
0.0
 40
0.0
 40
0.0
 40
0.1265481944
 40
0.2515787079
 40
0.3752058437
 40
0.4976374754
 40
0.6209910678
 40
0.7449631207
 40
0.8714406099
 40
1.0
 40
1.0
 40
1.0
 40
1.0
 10
149.0474993948
 20
132.3734204793
 30
0.0
 10
149.0456599001
 20
132.4721542016
 30
0.0
 10
149.0085219521
 20
132.6707100421
 30
0.0
 10
148.8392952727
 20
132.919263651
 30
0.0
 10
148.5921836964
 20
133.0836162846
 30
0.0
 10
148.3025658339
 20
133.1422113925
 30
0.0
 10
148.0117604225
 20
133.087488441
 30
0.0
 10
147.7609570127
 20
132.9248064617
 30
0.0
 10
147.587591777
 20
132.6750856114
 30
0.0
 10
147.5495828233
 20
132.4737191196
 30
0.0
 10
147.5474993948
 20
132.3734204793
 30
0.0
  0
SPLINE
  5
3BA
100
AcDbEntity
  8
INTFCLR_3
100
AcDbSpline
 62
7
  6
CONTINUOUS
 70
0
 71
3
 72
15
 73
11
 74
0
 42
0.0000001
 43
0.0000001
 44
0.0000000001
 40
0.0
 40
0.0
 40
0.0
 40
0.0
 40
0.1271651494
 40
0.2516421134
 40
0.3743791938
 40
0.4987444213
 40
0.6230100771
 40
0.7463537061
 40
0.8721420081
 40
1.0
 40
1.0
 40
1.0
 40
1.0
 10
147.5474993948
 20
132.3734204793
 30
0.0
 10
147.5496728211
 20
132.2742119792
 30
0.0
 10
147.5865527428
 20
132.0755653707
 30
0.0
 10
147.7558331125
 20
131.8278181361
 30
0.0
 10
148.0028988282
 20
131.6630067185
 30
0.0
 10
148.29435122
 20
131.604160432
 30
0.0
 10
148.5867232966
 20
131.6607159798
 30
0.0
 10
148.8362971924
 20
131.824534046
 30
0.0
 10
149.0078487649
 20
132.0734257435
 30
0.0
 10
149.0454534611
 20
132.2736684997
 30
0.0
 10
149.0474993948
 20
132.3734204793
 30
0.0
  0
SPLINE
  5
3BB
100
AcDbEntity
  8
INTFCLR_3
100
AcDbSpline
 62
7
  6
CONTINUOUS
 70
0
 71
3
 72
15
 73
11
 74
0
 42
0.0000001
 43
0.0000001
 44
0.0000000001
 40
0.0
 40
0.0
 40
0.0
 40
0.0
 40
0.1271651494
 40
0.2516421134
 40
0.3743791938
 40
0.4987444213
 40
0.6230100771
 40
0.7463537061
 40
0.8721420081
 40
1.0
 40
1.0
 40
1.0
 40
1.0
 10
138.2074993948
 20
132.3734204793
 30
0.0
 10
138.2053259686
 20
132.4726289794
 30
0.0
 10
138.1684460469
 20
132.6712755879
 30
0.0
 10
137.9991656771
 20
132.9190228225
 30
0.0
 10
137.7520999615
 20
133.0838342401
 30
0.0
 10
137.4606475697
 20
133.1426805266
 30
0.0
 10
137.1682754931
 20
133.0861249788
 30
0.0
 10
136.9187015972
 20
132.9223069126
 30
0.0
 10
136.7471500248
 20
132.6734152151
 30
0.0
 10
136.7095453285
 20
132.4731724589
 30
0.0
 10
136.7074993948
 20
132.3734204793
 30
0.0
  0
SPLINE
  5
3BC
100
AcDbEntity
  8
INTFCLR_3
100
AcDbSpline
 62
7
  6
CONTINUOUS
 70
0
 71
3
 72
15
 73
11
 74
0
 42
0.0000001
 43
0.0000001
 44
0.0000000001
 40
0.0
 40
0.0
 40
0.0
 40
0.0
 40
0.1271651494
 40
0.2516421134
 40
0.3743791938
 40
0.4987444213
 40
0.6230100771
 40
0.7463537061
 40
0.8721420081
 40
1.0
 40
1.0
 40
1.0
 40
1.0
 10
136.7074993948
 20
132.3734204793
 30
0.0
 10
136.7096728211
 20
132.2742119792
 30
0.0
 10
136.7465527428
 20
132.0755653707
 30
0.0
 10
136.9158331125
 20
131.8278181361
 30
0.0
 10
137.1628988282
 20
131.6630067185
 30
0.0
 10
137.45435122
 20
131.604160432
 30
0.0
 10
137.7467232966
 20
131.6607159798
 30
0.0
 10
137.9962971924
 20
131.824534046
 30
0.0
 10
138.1678487649
 20
132.0734257435
 30
0.0
 10
138.2054534611
 20
132.2736684997
 30
0.0
 10
138.2074993948
 20
132.3734204793
 30
0.0
  0
SPLINE
  5
3BD
100
AcDbEntity
  8
INTFCLR_3
100
AcDbSpline
 62
7
  6
CONTINUOUS
 70
0
 71
3
 72
18
 73
14
 74
0
 42
0.0000001
 43
0.0000001
 44
0.0000000001
 40
0.0
 40
0.0
 40
0.0
 40
0.0
 40
0.091789025
 40
0.1828834062
 40
0.2730109298
 40
0.3628452494
 40
0.453310781
 40
0.5441777197
 40
0.6346059744
 40
0.7248658403
 40
0.8158569256
 40
0.9078313609
 40
1.0
 40
1.0
 40
1.0
 40
1.0
 10
126.8774993948
 20
133.3234204793
 30
0.0
 10
126.8748997053
 20
133.6586904
 30
0.0
 10
126.7813604731
 20
134.3307145404
 30
0.0
 10
126.3570353289
 20
135.2483178133
 30
0.0
 10
125.698711654
 20
136.0053950729
 30
0.0
 10
124.8569600659
 20
136.5471889736
 30
0.0
 10
123.8946465038
 20
136.8331355079
 30
0.0
 10
122.8883835916
 20
136.837131171
 30
0.0
 10
121.9224447223
 20
136.5585095987
 30
0.0
 10
121.0727010325
 20
136.0204106302
 30
0.0
 10
120.4047877684
 20
135.2606381932
 30
0.0
 10
119.974919652
 20
134.3367499403
 30
0.0
 10
119.8796501552
 20
133.6600802346
 30
0.0
 10
119.8774993948
 20
133.3234204793
 30
0.0
  0
SPLINE
  5
3BE
100
AcDbEntity
  8
INTFCLR_3
100
AcDbSpline
 62
7
  6
CONTINUOUS
 70
0
 71
3
 72
18
 73
14
 74
0
 42
0.0000001
 43
0.0000001
 44
0.0000000001
 40
0.0
 40
0.0
 40
0.0
 40
0.0
 40
0.091789025
 40
0.1828834062
 40
0.2730109298
 40
0.3628452494
 40
0.453310781
 40
0.5441777197
 40
0.6346059744
 40
0.7248658403
 40
0.8158569256
 40
0.9078313609
 40
1.0
 40
1.0
 40
1.0
 40
1.0
 10
119.8774993948
 20
133.3234204793
 30
0.0
 10
119.8800990843
 20
132.9881505586
 30
0.0
 10
119.9736383165
 20
132.3161264182
 30
0.0
 10
120.3979634607
 20
131.3985231453
 30
0.0
 10
121.0562871356
 20
130.6414458857
 30
0.0
 10
121.8980387238
 20
130.099651985
 30
0.0
 10
122.8603522858
 20
129.8137054507
 30
0.0
 10
123.866615198
 20
129.8097097876
 30
0.0
 10
124.8325540674
 20
130.0883313599
 30
0.0
 10
125.6822977572
 20
130.6264303284
 30
0.0
 10
126.3502110213
 20
131.3862027654
 30
0.0
 10
126.7800791376
 20
132.3100910183
 30
0.0
 10
126.8753486344
 20
132.986760724
 30
0.0
 10
126.8774993948
 20
133.3234204793
 30
0.0
  0
SPLINE
  5
3BF
100
AcDbEntity
  8
INTFCLR_3
100
AcDbSpline
 62
7
  6
CONTINUOUS
 70
0
 71
3
 72
18
 73
14
 74
0
 42
0.0000001
 43
0.0000001
 44
0.0000000001
 40
0.0
 40
0.0
 40
0.0
 40
0.0
 40
0.091789025
 40
0.1828834062
 40
0.2730109298
 40
0.3628452494
 40
0.453310781
 40
0.5441777197
 40
0.6346059744
 40
0.7248658403
 40
0.8158569256
 40
0.9078313609
 40
1.0
 40
1.0
 40
1.0
 40
1.0
 10
114.3774993948
 20
133.3234204793
 30
0.0
 10
114.3748997053
 20
133.6586904
 30
0.0
 10
114.2813604731
 20
134.3307145404
 30
0.0
 10
113.8570353289
 20
135.2483178133
 30
0.0
 10
113.198711654
 20
136.0053950729
 30
0.0
 10
112.3569600659
 20
136.5471889736
 30
0.0
 10
111.3946465038
 20
136.8331355079
 30
0.0
 10
110.3883835916
 20
136.837131171
 30
0.0
 10
109.4224447223
 20
136.5585095987
 30
0.0
 10
108.5727010325
 20
136.0204106302
 30
0.0
 10
107.9047877684
 20
135.2606381932
 30
0.0
 10
107.474919652
 20
134.3367499403
 30
0.0
 10
107.3796501552
 20
133.6600802346
 30
0.0
 10
107.3774993948
 20
133.3234204793
 30
0.0
  0
SPLINE
  5
3C0
100
AcDbEntity
  8
INTFCLR_3
100
AcDbSpline
 62
7
  6
CONTINUOUS
 70
0
 71
3
 72
18
 73
14
 74
0
 42
0.0000001
 43
0.0000001
 44
0.0000000001
 40
0.0
 40
0.0
 40
0.0
 40
0.0
 40
0.0917824127
 40
0.1829091228
 40
0.2737650812
 40
0.3639431069
 40
0.453104357
 40
0.5431382725
 40
0.6331340441
 40
0.723667109
 40
0.815107467
 40
0.907547553
 40
1.0
 40
1.0
 40
1.0
 40
1.0
 10
107.3774993948
 20
133.3234204793
 30
0.0
 10
107.3800611796
 20
132.9881744872
 30
0.0
 10
107.4736647272
 20
132.3160549207
 30
0.0
 10
107.8991561218
 20
131.3959328174
 30
0.0
 10
108.5612467704
 20
130.6363968489
 30
0.0
 10
109.4039848306
 20
130.0974876359
 30
0.0
 10
110.35992082
 20
129.8149189278
 30
0.0
 10
111.3564223692
 20
129.8089816966
 30
0.0
 10
112.3197964358
 20
130.0827112686
 30
0.0
 10
113.1727938982
 20
130.6178286659
 30
0.0
 10
113.8460733135
 20
131.3789380304
 30
0.0
 10
114.2793000359
 20
132.3062803326
 30
0.0
 10
114.3755010415
 20
132.9857231621
 30
0.0
 10
114.3774993948
 20
133.3234204793
 30
0.0
  0
SPLINE
  5
3C1
100
AcDbEntity
  8
INTFCLR_3
100
AcDbSpline
 62
7
  6
CONTINUOUS
 70
0
 71
3
 72
18
 73
14
 74
0
 42
0.0000001
 43
0.0000001
 44
0.0000000001
 40
0.0
 40
0.0
 40
0.0
 40
0.0
 40
0.091789025
 40
0.1828834062
 40
0.2730109298
 40
0.3628452494
 40
0.453310781
 40
0.5441777197
 40
0.6346059744
 40
0.7248658403
 40
0.8158569256
 40
0.9078313609
 40
1.0
 40
1.0
 40
1.0
 40
1.0
 10
101.8774993948
 20
133.3234204793
 30
0.0
 10
101.8748997053
 20
133.6586904
 30
0.0
 10
101.7813604731
 20
134.3307145404
 30
0.0
 10
101.3570353289
 20
135.2483178133
 30
0.0
 10
100.698711654
 20
136.0053950729
 30
0.0
 10
99.8569600659
 20
136.5471889736
 30
0.0
 10
98.8946465038
 20
136.8331355079
 30
0.0
 10
97.8883835916
 20
136.837131171
 30
0.0
 10
96.9224447223
 20
136.5585095987
 30
0.0
 10
96.0727010325
 20
136.0204106302
 30
0.0
 10
95.4047877684
 20
135.2606381932
 30
0.0
 10
94.974919652
 20
134.3367499403
 30
0.0
 10
94.8796501552
 20
133.6600802346
 30
0.0
 10
94.8774993948
 20
133.3234204793
 30
0.0
  0
SPLINE
  5
3C2
100
AcDbEntity
  8
INTFCLR_3
100
AcDbSpline
 62
7
  6
CONTINUOUS
 70
0
 71
3
 72
18
 73
14
 74
0
 42
0.0000001
 43
0.0000001
 44
0.0000000001
 40
0.0
 40
0.0
 40
0.0
 40
0.0
 40
0.0916458197
 40
0.1824057406
 40
0.2722007551
 40
0.3618573388
 40
0.452073471
 40
0.5431411978
 40
0.6336890641
 40
0.7252440093
 40
0.8172114116
 40
0.9087812542
 40
1.0
 40
1.0
 40
1.0
 40
1.0
 10
94.8774993948
 20
133.3234204793
 30
0.0
 10
94.880269126
 20
132.9886750943
 30
0.0
 10
94.9731552454
 20
132.3184122474
 30
0.0
 10
95.3953814942
 20
131.4032147577
 30
0.0
 10
96.0500193938
 20
130.6472370361
 30
0.0
 10
96.8878368257
 20
130.104606492
 30
0.0
 10
97.8482453526
 20
129.8155353177
 30
0.0
 10
98.854830396
 20
129.8079186449
 30
0.0
 10
99.8273881443
 20
130.0851821772
 30
0.0
 10
100.6854183739
 20
130.62750335
 30
0.0
 10
101.3560736925
 20
131.3945642217
 30
0.0
 10
101.7815615714
 20
132.3186290876
 30
0.0
 10
101.8759539505
 20
132.9902272029
 30
0.0
 10
101.8774993948
 20
133.3234204793
 30
0.0
  0
SPLINE
  5
3C3
100
AcDbEntity
  8
INTFCLR_3
100
AcDbSpline
 62
7
  6
CONTINUOUS
 70
0
 71
3
 72
20
 73
16
 74
0
 42
0.0000001
 43
0.0000001
 44
0.0000000001
 40
0.0
 40
0.0
 40
0.0
 40
0.0
 40
0.0771394184
 40
0.1542060286
 40
0.2312106593
 40
0.30741292
 40
0.3839434603
 40
0.4605409009
 40
0.5369513906
 40
0.6134705523
 40
0.6901896309
 40
0.7670293849
 40
0.8448359747
 40
0.9226018105
 40
1.0
 40
1.0
 40
1.0
 40
1.0
 10
129.2774993948
 20
133.3234204793
 30
0.0
 10
129.2757531042
 20
133.7988601313
 30
0.0
 10
129.1622906022
 20
134.7533081292
 30
0.0
 10
128.6497506792
 20
136.0976803061
 30
0.0
 10
127.8343626519
 20
137.2763307055
 30
0.0
 10
126.7640232961
 20
138.2239464853
 30
0.0
 10
125.5013609973
 20
138.8890930145
 30
0.0
 10
124.115301628
 20
139.2345912079
 30
0.0
 10
122.6869992252
 20
139.2402445472
 30
0.0
 10
121.2975747029
 20
138.9057527226
 30
0.0
 10
120.0255167145
 20
138.2484022655
 30
0.0
 10
118.941194819
 20
137.3010121094
 30
0.0
 10
118.1128727608
 20
136.1147103191
 30
0.0
 10
117.5940978186
 20
134.7608464657
 30
0.0
 10
117.4786450882
 20
133.8004568783
 30
0.0
 10
117.4774993948
 20
133.3234204793
 30
0.0
  0
SPLINE
  5
3C4
100
AcDbEntity
  8
INTFCLR_3
100
AcDbSpline
 62
7
  6
CONTINUOUS
 70
0
 71
3
 72
20
 73
16
 74
0
 42
0.0000001
 43
0.0000001
 44
0.0000000001
 40
0.0
 40
0.0
 40
0.0
 40
0.0
 40
0.0771394184
 40
0.1542060286
 40
0.2312106593
 40
0.30741292
 40
0.3839434603
 40
0.4605409009
 40
0.5369513906
 40
0.6134705523
 40
0.6901896309
 40
0.7670293849
 40
0.8448359747
 40
0.9226018105
 40
1.0
 40
1.0
 40
1.0
 40
1.0
 10
117.4774993948
 20
133.3234204793
 30
0.0
 10
117.4792456854
 20
132.8479808273
 30
0.0
 10
117.5927081875
 20
131.8935328294
 30
0.0
 10
118.1052481105
 20
130.5491606525
 30
0.0
 10
118.9206361378
 20
129.3705102531
 30
0.0
 10
119.9909754935
 20
128.4228944733
 30
0.0
 10
121.2536377923
 20
127.7577479441
 30
0.0
 10
122.6396971617
 20
127.4122497507
 30
0.0
 10
124.0679995644
 20
127.4065964114
 30
0.0
 10
125.4574240867
 20
127.741088236
 30
0.0
 10
126.7294820751
 20
128.3984386931
 30
0.0
 10
127.8138039706
 20
129.3458288492
 30
0.0
 10
128.6421260288
 20
130.5321306395
 30
0.0
 10
129.160900971
 20
131.8859944929
 30
0.0
 10
129.2763537015
 20
132.8463840803
 30
0.0
 10
129.2774993948
 20
133.3234204793
 30
0.0
  0
SPLINE
  5
3C5
100
AcDbEntity
  8
INTFCLR_3
100
AcDbSpline
 62
7
  6
CONTINUOUS
 70
0
 71
3
 72
20
 73
16
 74
0
 42
0.0000001
 43
0.0000001
 44
0.0000000001
 40
0.0
 40
0.0
 40
0.0
 40
0.0
 40
0.0771394184
 40
0.1542060286
 40
0.2312106593
 40
0.30741292
 40
0.3839434603
 40
0.4605409009
 40
0.5369513906
 40
0.6134705523
 40
0.6901896309
 40
0.7670293849
 40
0.8448359747
 40
0.9226018105
 40
1.0
 40
1.0
 40
1.0
 40
1.0
 10
116.7774993948
 20
133.3234204793
 30
0.0
 10
116.7757531042
 20
133.7988601313
 30
0.0
 10
116.6622906022
 20
134.7533081292
 30
0.0
 10
116.1497506792
 20
136.0976803061
 30
0.0
 10
115.3343626519
 20
137.2763307055
 30
0.0
 10
114.2640232961
 20
138.2239464853
 30
0.0
 10
113.0013609973
 20
138.8890930145
 30
0.0
 10
111.615301628
 20
139.2345912079
 30
0.0
 10
110.1869992252
 20
139.2402445472
 30
0.0
 10
108.7975747029
 20
138.9057527226
 30
0.0
 10
107.5255167145
 20
138.2484022655
 30
0.0
 10
106.441194819
 20
137.3010121094
 30
0.0
 10
105.6128727608
 20
136.1147103191
 30
0.0
 10
105.0940978186
 20
134.7608464657
 30
0.0
 10
104.9786450882
 20
133.8004568783
 30
0.0
 10
104.9774993948
 20
133.3234204793
 30
0.0
  0
SPLINE
  5
3C6
100
AcDbEntity
  8
INTFCLR_3
100
AcDbSpline
 62
7
  6
CONTINUOUS
 70
0
 71
3
 72
20
 73
16
 74
0
 42
0.0000001
 43
0.0000001
 44
0.0000000001
 40
0.0
 40
0.0
 40
0.0
 40
0.0
 40
0.0771394184
 40
0.1542060286
 40
0.2312106593
 40
0.30741292
 40
0.3839434603
 40
0.4605409009
 40
0.5369513906
 40
0.6134705523
 40
0.6901896309
 40
0.7670293849
 40
0.8448359747
 40
0.9226018105
 40
1.0
 40
1.0
 40
1.0
 40
1.0
 10
104.9774993948
 20
133.3234204793
 30
0.0
 10
104.9792456854
 20
132.8479808273
 30
0.0
 10
105.0927081875
 20
131.8935328294
 30
0.0
 10
105.6052481105
 20
130.5491606525
 30
0.0
 10
106.4206361378
 20
129.3705102531
 30
0.0
 10
107.4909754935
 20
128.4228944733
 30
0.0
 10
108.7536377923
 20
127.7577479441
 30
0.0
 10
110.1396971617
 20
127.4122497507
 30
0.0
 10
111.5679995644
 20
127.4065964114
 30
0.0
 10
112.9574240867
 20
127.741088236
 30
0.0
 10
114.2294820751
 20
128.3984386931
 30
0.0
 10
115.3138039706
 20
129.3458288492
 30
0.0
 10
116.1421260288
 20
130.5321306395
 30
0.0
 10
116.660900971
 20
131.8859944929
 30
0.0
 10
116.7763537015
 20
132.8463840803
 30
0.0
 10
116.7774993948
 20
133.3234204793
 30
0.0
  0
SPLINE
  5
3C7
100
AcDbEntity
  8
INTFCLR_3
100
AcDbSpline
 62
7
  6
CONTINUOUS
 70
0
 71
3
 72
20
 73
16
 74
0
 42
0.0000001
 43
0.0000001
 44
0.0000000001
 40
0.0
 40
0.0
 40
0.0
 40
0.0
 40
0.0771394184
 40
0.1542060286
 40
0.2312106593
 40
0.30741292
 40
0.3839434603
 40
0.4605409009
 40
0.5369513906
 40
0.6134705523
 40
0.6901896309
 40
0.7670293849
 40
0.8448359747
 40
0.9226018105
 40
1.0
 40
1.0
 40
1.0
 40
1.0
 10
104.2774993948
 20
133.3234204793
 30
0.0
 10
104.2757531042
 20
133.7988601313
 30
0.0
 10
104.1622906022
 20
134.7533081292
 30
0.0
 10
103.6497506792
 20
136.0976803061
 30
0.0
 10
102.8343626519
 20
137.2763307055
 30
0.0
 10
101.7640232961
 20
138.2239464853
 30
0.0
 10
100.5013609973
 20
138.8890930145
 30
0.0
 10
99.115301628
 20
139.2345912079
 30
0.0
 10
97.6869992252
 20
139.2402445472
 30
0.0
 10
96.2975747029
 20
138.9057527226
 30
0.0
 10
95.0255167145
 20
138.2484022655
 30
0.0
 10
93.941194819
 20
137.3010121094
 30
0.0
 10
93.1128727608
 20
136.1147103191
 30
0.0
 10
92.5940978186
 20
134.7608464657
 30
0.0
 10
92.4786450882
 20
133.8004568783
 30
0.0
 10
92.4774993948
 20
133.3234204793
 30
0.0
  0
SPLINE
  5
3C8
100
AcDbEntity
  8
INTFCLR_3
100
AcDbSpline
 62
7
  6
CONTINUOUS
 70
0
 71
3
 72
20
 73
16
 74
0
 42
0.0000001
 43
0.0000001
 44
0.0000000001
 40
0.0
 40
0.0
 40
0.0
 40
0.0
 40
0.0771394184
 40
0.1542060286
 40
0.2312106593
 40
0.30741292
 40
0.3839434603
 40
0.4605409009
 40
0.5369513906
 40
0.6134705523
 40
0.6901896309
 40
0.7670293849
 40
0.8448359747
 40
0.9226018105
 40
1.0
 40
1.0
 40
1.0
 40
1.0
 10
92.4774993948
 20
133.3234204793
 30
0.0
 10
92.4792456854
 20
132.8479808273
 30
0.0
 10
92.5927081875
 20
131.8935328294
 30
0.0
 10
93.1052481105
 20
130.5491606525
 30
0.0
 10
93.9206361378
 20
129.3705102531
 30
0.0
 10
94.9909754935
 20
128.4228944733
 30
0.0
 10
96.2536377923
 20
127.7577479441
 30
0.0
 10
97.6396971617
 20
127.4122497507
 30
0.0
 10
99.0679995644
 20
127.4065964114
 30
0.0
 10
100.4574240867
 20
127.741088236
 30
0.0
 10
101.7294820751
 20
128.3984386931
 30
0.0
 10
102.8138039706
 20
129.3458288492
 30
0.0
 10
103.6421260288
 20
130.5321306395
 30
0.0
 10
104.160900971
 20
131.8859944929
 30
0.0
 10
104.2763537015
 20
132.8463840803
 30
0.0
 10
104.2774993948
 20
133.3234204793
 30
0.0
  0
SPLINE
  5
3C9
100
AcDbEntity
  8
INTFCLR_3
100
AcDbSpline
 62
7
  6
CONTINUOUS
 70
0
 71
3
 72
16
 73
12
 74
0
 42
0.0000001
 43
0.0000001
 44
0.0000000001
 40
0.0
 40
0.0
 40
0.0
 40
0.0
 40
0.1118522574
 40
0.2227870728
 40
0.3324619687
 40
0.4432843727
 40
0.5542193281
 40
0.6650477348
 40
0.7755587114
 40
0.8876161946
 40
1.0
 40
1.0
 40
1.0
 40
1.0
 10
113.1274993948
 20
94.3734204793
 30
0.0
 10
113.12526885
 20
94.5482101822
 30
0.0
 10
113.0663906466
 20
94.8994773649
 30
0.0
 10
112.7990055389
 20
95.3575580029
 30
0.0
 10
112.3948222632
 20
95.6974545494
 30
0.0
 10
111.8986349667
 20
95.8798067343
 30
0.0
 10
111.3682914193
 20
95.8819061406
 30
0.0
 10
110.8694284289
 20
95.7030447613
 30
0.0
 10
110.4604327648
 20
95.3637170647
 30
0.0
 10
110.189482666
 20
94.9029353357
 30
0.0
 10
110.1294792476
 20
94.5490439635
 30
0.0
 10
110.1274993948
 20
94.3734204793
 30
0.0
  0
SPLINE
  5
3CA
100
AcDbEntity
  8
INTFCLR_3
100
AcDbSpline
 62
7
  6
CONTINUOUS
 70
0
 71
3
 72
16
 73
12
 74
0
 42
0.0000001
 43
0.0000001
 44
0.0000000001
 40
0.0
 40
0.0
 40
0.0
 40
0.0
 40
0.1118522574
 40
0.2227870728
 40
0.3324619687
 40
0.4432843727
 40
0.5542193281
 40
0.6650477348
 40
0.7755587114
 40
0.8876161946
 40
1.0
 40
1.0
 40
1.0
 40
1.0
 10
110.1274993948
 20
94.3734204793
 30
0.0
 10
110.1297299397
 20
94.1986307764
 30
0.0
 10
110.188608143
 20
93.8473635937
 30
0.0
 10
110.4559932507
 20
93.3892829557
 30
0.0
 10
110.8601765264
 20
93.0493864092
 30
0.0
 10
111.356363823
 20
92.8670342243
 30
0.0
 10
111.8867073703
 20
92.864934818
 30
0.0
 10
112.3855703607
 20
93.0437961973
 30
0.0
 10
112.7945660248
 20
93.3831238939
 30
0.0
 10
113.0655161236
 20
93.8439056229
 30
0.0
 10
113.125519542
 20
94.1977969951
 30
0.0
 10
113.1274993948
 20
94.3734204793
 30
0.0
  0
SPLINE
  5
3CB
100
AcDbEntity
  8
INTFCLR_3
100
AcDbSpline
 62
7
  6
CONTINUOUS
 70
0
 71
3
 72
16
 73
12
 74
0
 42
0.0000001
 43
0.0000001
 44
0.0000000001
 40
0.0
 40
0.0
 40
0.0
 40
0.0
 40
0.1118522574
 40
0.2227870728
 40
0.3324619687
 40
0.4432843727
 40
0.5542193281
 40
0.6650477348
 40
0.7755587114
 40
0.8876161946
 40
1.0
 40
1.0
 40
1.0
 40
1.0
 10
68.1274993948
 20
94.3734204793
 30
0.0
 10
68.12526885
 20
94.5482101822
 30
0.0
 10
68.0663906466
 20
94.8994773649
 30
0.0
 10
67.7990055389
 20
95.3575580029
 30
0.0
 10
67.3948222632
 20
95.6974545494
 30
0.0
 10
66.8986349667
 20
95.8798067343
 30
0.0
 10
66.3682914193
 20
95.8819061406
 30
0.0
 10
65.8694284289
 20
95.7030447613
 30
0.0
 10
65.4604327648
 20
95.3637170647
 30
0.0
 10
65.189482666
 20
94.9029353357
 30
0.0
 10
65.1294792476
 20
94.5490439635
 30
0.0
 10
65.1274993948
 20
94.3734204793
 30
0.0
  0
SPLINE
  5
3CC
100
AcDbEntity
  8
INTFCLR_3
100
AcDbSpline
 62
7
  6
CONTINUOUS
 70
0
 71
3
 72
16
 73
12
 74
0
 42
0.0000001
 43
0.0000001
 44
0.0000000001
 40
0.0
 40
0.0
 40
0.0
 40
0.0
 40
0.1118522574
 40
0.2227870728
 40
0.3324619687
 40
0.4432843727
 40
0.5542193281
 40
0.6650477348
 40
0.7755587114
 40
0.8876161946
 40
1.0
 40
1.0
 40
1.0
 40
1.0
 10
65.1274993948
 20
94.3734204793
 30
0.0
 10
65.1297299397
 20
94.1986307764
 30
0.0
 10
65.188608143
 20
93.8473635937
 30
0.0
 10
65.4559932507
 20
93.3892829557
 30
0.0
 10
65.8601765264
 20
93.0493864092
 30
0.0
 10
66.356363823
 20
92.8670342243
 30
0.0
 10
66.8867073703
 20
92.864934818
 30
0.0
 10
67.3855703607
 20
93.0437961973
 30
0.0
 10
67.7945660248
 20
93.3831238939
 30
0.0
 10
68.0655161236
 20
93.8439056229
 30
0.0
 10
68.125519542
 20
94.1977969951
 30
0.0
 10
68.1274993948
 20
94.3734204793
 30
0.0
  0
SPLINE
  5
3CD
100
AcDbEntity
  8
INTFCLR_3
100
AcDbSpline
 62
7
  6
CONTINUOUS
 70
0
 71
3
 72
16
 73
12
 74
0
 42
0.0000001
 43
0.0000001
 44
0.0000000001
 40
0.0
 40
0.0
 40
0.0
 40
0.0
 40
0.1118522574
 40
0.2227870728
 40
0.3324619687
 40
0.4432843727
 40
0.5542193281
 40
0.6650477348
 40
0.7755587114
 40
0.8876161946
 40
1.0
 40
1.0
 40
1.0
 40
1.0
 10
155.7774993948
 20
94.3734204793
 30
0.0
 10
155.77526885
 20
94.5482101822
 30
0.0
 10
155.7163906466
 20
94.8994773649
 30
0.0
 10
155.4490055389
 20
95.3575580029
 30
0.0
 10
155.0448222632
 20
95.6974545494
 30
0.0
 10
154.5486349667
 20
95.8798067343
 30
0.0
 10
154.0182914193
 20
95.8819061406
 30
0.0
 10
153.5194284289
 20
95.7030447613
 30
0.0
 10
153.1104327648
 20
95.3637170647
 30
0.0
 10
152.839482666
 20
94.9029353357
 30
0.0
 10
152.7794792476
 20
94.5490439635
 30
0.0
 10
152.7774993948
 20
94.3734204793
 30
0.0
  0
SPLINE
  5
3CE
100
AcDbEntity
  8
INTFCLR_3
100
AcDbSpline
 62
7
  6
CONTINUOUS
 70
0
 71
3
 72
16
 73
12
 74
0
 42
0.0000001
 43
0.0000001
 44
0.0000000001
 40
0.0
 40
0.0
 40
0.0
 40
0.0
 40
0.1118522574
 40
0.2227870728
 40
0.3324619687
 40
0.4432843727
 40
0.5542193281
 40
0.6650477348
 40
0.7755587114
 40
0.8876161946
 40
1.0
 40
1.0
 40
1.0
 40
1.0
 10
152.7774993948
 20
94.3734204793
 30
0.0
 10
152.7797299397
 20
94.1986307764
 30
0.0
 10
152.838608143
 20
93.8473635937
 30
0.0
 10
153.1059932507
 20
93.3892829557
 30
0.0
 10
153.5101765264
 20
93.0493864092
 30
0.0
 10
154.006363823
 20
92.8670342243
 30
0.0
 10
154.5367073703
 20
92.864934818
 30
0.0
 10
155.0355703607
 20
93.0437961973
 30
0.0
 10
155.4445660248
 20
93.3831238939
 30
0.0
 10
155.7155161236
 20
93.8439056229
 30
0.0
 10
155.775519542
 20
94.1977969951
 30
0.0
 10
155.7774993948
 20
94.3734204793
 30
0.0
  0
SPLINE
  5
3CF
100
AcDbEntity
  8
INTFCLR_3
100
AcDbSpline
 62
7
  6
CONTINUOUS
 70
0
 71
3
 72
16
 73
12
 74
0
 42
0.0000001
 43
0.0000001
 44
0.0000000001
 40
0.0
 40
0.0
 40
0.0
 40
0.0
 40
0.1118522574
 40
0.2227870728
 40
0.3324619687
 40
0.4432843727
 40
0.5542193281
 40
0.6650477348
 40
0.7755587114
 40
0.8876161946
 40
1.0
 40
1.0
 40
1.0
 40
1.0
 10
25.4774993948
 20
94.3734204793
 30
0.0
 10
25.47526885
 20
94.5482101822
 30
0.0
 10
25.4163906466
 20
94.8994773649
 30
0.0
 10
25.1490055389
 20
95.3575580029
 30
0.0
 10
24.7448222632
 20
95.6974545494
 30
0.0
 10
24.2486349667
 20
95.8798067343
 30
0.0
 10
23.7182914193
 20
95.8819061406
 30
0.0
 10
23.2194284289
 20
95.7030447613
 30
0.0
 10
22.8104327648
 20
95.3637170647
 30
0.0
 10
22.539482666
 20
94.9029353357
 30
0.0
 10
22.4794792476
 20
94.5490439635
 30
0.0
 10
22.4774993948
 20
94.3734204793
 30
0.0
  0
SPLINE
  5
3D0
100
AcDbEntity
  8
INTFCLR_3
100
AcDbSpline
 62
7
  6
CONTINUOUS
 70
0
 71
3
 72
16
 73
12
 74
0
 42
0.0000001
 43
0.0000001
 44
0.0000000001
 40
0.0
 40
0.0
 40
0.0
 40
0.0
 40
0.1118522574
 40
0.2227870728
 40
0.3324619687
 40
0.4432843727
 40
0.5542193281
 40
0.6650477348
 40
0.7755587114
 40
0.8876161946
 40
1.0
 40
1.0
 40
1.0
 40
1.0
 10
22.4774993948
 20
94.3734204793
 30
0.0
 10
22.4797299397
 20
94.1986307764
 30
0.0
 10
22.538608143
 20
93.8473635937
 30
0.0
 10
22.8059932507
 20
93.3892829557
 30
0.0
 10
23.2101765264
 20
93.0493864092
 30
0.0
 10
23.706363823
 20
92.8670342243
 30
0.0
 10
24.2367073703
 20
92.864934818
 30
0.0
 10
24.7355703607
 20
93.0437961973
 30
0.0
 10
25.1445660248
 20
93.3831238939
 30
0.0
 10
25.4155161236
 20
93.8439056229
 30
0.0
 10
25.475519542
 20
94.1977969951
 30
0.0
 10
25.4774993948
 20
94.3734204793
 30
0.0
  0
ENDSEC
  0
SECTION
  2
OBJECTS
  0
DICTIONARY
  5
C
100
AcDbDictionary
280
0
281
1
  3
ACAD_GROUP
350
D
  3
ACAD_MLINESTYLE
350
17
  3
ACAD_LAYOUT
350
1A
  3
ACAD_PLOTSETTINGS
350
19
  3
ACAD_PLOTSTYLENAME
350
E
  0
DICTIONARY
  5
D
102
{ACAD_REACTORS
330
C
102
}
100
AcDbDictionary
280
0
281
1
  0
ACDBDICTIONARYWDFLT
  5
E
102
{ACAD_REACTORS
330
C
102
}
100
AcDbDictionary
281
1
  3
Normal
350
F
100
AcDbDictionaryWithDefault
340
F
  0
DICTIONARY
  5
17
102
{ACAD_REACTORS
330
C
102
}
100
AcDbDictionary
280
0
281
1
  3
Standard
350
18
  0
DICTIONARY
  5
19
102
{ACAD_REACTORS
330
C
102
}
100
AcDbDictionary
281
1
  0
DICTIONARY
  5
1A
102
{ACAD_REACTORS
330
C
102
}
100
AcDbDictionary
281
1
  3
Model
350
3D1
  3
Layout1
350
3D2
  0
ACDBPLACEHOLDER
  5
F
102
{ACAD_REACTORS
330
E
102
}
  0
MLINESTYLE
  5
18
102
{ACAD_REACTORS
330
17
102
}
100
AcDbMlineStyle
  2
STANDARD
 70
0
  3

 62
256
 51
90.0
 52
90.0
 71
2
 49
0.5
 62
256
  6
BYLAYER
 49
-0.5
 62
256
  6
BYLAYER
  0
LAYOUT
  5
3D1
102
{ACAD_REACTORS
330
1A
102
}
100
AcDbPlotSettings
  1

  2
none_device
  4

  6

 40
0.0
 41
0.0
 42
0.0
 43
0.0
 44
210.0
 45
297.0
 46
0.0
 47
0.0
 48
0.0
 49
0.0
140
0.0
141
0.0
142
1.0
143
1.0
 70
1024
 72
1
 73
0
 74
0
  7

 75
0
147
1.0
148
0.0
149
0.0
100
AcDbLayout
  1
Model
 70
0
 71
0
 10
0.0
 20
0.0
 11
210.0
 21
297.0
 12
0.0
 22
0.0
 32
0.0
 14
0.0
 24
0.0
 34
0.0
 15
0.0
 25
0.0
 35
0.0
146
0.0
 13
0.0
 23
0.0
 33
0.0
 16
1.0
 26
0.0
 36
0.0
 17
0.0
 27
1.0
 37
0.0
 76
0
330
212
345
0
346
0
  0
LAYOUT
  5
3D2
102
{ACAD_REACTORS
330
1A
102
}
100
AcDbPlotSettings
  1

  2
none_device
  4

  6

 40
0.0
 41
0.0
 42
0.0
 43
0.0
 44
210.0
 45
297.0
 46
0.0
 47
0.0
 48
0.0
 49
0.0
140
0.0
141
0.0
142
1.0
143
1.0
 70
0
 72
1
 73
0
 74
0
  7

 75
0
147
1.0
148
0.0
149
0.0
100
AcDbLayout
  1
Layout1
 70
0
 71
1
 10
0.0
 20
0.0
 11
210.0
 21
297.0
 12
0.0
 22
0.0
 32
0.0
 14
0.0
 24
0.0
 34
0.0
 15
0.0
 25
0.0
 35
0.0
146
0.0
 13
0.0
 23
0.0
 33
0.0
 16
1.0
 26
0.0
 36
0.0
 17
0.0
 27
1.0
 37
0.0
 76
0
330
213
345
0
346
0
  0
ENDSEC
  0
EOF
