999
DXF file: C:\Users\sesa63760\Dev\_Creo\CAD\MCADPD0004719_3D-CAD\drw0001_5.dxf
999
Pro/ENGINEER 2019471 by Parametric Technology Corporation
  0
SECTION
  2
HEADER
  9
$ACADVER
  1
AC1024
  9
$DWGCODEPAGE
  3
ANSI_1252
  9
$EXTMAX
 10
163.7254263771
 20
231.5545315904
 30
0.0
  9
$EXTMIN
 10
0.0
 20
0.0
 30
0.0
  9
$LIMMIN
 10
0.0
 20
0.0
  9
$LIMMAX
 10
163.7254263771
 20
231.5545315904
  9
$VIEWCTR
 10
81.8627131885
 20
115.7772657952
  9
$VIEWSIZE
 40
231.5545315904
  9
$CLAYER
  8
0
  9
$LTSCALE
 40
15.0939250222
  9
$CELTYPE
  6
BYLAYER
  9
$DIMSCALE
 40
1.0
  9
$DIMASZ
 40
1.9491122188
  9
$DIMEXO
 40
1.0
  9
$DIMDLI
 40
10.4285300153
  9
$DIMEXE
 40
1.0
  9
$DIMCEN
 40
2.4699150036
  9
$DIMLFAC
 40
1.0
  9
$DIMBLK
  1
_FILLED
  9
$DIMALT
 70
0
  9
$DIMALTF
 40
0.0393700787
  9
$DIMTXT
 40
2.7287571063
  9
$DIMTOL
 70
1
  9
$DIMLIM
 70
0
  9
$DIMTFAC
 40
1.0
  9
$DIMTP
 40
0.01
  9
$DIMTM
 40
0.01
  9
$DIMGAP
 40
0.625
  9
$DIMDSEP
 70
46
  9
$AUNITS
 70
0
  9
$PDMODE
 70
3
  9
$PDSIZE
 40
0.3125
  9
$HANDSEED
  5
290
  9
$TILEMODE
 70
1
  9
$MEASUREMENT
 70
1
  9
$INSUNITS
 70
4
  0
ENDSEC
  0
SECTION
  2
CLASSES
  0
CLASS
  1
ACDBDICTIONARYWDFLT
  2
AcDbDictionaryWithDefault
  3
AutoCAD 2000
 90
0
 91
1
280
0
281
0
  0
CLASS
  1
ACDBPLACEHOLDER
  2
AcDbPlaceHolder
  3
AutoCAD 2000
 90
0
 91
1
280
0
281
0
  0
CLASS
  1
LAYOUT
  2
AcDbLayout
  3
AutoCAD 2000
 90
0
 91
0
280
0
281
0
  0
ENDSEC
  0
SECTION
  2
TABLES
  0
TABLE
  2
VPORT
  5
8
100
AcDbSymbolTable
 70
2
  0
VPORT
  5
1F4
100
AcDbSymbolTableRecord
100
AcDbViewportTableRecord
  2
*ACTIVE
 70
0
 10
0.0
 20
0.0
 11
1.0
 21
1.0
 12
81.8627131885
 22
115.7772657952
 13
0.0
 23
0.0
 14
1.0
 24
1.0
 15
0.0
 25
0.0
 16
0.0
 26
0.0
 36
1.0
 17
0.0
 27
0.0
 37
0.0
 40
231.5545315904
 41
0.7070707071
 42
50.0
 43
0.0
 44
0.0
 50
0.0
 51
0.0
 71
0
 72
100
 73
1
 74
1
 75
0
 76
0
 77
0
 78
0
  0
ENDTAB
  0
TABLE
  2
LTYPE
  5
5
100
AcDbSymbolTable
 70
6
  0
LTYPE
  5
14
100
AcDbSymbolTableRecord
100
AcDbLinetypeTableRecord
  2
BYBLOCK
 70
0
  3

 72
65
 73
0
 40
0.0
  0
LTYPE
  5
15
100
AcDbSymbolTableRecord
100
AcDbLinetypeTableRecord
  2
BYLAYER
 70
0
  3

 72
65
 73
0
 40
0.0
  0
LTYPE
  5
16
100
AcDbSymbolTableRecord
100
AcDbLinetypeTableRecord
  2
CONTINUOUS
 70
64
  3
Solid line
 72
65
 73
0
 40
0.0
  0
LTYPE
  5
1F5
100
AcDbSymbolTableRecord
100
AcDbLinetypeTableRecord
  2
CENTER
 70
64
  3
____ _ ____ _ ____ _ ____ _ ____ _ ____ _ ____
 72
65
 73
4
 40
0.6
 49
0.375
 74
0
 49
-0.075
 74
0
 49
0.075
 74
0
 49
-0.075
 74
0
  0
LTYPE
  5
1F6
100
AcDbSymbolTableRecord
100
AcDbLinetypeTableRecord
  2
HIDDEN
 70
64
  3
- - - - - - - - - - - - - - - - - - - -
 72
65
 73
2
 40
0.2
 49
0.1
 74
0
 49
-0.1
 74
0
  0
LTYPE
  5
1F7
100
AcDbSymbolTableRecord
100
AcDbLinetypeTableRecord
  2
PHANTOM
 70
64
  3
_____ _ _ _____ _ _ _____ _ _ _____
 72
65
 73
6
 40
0.8
 49
0.45
 74
0
 49
-0.05
 74
0
 49
0.1
 74
0
 49
-0.05
 74
0
 49
0.1
 74
0
 49
-0.05
 74
0
  0
LTYPE
  5
1F8
100
AcDbSymbolTableRecord
100
AcDbLinetypeTableRecord
  2
DOT
 70
64
  3
. . . . . . . . . . . . . . . . . . . .
 72
65
 73
2
 40
0.2
 49
0.1
 74
0
 49
-0.1
 74
0
  0
LTYPE
  5
1F9
100
AcDbSymbolTableRecord
100
AcDbLinetypeTableRecord
  2
DASHED
 70
64
  3
- - - - - - - - - - - - - - - - - - - -
 72
65
 73
2
 40
0.2
 49
0.1
 74
0
 49
-0.1
 74
0
  0
ENDTAB
  0
TABLE
  2
LAYER
  5
2
100
AcDbSymbolTable
 70
36
  0
LAYER
  5
10
100
AcDbSymbolTableRecord
100
AcDbLayerTableRecord
  2
0
 70
0
 62
7
  6
CONTINUOUS
370
-3
390
F
  0
LAYER
  5
1FA
100
AcDbSymbolTableRecord
100
AcDbLayerTableRecord
  2
DEFAULT_1
 70
0
 62
7
  6
CENTER
370
-3
390
F
  0
LAYER
  5
1FB
100
AcDbSymbolTableRecord
100
AcDbLayerTableRecord
  2
DEFAULT_2
 70
0
 62
7
  6
HIDDEN
370
-3
390
F
  0
LAYER
  5
1FC
100
AcDbSymbolTableRecord
100
AcDbLayerTableRecord
  2
DEFAULT_3
 70
0
 62
7
  6
PHANTOM
370
-3
390
F
  0
LAYER
  5
1FD
100
AcDbSymbolTableRecord
100
AcDbLayerTableRecord
  2
00_COMPONENTS
 70
0
 62
7
  6
CONTINUOUS
370
-3
390
F
  0
LAYER
  5
1FE
100
AcDbSymbolTableRecord
100
AcDbLayerTableRecord
  2
01_1_DEFAULT_DATUMS
 70
0
 62
7
  6
CONTINUOUS
370
-3
390
F
  0
LAYER
  5
1FF
100
AcDbSymbolTableRecord
100
AcDbLayerTableRecord
  2
01_PLANES
 70
0
 62
7
  6
CONTINUOUS
370
-3
390
F
  0
LAYER
  5
200
100
AcDbSymbolTableRecord
100
AcDbLayerTableRecord
  2
02_COORD_SYS
 70
0
 62
7
  6
CONTINUOUS
370
-3
390
F
  0
LAYER
  5
201
100
AcDbSymbolTableRecord
100
AcDbLayerTableRecord
  2
03_AXES
 70
0
 62
7
  6
CONTINUOUS
370
-3
390
F
  0
LAYER
  5
202
100
AcDbSymbolTableRecord
100
AcDbLayerTableRecord
  2
04_POINTS
 70
0
 62
7
  6
CONTINUOUS
370
-3
390
F
  0
LAYER
  5
203
100
AcDbSymbolTableRecord
100
AcDbLayerTableRecord
  2
05_CURVES
 70
0
 62
7
  6
CONTINUOUS
370
-3
390
F
  0
LAYER
  5
204
100
AcDbSymbolTableRecord
100
AcDbLayerTableRecord
  2
06_SURFS
 70
0
 62
7
  6
CONTINUOUS
370
-3
390
F
  0
LAYER
  5
205
100
AcDbSymbolTableRecord
100
AcDbLayerTableRecord
  2
07_COSMETICS
 70
0
 62
7
  6
CONTINUOUS
370
-3
390
F
  0
LAYER
  5
206
100
AcDbSymbolTableRecord
100
AcDbLayerTableRecord
  2
10_NOTES
 70
0
 62
7
  6
CONTINUOUS
370
-3
390
F
  0
LAYER
  5
207
100
AcDbSymbolTableRecord
100
AcDbLayerTableRecord
  2
11_NOTES_PUB
 70
0
 62
7
  6
CONTINUOUS
370
-3
390
F
  0
LAYER
  5
208
100
AcDbSymbolTableRecord
100
AcDbLayerTableRecord
  2
13_REF_GTOL
 70
0
 62
7
  6
CONTINUOUS
370
-3
390
F
  0
LAYER
  5
209
100
AcDbSymbolTableRecord
100
AcDbLayerTableRecord
  2
16_MISC
 70
0
 62
7
  6
CONTINUOUS
370
-3
390
F
  0
LAYER
  5
20A
100
AcDbSymbolTableRecord
100
AcDbLayerTableRecord
  2
17_NO_PRINT
 70
0
 62
7
  6
CONTINUOUS
370
-3
390
F
  0
LAYER
  5
20B
100
AcDbSymbolTableRecord
100
AcDbLayerTableRecord
  2
18_DATUM_CAMS_JOINTS
 70
0
 62
7
  6
CONTINUOUS
370
-3
390
F
  0
LAYER
  5
20C
100
AcDbSymbolTableRecord
100
AcDbLayerTableRecord
  2
19_DATUM_FUNCTIONAL
 70
0
 62
7
  6
CONTINUOUS
370
-3
390
F
  0
LAYER
  5
20D
100
AcDbSymbolTableRecord
100
AcDbLayerTableRecord
  2
20_DATUM_KINEMATIC_SCHEME
 70
0
 62
7
  6
CONTINUOUS
370
-3
390
F
  0
ENDTAB
  0
TABLE
  2
STYLE
  5
3
100
AcDbSymbolTable
 70
1
  0
STYLE
  5
11
100
AcDbSymbolTableRecord
100
AcDbTextStyleTableRecord
  2
STANDARD
 70
0
 40
0.0
 41
1.0
 50
0.0
 71
0
 42
0.2
  3
ARIAL.TTF
  4

  0
STYLE
  5
20E
100
AcDbSymbolTableRecord
100
AcDbTextStyleTableRecord
  2
TEXTSTYLE_1
 70
0
 40
0.0
 41
0.8
 50
0.0
 71
0
 42
0.2
  3
gdt
  4

  0
ENDTAB
  0
TABLE
  2
VIEW
  5
6
100
AcDbSymbolTable
 70
0
  0
ENDTAB
  0
TABLE
  2
UCS
  5
7
100
AcDbSymbolTable
 70
0
  0
ENDTAB
  0
TABLE
  2
APPID
  5
9
100
AcDbSymbolTable
 70
1
  0
APPID
  5
20F
100
AcDbSymbolTableRecord
100
AcDbRegAppTableRecord
  2
ACAD
 70
0
  0
ENDTAB
  0
TABLE
  2
BLOCK_RECORD
  5
1
100
AcDbSymbolTable
 70
0
  0
BLOCK_RECORD
  5
210
100
AcDbSymbolTableRecord
100
AcDbBlockTableRecord
  2
*Model_Space
  0
BLOCK_RECORD
  5
211
100
AcDbSymbolTableRecord
100
AcDbBlockTableRecord
  2
*Paper_Space
  0
BLOCK_RECORD
  5
212
100
AcDbSymbolTableRecord
100
AcDbBlockTableRecord
  2
_FILLED
  0
ENDTAB
  0
TABLE
  2
DIMSTYLE
  5
A
100
AcDbSymbolTable
 70
1
100
AcDbDimStyleTable
 71
0
  0
DIMSTYLE
105
213
100
AcDbSymbolTableRecord
100
AcDbDimStyleTableRecord
  2
STANDARD
 70
0
  3

  4

 40
1.0
 41
1.9491122188
 42
1.0
 43
0.38
 44
1.0
 45
0.0
 46
0.0
 47
0.01
 48
0.01
140
2.7287571063
141
0.09
142
0.0
143
25.4
144
1.0
145
0.0
146
1.0
147
0.625
 71
1
 72
0
 73
0
 74
0
 75
0
 76
0
 77
1
 78
8
 79
2
170
0
171
1
172
0
173
0
174
0
175
0
176
0
177
0
178
0
270
2
179
2
271
2
272
2
273
2
274
2
275
0
280
0
281
0
282
0
283
1
284
8
285
0
286
0
287
3
288
0
340
11
278
46
341
212
342
212
343
212
344
212
  0
ENDTAB
  0
ENDSEC
  0
SECTION
  2
BLOCKS
  0
BLOCK
  5
20
100
AcDbEntity
  8
0
100
AcDbBlockBegin
  2
*Model_Space
 70
0
 10
0.0
 20
0.0
 30
0.0
  3
*Model_Space
  1

  0
ENDBLK
  5
21
100
AcDbEntity
  8
0
100
AcDbBlockEnd
  0
BLOCK
  5
1C
100
AcDbEntity
  8
0
100
AcDbBlockBegin
  2
*Paper_Space
 70
0
 10
0.0
 20
0.0
 30
0.0
  3
*Paper_Space
  1

  0
ENDBLK
  5
1D
100
AcDbEntity
  8
0
100
AcDbBlockEnd
  0
BLOCK
  5
214
100
AcDbEntity
  8
0
100
AcDbBlockBegin
  2
_FILLED
 70
64
 10
0.0
 20
0.0
  3
_FILLED
  1

  0
SOLID
  5
215
100
AcDbEntity
  8
0
  6
BYBLOCK
 62
0
100
AcDbTrace
 10
0.0
 20
0.0
 11
-1.0
 21
0.25
 12
-1.0
 22
-0.25
 13
-1.0
 23
-0.25
  0
ENDBLK
  5
216
100
AcDbEntity
  8
0
  6
BYBLOCK
 62
0
100
AcDbBlockEnd
  0
ENDSEC
  0
SECTION
  2
ENTITIES
  0
LINE
  5
217
100
AcDbEntity
  8
0
100
AcDbLine
 62
7
  6
BYLAYER
 10
25.775077023
 20
36.7606862745
 11
24.575077023
 21
36.7606862745
  0
LINE
  5
218
100
AcDbEntity
  8
0
100
AcDbLine
 62
7
  6
BYLAYER
 10
24.575077023
 20
37.7032548528
 11
25.775077023
 21
37.7032548528
  0
LINE
  5
219
100
AcDbEntity
  8
0
100
AcDbLine
 62
7
  6
BYLAYER
 10
22.125077023
 20
38.5606862745
 11
68.725077023
 21
38.5606862745
  0
LINE
  5
21A
100
AcDbEntity
  8
0
100
AcDbLine
 62
7
  6
BYLAYER
 10
22.225077023
 20
39.5593338698
 11
23.725077023
 21
39.5593338698
  0
LINE
  5
21B
100
AcDbEntity
  8
0
100
AcDbLine
 62
7
  6
BYLAYER
 10
22.225077023
 20
40.6776862745
 11
23.725077023
 21
40.6776862745
  0
LINE
  5
21C
100
AcDbEntity
  8
0
100
AcDbLine
 62
7
  6
BYLAYER
 10
19.085077023
 20
107.0106862745
 11
19.085077023
 21
134.0106862745
  0
LINE
  5
21D
100
AcDbEntity
  8
0
100
AcDbLine
 62
7
  6
BYLAYER
 10
20.125077023
 20
132.9706862745
 11
20.125077023
 21
108.0506862745
  0
LINE
  5
21E
100
AcDbEntity
  8
0
100
AcDbLine
 62
7
  6
BYLAYER
 10
21.775077023
 20
82.7606862745
 11
21.775077023
 21
84.7618718556
  0
LINE
  5
21F
100
AcDbEntity
  8
0
100
AcDbLine
 62
7
  6
BYLAYER
 10
22.125077023
 20
192.5606862745
 11
22.125077023
 21
135.5606862745
  0
LINE
  5
220
100
AcDbEntity
  8
0
100
AcDbLine
 62
7
  6
BYLAYER
 10
22.125077023
 20
38.5606862745
 11
22.125077023
 21
100.7606862745
  0
LINE
  5
221
100
AcDbEntity
  8
0
100
AcDbLine
 62
7
  6
BYLAYER
 10
22.225077023
 20
195.3606862745
 11
22.225077023
 21
192.5606862745
  0
LINE
  5
222
100
AcDbEntity
  8
0
100
AcDbLine
 62
7
  6
BYLAYER
 10
22.225077023
 20
56.5606862745
 11
22.225077023
 21
38.5606862745
  0
LINE
  5
223
100
AcDbEntity
  8
0
100
AcDbLine
 62
7
  6
BYLAYER
 10
22.375077023
 20
102.7254647395
 11
22.375077023
 21
100.9050238418
  0
LINE
  5
224
100
AcDbEntity
  8
0
100
AcDbLine
 62
7
  6
BYLAYER
 10
22.625077023
 20
128.0606862745
 11
22.625077023
 21
112.6606862745
  0
LINE
  5
225
100
AcDbEntity
  8
0
100
AcDbLine
 62
7
  6
BYLAYER
 10
25.085077023
 20
137.7749059977
 11
24.0525694092
 21
135.5606862745
  0
LINE
  5
226
100
AcDbEntity
  8
0
100
AcDbLine
 62
7
  6
BYLAYER
 10
68.725077023
 20
50.6606862745
 11
62.725077023
 21
50.6606862745
  0
LINE
  5
227
100
AcDbEntity
  8
0
100
AcDbLine
 62
7
  6
BYLAYER
 10
62.725077023
 20
50.9606862745
 11
88.325077023
 21
50.9606862745
  0
LINE
  5
228
100
AcDbEntity
  8
0
100
AcDbLine
 62
7
  6
BYLAYER
 10
22.225077023
 20
55.0606862745
 11
23.725077023
 21
55.0606862745
  0
LINE
  5
229
100
AcDbEntity
  8
0
100
AcDbLine
 62
7
  6
BYLAYER
 10
23.725077023
 20
38.5606862745
 11
23.725077023
 21
56.5606862745
  0
LINE
  5
22A
100
AcDbEntity
  8
0
100
AcDbLine
 62
7
  6
BYLAYER
 10
23.725077023
 20
192.5606862745
 11
23.725077023
 21
195.3606862745
  0
LINE
  5
22B
100
AcDbEntity
  8
0
100
AcDbLine
 62
7
  6
BYLAYER
 10
24.575077023
 20
36.7606862745
 11
24.575077023
 21
38.5606862745
  0
LINE
  5
22C
100
AcDbEntity
  8
0
100
AcDbLine
 62
7
  6
BYLAYER
 10
25.085077023
 20
103.1606862745
 11
25.085077023
 21
107.0106862745
  0
LINE
  5
22D
100
AcDbEntity
  8
0
100
AcDbLine
 62
7
  6
BYLAYER
 10
25.085077023
 20
134.0106862745
 11
25.085077023
 21
137.8606862745
  0
LINE
  5
22E
100
AcDbEntity
  8
0
100
AcDbLine
 62
7
  6
BYLAYER
 10
25.775077023
 20
103.1606862745
 11
25.775077023
 21
102.2606862745
  0
LINE
  5
22F
100
AcDbEntity
  8
0
100
AcDbLine
 62
7
  6
BYLAYER
 10
25.775077023
 20
36.7606862745
 11
25.775077023
 21
38.5606862745
  0
LINE
  5
230
100
AcDbEntity
  8
0
100
AcDbLine
 62
7
  6
BYLAYER
 10
26.125077023
 20
137.8606862745
 11
26.125077023
 21
132.9706862745
  0
LINE
  5
231
100
AcDbEntity
  8
0
100
AcDbLine
 62
7
  6
BYLAYER
 10
26.125077023
 20
102.2606862745
 11
26.125077023
 21
110.6399603323
  0
LINE
  5
232
100
AcDbEntity
  8
0
100
AcDbLine
 62
7
  6
BYLAYER
 10
26.825077023
 20
137.8606862745
 11
26.825077023
 21
130.4855574051
  0
LINE
  5
233
100
AcDbEntity
  8
0
100
AcDbLine
 62
7
  6
BYLAYER
 10
23.725077023
 20
56.5606862745
 11
22.125077023
 21
56.5606862745
  0
LINE
  5
234
100
AcDbEntity
  8
0
100
AcDbLine
 62
7
  6
BYLAYER
 10
88.325077023
 20
62.4606862745
 11
109.325077023
 21
62.4606862745
  0
LINE
  5
235
100
AcDbEntity
  8
0
100
AcDbLine
 62
7
  6
BYLAYER
 10
22.625077023
 20
128.0606862745
 11
26.825077023
 21
130.4855574051
  0
LINE
  5
236
100
AcDbEntity
  8
0
100
AcDbLine
 62
7
  6
BYLAYER
 10
128.7765103882
 20
73.3687372687
 11
109.4978710698
 21
73.3643318051
  0
LINE
  5
237
100
AcDbEntity
  8
0
100
AcDbLine
 62
7
  6
BYLAYER
 10
109.4978710698
 20
73.3791674245
 11
109.325077023
 21
73.3791674245
  0
LINE
  5
238
100
AcDbEntity
  8
0
100
AcDbLine
 62
7
  6
BYLAYER
 10
109.325077023
 20
73.7422051246
 11
109.4978710698
 21
73.7422051246
  0
LINE
  5
239
100
AcDbEntity
  8
0
100
AcDbLine
 62
7
  6
BYLAYER
 10
109.4978710698
 20
73.7570407439
 11
128.7765137048
 21
73.7526352796
  0
LINE
  5
23A
100
AcDbEntity
  8
0
100
AcDbLine
 62
7
  6
BYLAYER
 10
22.375077023
 20
102.7254647395
 11
25.085077023
 21
105.4354647395
  0
LINE
  5
23B
100
AcDbEntity
  8
0
100
AcDbLine
 62
7
  6
BYLAYER
 10
22.125077023
 20
82.7606862745
 11
21.775077023
 21
82.7606862745
  0
LINE
  5
23C
100
AcDbEntity
  8
0
100
AcDbLine
 62
7
  6
BYLAYER
 10
26.125077023
 20
110.6399603323
 11
22.625077023
 21
112.6606862745
  0
LINE
  5
23D
100
AcDbEntity
  8
0
100
AcDbLine
 62
7
  6
BYLAYER
 10
21.775077023
 20
84.7618718556
 11
22.125077023
 21
85.261723658
  0
LINE
  5
23E
100
AcDbEntity
  8
0
100
AcDbLine
 62
7
  6
BYLAYER
 10
61.225077023
 20
180.1606862745
 11
61.225077023
 21
180.4606862745
  0
LINE
  5
23F
100
AcDbEntity
  8
0
100
AcDbLine
 62
7
  6
BYLAYER
 10
62.725077023
 20
50.6606862745
 11
62.725077023
 21
50.9606862745
  0
LINE
  5
240
100
AcDbEntity
  8
0
100
AcDbLine
 62
7
  6
BYLAYER
 10
131.4978710698
 20
93.1606862745
 11
109.325077023
 21
93.1606862745
  0
LINE
  5
241
100
AcDbEntity
  8
0
100
AcDbLine
 62
7
  6
BYLAYER
 10
109.325077023
 20
96.1607165473
 11
109.7251053595
 21
96.1607166862
  0
LINE
  5
242
100
AcDbEntity
  8
0
100
AcDbLine
 62
7
  6
BYLAYER
 10
109.8250769767
 20
96.3607167209
 11
113.697876486
 21
96.3607180654
  0
LINE
  5
243
100
AcDbEntity
  8
0
100
AcDbLine
 62
7
  6
BYLAYER
 10
66.725077023
 20
38.5606862745
 11
66.725077023
 21
50.6606862745
  0
LINE
  5
244
100
AcDbEntity
  8
0
100
AcDbLine
 62
7
  6
BYLAYER
 10
66.725077023
 20
180.4606862745
 11
66.725077023
 21
192.5606862745
  0
LINE
  5
245
100
AcDbEntity
  8
0
100
AcDbLine
 62
7
  6
BYLAYER
 10
68.725077023
 20
50.6606862745
 11
68.725077023
 21
49.4606862745
  0
LINE
  5
246
100
AcDbEntity
  8
0
100
AcDbLine
 62
7
  6
BYLAYER
 10
68.725077023
 20
41.6606862745
 11
68.725077023
 21
38.5606862745
  0
LINE
  5
247
100
AcDbEntity
  8
0
100
AcDbLine
 62
7
  6
BYLAYER
 10
68.725077023
 20
180.4606862745
 11
68.725077023
 21
181.6606862745
  0
LINE
  5
248
100
AcDbEntity
  8
0
100
AcDbLine
 62
7
  6
BYLAYER
 10
68.725077023
 20
189.4606862745
 11
68.725077023
 21
192.5606862745
  0
LINE
  5
249
100
AcDbEntity
  8
0
100
AcDbLine
 62
7
  6
BYLAYER
 10
22.125077023
 20
100.7606862745
 11
24.7231532343
 21
102.2606862745
  0
LINE
  5
24A
100
AcDbEntity
  8
0
100
AcDbLine
 62
7
  6
BYLAYER
 10
26.125077023
 20
102.2606862745
 11
24.7231532343
 21
102.2606862745
  0
LINE
  5
24B
100
AcDbEntity
  8
0
100
AcDbLine
 62
7
  6
BYLAYER
 10
26.125077023
 20
103.1606862745
 11
25.085077023
 21
103.1606862745
  0
LINE
  5
24C
100
AcDbEntity
  8
0
100
AcDbLine
 62
7
  6
BYLAYER
 10
25.085077023
 20
107.0106862745
 11
19.085077023
 21
107.0106862745
  0
LINE
  5
24D
100
AcDbEntity
  8
0
100
AcDbLine
 62
7
  6
BYLAYER
 10
20.125077023
 20
108.0506862745
 11
26.125077023
 21
108.0506862745
  0
LINE
  5
24E
100
AcDbEntity
  8
0
100
AcDbLine
 62
7
  6
BYLAYER
 10
88.325077023
 20
50.9606862745
 11
88.325077023
 21
62.4606862745
  0
LINE
  5
24F
100
AcDbEntity
  8
0
100
AcDbLine
 62
7
  6
BYLAYER
 10
113.6978202451
 20
117.0606862745
 11
127.6978710699
 21
117.0606862745
  0
LINE
  5
250
100
AcDbEntity
  8
0
100
AcDbLine
 62
7
  6
BYLAYER
 10
109.7250792102
 20
118.5607074004
 11
127.697867523
 21
118.5607556489
  0
LINE
  5
251
100
AcDbEntity
  8
0
100
AcDbLine
 62
7
  6
BYLAYER
 10
112.375077023
 20
119.0606862745
 11
109.725077023
 21
119.0606862745
  0
LINE
  5
252
100
AcDbEntity
  8
0
100
AcDbLine
 62
7
  6
BYLAYER
 10
112.525077023
 20
121.5606862745
 11
112.375077023
 21
121.5606862745
  0
LINE
  5
253
100
AcDbEntity
  8
0
100
AcDbLine
 62
7
  6
BYLAYER
 10
112.525077023
 20
130.6606862616
 11
112.6978710698
 21
130.6606862745
  0
LINE
  5
254
100
AcDbEntity
  8
0
100
AcDbLine
 62
7
  6
BYLAYER
 10
26.125077023
 20
132.9706862745
 11
20.125077023
 21
132.9706862745
  0
LINE
  5
255
100
AcDbEntity
  8
0
100
AcDbLine
 62
7
  6
BYLAYER
 10
112.375077023
 20
133.4606862745
 11
109.725077023
 21
133.4606862745
  0
LINE
  5
256
100
AcDbEntity
  8
0
100
AcDbLine
 62
7
  6
BYLAYER
 10
112.525077023
 20
133.6606862745
 11
109.725077023
 21
133.6606862745
  0
LINE
  5
257
100
AcDbEntity
  8
0
100
AcDbLine
 62
7
  6
BYLAYER
 10
19.085077023
 20
134.0106862745
 11
25.085077023
 21
134.0106862745
  0
LINE
  5
258
100
AcDbEntity
  8
0
100
AcDbLine
 62
7
  6
BYLAYER
 10
22.125077023
 20
135.5606862745
 11
24.0525694092
 21
135.5606862745
  0
LINE
  5
259
100
AcDbEntity
  8
0
100
AcDbLine
 62
7
  6
BYLAYER
 10
109.325077023
 20
62.4606862745
 11
109.325077023
 21
96.1607165705
  0
LINE
  5
25A
100
AcDbEntity
  8
0
100
AcDbLine
 62
7
  6
BYLAYER
 10
109.4978710698
 20
93.1606862745
 11
109.4978710698
 21
73.7563065357
  0
LINE
  5
25B
100
AcDbEntity
  8
0
100
AcDbLine
 62
7
  6
BYLAYER
 10
109.4978710698
 20
73.3643318051
 11
109.4978710698
 21
73.3791674245
  0
LINE
  5
25C
100
AcDbEntity
  8
0
100
AcDbLine
 62
7
  6
BYLAYER
 10
109.725077023
 20
96.1607166631
 11
109.725077023
 21
157.5606862745
  0
LINE
  5
25D
100
AcDbEntity
  8
0
100
AcDbLine
 62
7
  6
BYLAYER
 10
109.8250769767
 20
96.3607167209
 11
109.825077023
 21
93.1606862745
  0
LINE
  5
25E
100
AcDbEntity
  8
0
100
AcDbLine
 62
7
  6
BYLAYER
 10
112.375077023
 20
133.6606862745
 11
112.375077023
 21
119.0606862745
  0
LINE
  5
25F
100
AcDbEntity
  8
0
100
AcDbLine
 62
7
  6
BYLAYER
 10
26.825077023
 20
137.8606862745
 11
25.085077023
 21
137.8606862745
  0
LINE
  5
260
100
AcDbEntity
  8
0
100
AcDbLine
 62
7
  6
BYLAYER
 10
112.525077023
 20
157.5606862745
 11
112.525077023
 21
121.5606862745
  0
LINE
  5
261
100
AcDbEntity
  8
0
100
AcDbLine
 62
7
  6
BYLAYER
 10
112.6978710698
 20
130.6606862745
 11
112.6978710698
 21
118.5607140508
  0
LINE
  5
262
100
AcDbEntity
  8
0
100
AcDbLine
 62
7
  6
BYLAYER
 10
113.697876486
 20
96.3607180654
 11
113.6978168894
 21
118.5607162992
  0
LINE
  5
263
100
AcDbEntity
  8
0
100
AcDbLine
 62
7
  6
BYLAYER
 10
149.125069595
 20
165.5758410793
 11
148.7439568735
 21
164.9042653327
  0
LINE
  5
264
100
AcDbEntity
  8
0
100
AcDbLine
 62
7
  6
BYLAYER
 10
109.7250864685
 20
157.5606862745
 11
133.725077023
 21
157.5606862745
  0
LINE
  5
265
100
AcDbEntity
  8
0
100
AcDbLine
 62
7
  6
BYLAYER
 10
127.6978710698
 20
117.0606862745
 11
127.6978710698
 21
118.5607556489
  0
LINE
  5
266
100
AcDbEntity
  8
0
100
AcDbLine
 62
7
  6
BYLAYER
 10
128.7765478726
 20
93.1606862745
 11
128.776548978
 21
73.7533694804
  0
LINE
  5
267
100
AcDbEntity
  8
0
100
AcDbLine
 62
7
  6
BYLAYER
 10
129.7366099665
 20
93.1606862745
 11
129.7366099665
 21
73.7453540558
  0
LINE
  5
268
100
AcDbEntity
  8
0
100
AcDbLine
 62
7
  6
BYLAYER
 10
130.9376550179
 20
157.5606862745
 11
130.9376550177
 21
180.1606862745
  0
LINE
  5
269
100
AcDbEntity
  8
0
100
AcDbLine
 62
7
  6
BYLAYER
 10
131.4978710698
 20
73.5606862745
 11
131.4978710698
 21
93.1606862745
  0
LINE
  5
26A
100
AcDbEntity
  8
0
100
AcDbLine
 62
7
  6
BYLAYER
 10
131.9237990329
 20
180.1606862745
 11
131.9237990329
 21
157.5606862745
  0
LINE
  5
26B
100
AcDbEntity
  8
0
100
AcDbLine
 62
7
  6
BYLAYER
 10
132.725077023
 20
174.3985239466
 11
132.725077023
 21
162.9228486024
  0
LINE
  5
26C
100
AcDbEntity
  8
0
100
AcDbLine
 62
7
  6
BYLAYER
 10
132.825077023
 20
182.9356862745
 11
132.825077023
 21
180.1606862745
  0
LINE
  5
26D
100
AcDbEntity
  8
0
100
AcDbLine
 62
7
  6
BYLAYER
 10
134.725077023
 20
160.3634248603
 11
133.3321370158
 21
160.3634248603
  0
LINE
  5
26E
100
AcDbEntity
  8
0
100
AcDbLine
 62
7
  6
BYLAYER
 10
133.725077023
 20
157.5606862745
 11
133.725077023
 21
160.3634248603
  0
LINE
  5
26F
100
AcDbEntity
  8
0
100
AcDbLine
 62
7
  6
BYLAYER
 10
133.725077023
 20
176.9579476887
 11
133.725077023
 21
180.1606862745
  0
LINE
  5
270
100
AcDbEntity
  8
0
100
AcDbLine
 62
7
  6
BYLAYER
 10
133.825077023
 20
182.9356862745
 11
133.825077023
 21
176.9579476887
  0
LINE
  5
271
100
AcDbEntity
  8
0
100
AcDbLine
 62
7
  6
BYLAYER
 10
134.725077023
 20
160.3634248603
 11
134.725077023
 21
164.9042653327
  0
LINE
  5
272
100
AcDbEntity
  8
0
100
AcDbLine
 62
7
  6
BYLAYER
 10
134.725077023
 20
172.4171072163
 11
134.725077023
 21
176.9579476887
  0
LINE
  5
273
100
AcDbEntity
  8
0
100
AcDbLine
 62
7
  6
BYLAYER
 10
134.725077023
 20
164.9042653327
 11
148.7439568736
 21
164.9042653327
  0
LINE
  5
274
100
AcDbEntity
  8
0
100
AcDbLine
 62
7
  6
BYLAYER
 10
134.725077023
 20
172.4171072163
 11
148.7439568736
 21
172.4171072163
  0
LINE
  5
275
100
AcDbEntity
  8
0
100
AcDbLine
 62
7
  6
BYLAYER
 10
134.725077023
 20
176.9579476887
 11
133.3321370158
 21
176.9579476887
  0
LINE
  5
276
100
AcDbEntity
  8
0
100
AcDbLine
 62
7
  6
BYLAYER
 10
149.125069595
 20
171.7453764188
 11
149.125069595
 21
165.5759961302
  0
LINE
  5
277
100
AcDbEntity
  8
0
100
AcDbLine
 62
7
  6
BYLAYER
 10
149.175077023
 20
166.9122950793
 11
149.175077023
 21
170.4090788058
  0
LINE
  5
278
100
AcDbEntity
  8
0
100
AcDbLine
 62
7
  6
BYLAYER
 10
133.725077023
 20
180.1606862745
 11
61.225077023
 21
180.1606862745
  0
LINE
  5
279
100
AcDbEntity
  8
0
100
AcDbLine
 62
7
  6
BYLAYER
 10
61.225077023
 20
180.4606862745
 11
68.725077023
 21
180.4606862745
  0
LINE
  5
27A
100
AcDbEntity
  8
0
100
AcDbLine
 62
7
  6
BYLAYER
 10
133.825077023
 20
182.9356862745
 11
132.825077023
 21
182.9356862745
  0
LINE
  5
27B
100
AcDbEntity
  8
0
100
AcDbLine
 62
7
  6
BYLAYER
 10
22.125077023
 20
192.5606862745
 11
68.725077023
 21
192.5606862745
  0
LINE
  5
27C
100
AcDbEntity
  8
0
100
AcDbLine
 62
7
  6
BYLAYER
 10
22.225077023
 20
193.2436862745
 11
23.725077023
 21
193.2436862745
  0
LINE
  5
27D
100
AcDbEntity
  8
0
100
AcDbLine
 62
7
  6
BYLAYER
 10
23.725077023
 20
194.3620386792
 11
22.225077023
 21
194.3620386792
  0
LINE
  5
27E
100
AcDbEntity
  8
0
100
AcDbLine
 62
7
  6
BYLAYER
 10
23.725077023
 20
195.3606862745
 11
22.225077023
 21
195.3606862745
  0
LINE
  5
27F
100
AcDbEntity
  8
0
100
AcDbLine
 62
7
  6
BYLAYER
 10
148.7439568735
 20
172.4171072163
 11
149.125069595
 21
171.745214886
  0
ARC
  5
280
100
AcDbEntity
  8
0
100
AcDbCircle
 62
7
  6
BYLAYER
 10
195.1192272682
 20
45.5606862745
 40
126.4543048544
100
AcDbArc
 50
178.2326502877
 51
181.7673497123
  0
ARC
  5
281
100
AcDbEntity
  8
0
100
AcDbCircle
 62
7
  6
BYLAYER
 10
195.1189656911
 20
185.5606862745
 40
126.4540434017
100
AcDbArc
 50
178.2326466324
 51
181.7673533676
  0
ARC
  5
282
100
AcDbEntity
  8
0
100
AcDbCircle
 62
7
  6
BYLAYER
 10
220.289850466
 20
168.6606862745
 40
71.6444386414
100
AcDbArc
 50
176.9945217776
 51
183.0054782224
  0
ARC
  5
283
100
AcDbEntity
  8
0
100
AcDbCircle
 62
7
  6
BYLAYER
 10
163.3267764681
 20
170.7440471999
 40
30.8191370736
100
AcDbArc
 50
173.0425642057
 51
173.1899482144
  0
SPLINE
  5
284
100
AcDbEntity
  8
0
100
AcDbSpline
 62
7
  6
BYLAYER
 70
0
 71
3
 72
29
 73
25
 74
0
 42
0.0000001
 43
0.0000001
 44
0.0000000001
 40
0.0
 40
0.0
 40
0.0
 40
0.0
 40
0.0057203051
 40
0.0145288126
 40
0.0273277662
 40
0.0443190325
 40
0.0654508581
 40
0.0905952436
 40
0.1521082068
 40
0.2267393962
 40
0.3117747296
 40
0.4040439002
 40
0.5000128143
 40
0.5959809345
 40
0.6882458783
 40
0.7732749368
 40
0.8478998715
 40
0.9094080646
 40
0.9345513732
 40
0.9556822802
 40
0.9726730218
 40
0.9854716759
 40
0.9942798114
 40
1.0
 40
1.0
 40
1.0
 40
1.0
 10
68.0023137091
 20
181.6606862745
 30
0.0
 10
67.9871423343
 20
181.6606862745
 30
0.0
 10
67.9506391726
 20
181.6823461952
 30
0.0
 10
67.9115789265
 20
181.7435480483
 30
0.0
 10
67.8698446212
 20
181.8374582617
 30
0.0
 10
67.8289987429
 20
181.9663126064
 30
0.0
 10
67.7880329556
 20
182.1291088386
 30
0.0
 10
67.7311011931
 20
182.4093344269
 30
0.0
 10
67.6678188494
 20
182.8326467102
 30
0.0
 10
67.606075641
 20
183.4161104331
 30
0.0
 10
67.5586904513
 20
184.0827336728
 30
0.0
 10
67.5288669273
 20
184.8069903458
 30
0.0
 10
67.5187147105
 20
185.5607864955
 30
0.0
 10
67.5288758827
 20
186.3145713218
 30
0.0
 10
67.5587050162
 20
187.0387976978
 30
0.0
 10
67.6060848962
 20
187.705376725
 30
0.0
 10
67.6678263976
 20
188.2887945865
 30
0.0
 10
67.7311086449
 20
188.7120743636
 30
0.0
 10
67.7880377781
 20
188.9922821693
 30
0.0
 10
67.829002605
 20
189.1550717325
 30
0.0
 10
67.8698473016
 20
189.2839216279
 30
0.0
 10
67.911579511
 20
189.3778290946
 30
0.0
 10
67.9506399487
 20
189.4390290496
 30
0.0
 10
67.9871426435
 20
189.4606862745
 30
0.0
 10
68.0023137091
 20
189.4606862745
 30
0.0
  0
SPLINE
  5
285
100
AcDbEntity
  8
0
100
AcDbSpline
 62
7
  6
BYLAYER
 70
0
 71
3
 72
11
 73
7
 74
0
 42
0.0000001
 43
0.0000001
 44
0.0000000001
 40
0.0
 40
0.0
 40
0.0
 40
0.0
 40
0.1186227686
 40
0.3440585995
 40
0.6498199269
 40
1.0
 40
1.0
 40
1.0
 40
1.0
 10
129.7366099665
 20
73.3760184932
 30
0.0
 10
129.6986960323
 20
73.3740446295
 30
0.0
 10
129.5885465942
 20
73.3728342027
 30
0.0
 10
129.3806134797
 20
73.3703160027
 30
0.0
 10
129.0985161812
 20
73.3691751576
 30
0.0
 10
128.8885857056
 20
73.3687628803
 30
0.0
 10
128.7765103882
 20
73.3687372687
 30
0.0
  0
SPLINE
  5
286
100
AcDbEntity
  8
0
100
AcDbSpline
 62
7
  6
BYLAYER
 70
0
 71
3
 72
29
 73
25
 74
0
 42
0.0000001
 43
0.0000001
 44
0.0000000001
 40
0.0
 40
0.0
 40
0.0
 40
0.0
 40
0.0057203018
 40
0.0145288309
 40
0.027327836
 40
0.0443192285
 40
0.0654512069
 40
0.0905956635
 40
0.152108809
 40
0.2267402787
 40
0.3117761206
 40
0.4040457721
 40
0.5000142522
 40
0.5959829978
 40
0.6882497936
 40
0.7732767159
 40
0.847899883
 40
0.9094108768
 40
0.9345545634
 40
0.955684188
 40
0.9726734066
 40
0.9854714039
 40
0.9942795492
 40
1.0
 40
1.0
 40
1.0
 40
1.0
 10
68.0023137091
 20
41.6606862745
 30
0.0
 10
67.9871423419
 20
41.6606862745
 30
0.0
 10
67.9506391862
 20
41.6823463996
 30
0.0
 10
67.9115791228
 20
41.7435485552
 30
0.0
 10
67.8698446365
 20
41.8374592751
 30
0.0
 10
67.8289984855
 20
41.9663144648
 30
0.0
 10
67.7880324072
 20
42.1291115958
 30
0.0
 10
67.731100394
 20
42.4093382643
 30
0.0
 10
67.667819006
 20
42.8326521684
 30
0.0
 10
67.6060753929
 20
43.4161184556
 30
0.0
 10
67.5586887158
 20
44.0827450336
 30
0.0
 10
67.528865178
 20
44.807003243
 30
0.0
 10
67.5187116206
 20
45.5608012159
 30
0.0
 10
67.5288798837
 20
46.3145916426
 30
0.0
 10
67.5587252922
 20
47.0388180062
 30
0.0
 10
67.6060639868
 20
47.7053940901
 30
0.0
 10
67.6677996313
 20
48.2888110691
 30
0.0
 10
67.7311369407
 20
48.7120861313
 30
0.0
 10
67.7880661409
 20
48.9922986685
 30
0.0
 10
67.8290171455
 20
49.1550849196
 30
0.0
 10
67.8698467645
 20
49.283930018
 30
0.0
 10
67.9115734866
 20
49.3778340801
 30
0.0
 10
67.9506380162
 20
49.4390307156
 30
0.0
 10
67.9871419467
 20
49.4606862745
 30
0.0
 10
68.0023137091
 20
49.4606862745
 30
0.0
  0
SPLINE
  5
287
100
AcDbEntity
  8
0
100
AcDbSpline
 62
7
  6
BYLAYER
 70
0
 71
3
 72
14
 73
10
 74
0
 42
0.0000001
 43
0.0000001
 44
0.0000000001
 40
0.0
 40
0.0
 40
0.0
 40
0.0
 40
0.0369477828
 40
0.094121446
 40
0.1772248959
 40
0.2876689993
 40
0.4257624765
 40
0.5911446911
 40
1.0
 40
1.0
 40
1.0
 40
1.0
 10
133.3321194262
 20
176.9577959408
 30
0.0
 10
133.3149297049
 20
176.9578150314
 30
0.0
 10
133.2733812478
 20
176.9336785279
 30
0.0
 10
133.2272201245
 20
176.8652968238
 30
0.0
 10
133.1764006668
 20
176.7597980491
 30
0.0
 10
133.1245270012
 20
176.6143728622
 30
0.0
 10
133.0704670255
 20
176.4294546584
 30
0.0
 10
132.9913697008
 20
176.1075574325
 30
0.0
 10
132.9403591231
 20
175.8451421788
 30
0.0
 10
132.9072336817
 20
175.6578312494
 30
0.0
  0
SPLINE
  5
288
100
AcDbEntity
  8
0
100
AcDbSpline
 62
7
  6
BYLAYER
 70
0
 71
3
 72
31
 73
27
 74
0
 42
0.0000001
 43
0.0000001
 44
0.0000000001
 40
0.0
 40
0.0
 40
0.0
 40
0.0
 40
0.0056038246
 40
0.0141869884
 40
0.026759498
 40
0.0435580533
 40
0.0645450215
 40
0.0895988493
 40
0.1185390583
 40
0.1510972372
 40
0.225881106
 40
0.3111719805
 40
0.4037364857
 40
0.5000097405
 40
0.5962828606
 40
0.6888455352
 40
0.7741325845
 40
0.8489119365
 40
0.8814674967
 40
0.9104056196
 40
0.935458217
 40
0.9564438184
 40
0.9732414511
 40
0.9858135091
 40
0.994396277
 40
1.0
 40
1.0
 40
1.0
 40
1.0
 10
68.0023137091
 20
49.4606862745
 30
0.0
 10
68.017108437
 20
49.4606862745
 30
0.0
 10
68.0526603542
 20
49.4392314327
 30
0.0
 10
68.0879361015
 20
49.377573359
 30
0.0
 10
68.1239888003
 20
49.2837718136
 30
0.0
 10
68.1571755926
 20
49.1548533015
 30
0.0
 10
68.1889209522
 20
48.9919680644
 30
0.0
 10
68.2182060314
 20
48.7961344723
 30
0.0
 10
68.245021181
 20
48.5691823076
 30
0.0
 10
68.278820071
 20
48.2109462968
 30
0.0
 10
68.3121802682
 20
47.7033782226
 30
0.0
 10
68.3398582868
 20
47.0369176294
 30
0.0
 10
68.3564419037
 20
46.3133406476
 30
0.0
 10
68.3619785613
 20
45.5606089463
 30
0.0
 10
68.3564374912
 20
44.8078821295
 30
0.0
 10
68.3398528869
 20
44.0843204548
 30
0.0
 10
68.3121727352
 20
43.4178868499
 30
0.0
 10
68.2788148204
 20
42.9103476237
 30
0.0
 10
68.2450160458
 20
42.5521360388
 30
0.0
 10
68.2182010206
 20
42.3251996573
 30
0.0
 10
68.1889177756
 20
42.129378285
 30
0.0
 10
68.1571721981
 20
41.9665025345
 30
0.0
 10
68.123985744
 20
41.8375914407
 30
0.0
 10
68.0879356754
 20
41.7437940915
 30
0.0
 10
68.0526595929
 20
41.6821384309
 30
0.0
 10
68.017108169
 20
41.6606862745
 30
0.0
 10
68.0023137091
 20
41.6606862745
 30
0.0
  0
SPLINE
  5
289
100
AcDbEntity
  8
0
100
AcDbSpline
 62
7
  6
BYLAYER
 70
0
 71
3
 72
31
 73
27
 74
0
 42
0.0000001
 43
0.0000001
 44
0.0000000001
 40
0.0
 40
0.0
 40
0.0
 40
0.0
 40
0.0056038151
 40
0.0141869933
 40
0.0267595516
 40
0.0435582272
 40
0.0645453359
 40
0.0895992206
 40
0.1185394836
 40
0.1510977524
 40
0.2258818747
 40
0.3111732347
 40
0.4037381665
 40
0.5000108726
 40
0.5962845632
 40
0.6888491649
 40
0.7741341321
 40
0.8489116904
 40
0.8814684198
 40
0.9104080728
 40
0.935461139
 40
0.9564456401
 40
0.9732419399
 40
0.9858133999
 40
0.9943961003
 40
1.0
 40
1.0
 40
1.0
 40
1.0
 10
68.0023137091
 20
189.4606862745
 30
0.0
 10
68.0171084131
 20
189.4606862745
 30
0.0
 10
68.0526602914
 20
189.4392312474
 30
0.0
 10
68.0879357777
 20
189.3775728961
 30
0.0
 10
68.123988721
 20
189.2837709316
 30
0.0
 10
68.1571759288
 20
189.1548516711
 30
0.0
 10
68.1889216868
 20
188.9919656462
 30
0.0
 10
68.2182070087
 20
188.7961314014
 30
0.0
 10
68.2450216754
 20
188.5691786263
 30
0.0
 10
68.2788196544
 20
188.2109414573
 30
0.0
 10
68.3121801176
 20
187.703371194
 30
0.0
 10
68.3398591723
 20
187.0369075157
 30
0.0
 10
68.356442589
 20
186.3133295219
 30
0.0
 10
68.3619797038
 20
185.5605966
 30
0.0
 10
68.3564354995
 20
184.8078645494
 30
0.0
 10
68.3398431739
 20
184.0843020236
 30
0.0
 10
68.3121868979
 20
183.4178726691
 30
0.0
 10
68.2788301347
 20
182.9103400715
 30
0.0
 10
68.2450083839
 20
182.552128159
 30
0.0
 10
68.2181800217
 20
182.3251850053
 30
0.0
 10
68.1888979406
 20
182.1293611939
 30
0.0
 10
68.1571615997
 20
181.9664890063
 30
0.0
 10
68.1239854286
 20
181.837583535
 30
0.0
 10
68.0879399488
 20
181.743789746
 30
0.0
 10
68.0526608005
 20
181.6821369281
 30
0.0
 10
68.0171086363
 20
181.6606862745
 30
0.0
 10
68.0023137091
 20
181.6606862745
 30
0.0
  0
SPLINE
  5
28A
100
AcDbEntity
  8
0
100
AcDbSpline
 62
7
  6
BYLAYER
 70
0
 71
3
 72
14
 73
10
 74
0
 42
0.0000001
 43
0.0000001
 44
0.0000000001
 40
0.0
 40
0.0
 40
0.0
 40
0.0
 40
0.4106894547
 40
0.7194662774
 40
0.8318900724
 40
0.9152589573
 40
0.9461240382
 40
0.9700235171
 40
1.0
 40
1.0
 40
1.0
 40
1.0
 10
132.725077023
 20
162.9228486024
 30
0.0
 10
132.7683734422
 20
162.5603366008
 30
0.0
 10
132.8554130356
 20
161.9265718718
 30
0.0
 10
132.990125098
 20
161.1988156435
 30
0.0
 10
133.1050939411
 20
160.7647565218
 30
0.0
 10
133.1700934141
 20
160.5741999987
 30
0.0
 10
133.2245566729
 20
160.46279906
 30
0.0
 10
133.2637381815
 20
160.4009350177
 30
0.0
 10
133.3054739936
 20
160.3635021604
 30
0.0
 10
133.3321220202
 20
160.3635195263
 30
0.0
  0
SPLINE
  5
28B
100
AcDbEntity
  8
0
100
AcDbSpline
 62
7
  6
BYLAYER
 70
0
 71
3
 72
9
 73
5
 74
0
 42
0.0000001
 43
0.0000001
 44
0.0000000001
 40
0.0
 40
0.0
 40
0.0
 40
0.0
 40
0.2240286036
 40
1.0
 40
1.0
 40
1.0
 40
1.0
 10
132.9072336817
 20
175.6578312494
 30
0.0
 10
132.8917161848
 20
175.5700861009
 30
0.0
 10
132.8258648673
 20
175.1778136502
 30
0.0
 10
132.771969149
 20
174.7835967986
 30
0.0
 10
132.7345788001
 20
174.4772297305
 30
0.0
  0
SPLINE
  5
28C
100
AcDbEntity
  8
0
100
AcDbSpline
 62
7
  6
BYLAYER
 70
0
 71
3
 72
11
 73
7
 74
0
 42
0.0000001
 43
0.0000001
 44
0.0000000001
 40
0.0
 40
0.0
 40
0.0
 40
0.0
 40
0.3501802437
 40
0.6559415162
 40
0.8813772441
 40
1.0
 40
1.0
 40
1.0
 40
1.0
 10
128.7765137048
 20
73.7526352796
 30
0.0
 10
128.8885886897
 20
73.7526096664
 30
0.0
 10
129.0985184771
 20
73.7521973831
 30
0.0
 10
129.3806148052
 20
73.7510565352
 30
0.0
 10
129.5885471469
 20
73.7485383408
 30
0.0
 10
129.6986961673
 20
73.7473279125
 30
0.0
 10
129.7366099665
 20
73.7453540558
 30
0.0
  0
ELLIPSE
  5
28D
100
AcDbEntity
  8
0
100
AcDbEllipse
 62
7
  6
BYLAYER
 10
3.4978710698
 20
73.5606862745
 30
0.0
 11
128.0
 21
0.0
 31
0.0
 40
0.0087268678
 41
6.1171038557
 42
6.4492667586
  0
ENDSEC
  0
SECTION
  2
OBJECTS
  0
DICTIONARY
  5
C
100
AcDbDictionary
280
0
281
1
  3
ACAD_GROUP
350
D
  3
ACAD_MLINESTYLE
350
17
  3
ACAD_LAYOUT
350
1A
  3
ACAD_PLOTSETTINGS
350
19
  3
ACAD_PLOTSTYLENAME
350
E
  0
DICTIONARY
  5
D
102
{ACAD_REACTORS
330
C
102
}
100
AcDbDictionary
280
0
281
1
  0
ACDBDICTIONARYWDFLT
  5
E
102
{ACAD_REACTORS
330
C
102
}
100
AcDbDictionary
281
1
  3
Normal
350
F
100
AcDbDictionaryWithDefault
340
F
  0
DICTIONARY
  5
17
102
{ACAD_REACTORS
330
C
102
}
100
AcDbDictionary
280
0
281
1
  3
Standard
350
18
  0
DICTIONARY
  5
19
102
{ACAD_REACTORS
330
C
102
}
100
AcDbDictionary
281
1
  0
DICTIONARY
  5
1A
102
{ACAD_REACTORS
330
C
102
}
100
AcDbDictionary
281
1
  3
Model
350
28E
  3
Layout1
350
28F
  0
ACDBPLACEHOLDER
  5
F
102
{ACAD_REACTORS
330
E
102
}
  0
MLINESTYLE
  5
18
102
{ACAD_REACTORS
330
17
102
}
100
AcDbMlineStyle
  2
STANDARD
 70
0
  3

 62
256
 51
90.0
 52
90.0
 71
2
 49
0.5
 62
256
  6
BYLAYER
 49
-0.5
 62
256
  6
BYLAYER
  0
LAYOUT
  5
28E
102
{ACAD_REACTORS
330
1A
102
}
100
AcDbPlotSettings
  1

  2
none_device
  4

  6

 40
0.0
 41
0.0
 42
0.0
 43
0.0
 44
210.0
 45
297.0
 46
0.0
 47
0.0
 48
0.0
 49
0.0
140
0.0
141
0.0
142
1.0
143
1.0
 70
1024
 72
1
 73
0
 74
0
  7

 75
0
147
1.0
148
0.0
149
0.0
100
AcDbLayout
  1
Model
 70
0
 71
0
 10
0.0
 20
0.0
 11
210.0
 21
297.0
 12
0.0
 22
0.0
 32
0.0
 14
0.0
 24
0.0
 34
0.0
 15
0.0
 25
0.0
 35
0.0
146
0.0
 13
0.0
 23
0.0
 33
0.0
 16
1.0
 26
0.0
 36
0.0
 17
0.0
 27
1.0
 37
0.0
 76
0
330
210
345
0
346
0
  0
LAYOUT
  5
28F
102
{ACAD_REACTORS
330
1A
102
}
100
AcDbPlotSettings
  1

  2
none_device
  4

  6

 40
0.0
 41
0.0
 42
0.0
 43
0.0
 44
210.0
 45
297.0
 46
0.0
 47
0.0
 48
0.0
 49
0.0
140
0.0
141
0.0
142
1.0
143
1.0
 70
0
 72
1
 73
0
 74
0
  7

 75
0
147
1.0
148
0.0
149
0.0
100
AcDbLayout
  1
Layout1
 70
0
 71
1
 10
0.0
 20
0.0
 11
210.0
 21
297.0
 12
0.0
 22
0.0
 32
0.0
 14
0.0
 24
0.0
 34
0.0
 15
0.0
 25
0.0
 35
0.0
146
0.0
 13
0.0
 23
0.0
 33
0.0
 16
1.0
 26
0.0
 36
0.0
 17
0.0
 27
1.0
 37
0.0
 76
0
330
211
345
0
346
0
  0
ENDSEC
  0
EOF
