  0
SECTION
  2
HEADER
  9
$ACADVER
  1
AC1009
  9
$DWGCODEPAGE
  3
ansi_1250
  9
$INSBASE
 10
0.0
 20
0.0
 30
0.0
  9
$EXTMIN
 10
-0.2425
 20
-0.80893
 30
0.0
  9
$EXTMAX
 10
1.041
 20
0.80893
 30
0.0
  9
$LIMMIN
 10
0.0
 20
0.0
  9
$LIMMAX
 10
0.0
 20
0.0
  9
$ORTHOMODE
 70
     0
  9
$REGENMODE
 70
     1
  9
$FILLMODE
 70
     1
  9
$QTEXTMODE
 70
     0
  9
$MIRRTEXT
 70
     1
  9
$DRAGMODE
 70
     2
  9
$LTSCALE
 40
1.0
  9
$OSMODE
 70
     0
  9
$ATTMODE
 70
     1
  9
$TEXTSIZE
 40
0.2
  9
$TRACEWID
 40
0.05
  9
$TEXTSTYLE
  7
STANDARD
  9
$CLAYER
  8
0
  9
$CELTYPE
  6
CONTINUOUS
  9
$CECOLOR
 62
   256
  9
$DIMSCALE
 40
1.0
  9
$DIMASZ
 40
0.18
  9
$DIMEXO
 40
0.0625
  9
$DIMDLI
 40
0.38
  9
$DIMRND
 40
0.0
  9
$DIMDLE
 40
0.0
  9
$DIMEXE
 40
0.18
  9
$DIMTP
 40
0.0
  9
$DIMTM
 40
0.0
  9
$DIMTXT
 40
0.18
  9
$DIMCEN
 40
0.09
  9
$DIMTSZ
 40
0.0
  9
$DIMTOL
 70
     0
  9
$DIMLIM
 70
     0
  9
$DIMTIH
 70
     1
  9
$DIMTOH
 70
     1
  9
$DIMSE1
 70
     0
  9
$DIMSE2
 70
     0
  9
$DIMTAD
 70
     0
  9
$DIMZIN
 70
     0
  9
$DIMBLK
  1

  9
$DIMASO
 70
     1
  9
$DIMSHO
 70
     1
  9
$DIMPOST
  1

  9
$DIMAPOST
  1

  9
$DIMALT
 70
     0
  9
$DIMALTD
 70
     2
  9
$DIMALTF
 40
25.4
  9
$DIMLFAC
 40
1.0
  9
$DIMTOFL
 70
     0
  9
$DIMTVP
 40
0.0
  9
$DIMTIX
 70
     0
  9
$DIMSOXD
 70
     0
  9
$DIMSAH
 70
     0
  9
$DIMBLK1
  1

  9
$DIMBLK2
  1

  9
$DIMSTYLE
  2
STANDARD
  9
$DIMCLRD
 70
     0
  9
$DIMCLRE
 70
     0
  9
$DIMCLRT
 70
     0
  9
$DIMTFAC
 40
1.0
  9
$DIMGAP
 40
0.09
  9
$LUNITS
 70
     2
  9
$LUPREC
 70
     4
  9
$AXISMODE
 70
     0
  9
$AXISUNIT
 10
0.0
 20
0.0
  9
$SKETCHINC
 40
0.1
  9
$FILLETRAD
 40
0.0
  9
$AUNITS
 70
     0
  9
$AUPREC
 70
     0
  9
$MENU
  1
acad
  9
$ELEVATION
 40
0.0
  9
$PELEVATION
 40
0.0
  9
$THICKNESS
 40
0.0
  9
$LIMCHECK
 70
     0
  9
$BLIPMODE
 70
     1
  9
$CHAMFERA
 40
0.0
  9
$CHAMFERB
 40
0.0
  9
$SKPOLY
 70
     0
  9
$TDCREATE
 40
0.000000000
  9
$TDUPDATE
 40
0.000000000
  9
$TDINDWG
 40
0.0000000000
  9
$TDUSRTIMER
 40
0.0000000000
  9
$USRTIMER
 70
     1
  9
$ANGBASE
 50
0.0
  9
$ANGDIR
 70
     0
  9
$PDMODE
 70
     0
  9
$PDSIZE
 40
0.0
  9
$PLINEWID
 40
0.0
  9
$COORDS
 70
     0
  9
$SPLFRAME
 70
     0
  9
$SPLINETYPE
 70
     6
  9
$SPLINESEGS
 70
     8
  9
$ATTDIA
 70
     0
  9
$ATTREQ
 70
     1
  9
$HANDLING
 70
     1
  9
$HANDSEED
  5
35D
  9
$SURFTAB1
 70
     6
  9
$SURFTAB2
 70
     6
  9
$SURFTYPE
 70
     6
  9
$SURFU
 70
     6
  9
$SURFV
 70
     6
  9
$UCSNAME
  2

  9
$UCSORG
 10
0.0
 20
0.0
 30
0.0
  9
$UCSXDIR
 10
1.0
 20
0.0
 30
0.0
  9
$UCSYDIR
 10
0.0
 20
1.0
 30
0.0
  9
$PUCSNAME
  2

  9
$PUCSORG
 10
0.0
 20
0.0
 30
0.0
  9
$PUCSXDIR
 10
1.0
 20
0.0
 30
0.0
  9
$PUCSYDIR
 10
0.0
 20
1.0
 30
0.0
  9
$USERI1
 70
     0
  9
$USERI2
 70
     0
  9
$USERI3
 70
     0
  9
$USERI4
 70
     0
  9
$USERI5
 70
     0
  9
$USERR1
 40
0.0
  9
$USERR2
 40
0.0
  9
$USERR3
 40
0.0
  9
$USERR4
 40
0.0
  9
$USERR5
 40
0.0
  9
$WORLDVIEW
 70
     1
  9
$SHADEDGE
 70
     3
  9
$SHADEDIF
 70
    70
  9
$TILEMODE
 70
     1
  9
$MAXACTVP
 70
    16
  9
$PINSBASE
 10
0.0
 20
0.0
 30
0.0
  9
$PLIMCHECK
 70
     0
  9
$PEXTMIN
 10
1.000000E+20
 20
1.000000E+20
 30
1.000000E+20
  9
$PEXTMAX
 10
-1.000000E+20
 20
-1.000000E+20
 30
-1.000000E+20
  9
$PLIMMIN
 10
0.0
 20
0.0
  9
$PLIMMAX
 10
12.0
 20
9.0
  9
$UNITMODE
 70
     0
  9
$VISRETAIN
 70
     0
  9
$PLINEGEN
 70
     1
  9
$PSLTSCALE
 70
     0
  9
$TREEDEPTH
 70
  3020
  0
ENDSEC
  0
SECTION
  2
TABLES
  0
TABLE
  2
VPORT
 70
     1
  0
VPORT
  2
*ACTIVE
 70
     0
 10
0.0
 20
0.0
 11
1.0
 21
1.0
 12
6.591288
 22
4.579184
 13
0.0
 23
0.0
 14
1.0
 24
1.0
 15
0.0
 25
0.0
 16
0.0
 26
0.0
 36
1.0
 17
0.0
 27
0.0
 37
0.0
 40
9.158369
 41
0.688564
 42
50.0
 43
0.0
 44
0.0
 50
0.0
 51
0.0
 71
     0
 72
   100
 73
     1
 74
     1
 75
     0
 76
     0
 77
     0
 78
     0
  0
ENDTAB
  0
TABLE
  2
LTYPE
 70
     5
  0
LTYPE
  2
CONTINUOUS
 70
    64
  3
Solid line
 72
    65
 73
     0
 40
0.0
  0
LTYPE
  2
CENTER
 70
    64
  3
Center ____ _ ____ _ ____ _ ____ _ ____ _ ____
 72
    65
 73
     4
 40
50.8
 49
31.75
 49
-6.35
 49
6.35
 49
-6.35
  0
LTYPE
  2
HIDDEN
 70
    64
  3
Hidden __ __ __ __ __ __ __ __ __ __ __ __ __ __
 72
    65
 73
     2
 40
9.525
 49
6.35
 49
-3.175
  0
LTYPE
  2
CENTER2
 70
    64
  3
Center (.5x) ___ _ ___ _ ___ _ ___ _ ___ _ ___
 72
    65
 73
     4
 40
28.575
 49
19.05
 49
-3.175
 49
3.175
 49
-3.175
  0
LTYPE
  2
HIDDEN2
 70
    64
  3
Hidden (.5x) _ _ _ _ _ _ _ _ _ _ _ _ _ _ _ _ _
 72
    65
 73
     2
 40
4.7625
 49
3.175
 49
-1.5875
  0
ENDTAB
  0
TABLE
  2
LAYER
 70
     1
  0
LAYER
  2
0
 70
     0
 62
     7
  6
CONTINUOUS
  0
ENDTAB
  0
TABLE
  2
STYLE
 70
     1
  0
STYLE
  2
STANDARD
 70
     0
 40
0.0
 41
1.0
 50
0.0
 71
     0
 42
0.0
  3
txt
  4

  0
ENDTAB
  0
TABLE
  2
VIEW
 70
     0
  0
ENDTAB
  0
TABLE
  2
UCS
 70
     0
  0
ENDTAB
  0
TABLE
  2
APPID
 70
     1
  0
APPID
  2
ACAD
 70
     0
  0
ENDTAB
  0
TABLE
  2
DIMSTYLE
 70
     1
  0
DIMSTYLE
  2
STANDARD
 70
     0
  3

  4

  5

  6

  7

 40
1.0
 41
0.18
 42
0.0625
 43
0.38
 44
0.18
 45
0.0
 46
0.0
 47
0.0
 48
0.0
 71
     0
 72
     0
 73
     1
 74
     1
 75
     0
 76
     0
 77
     0
 78
     0
140
0.18
141
0.09
142
0.0
143
25.4
144
1.0
145
0.0
146
1.0
147
0.09
170
     0
171
     2
172
     0
173
     0
174
     0
175
     0
176
     0
177
     0
178
     0
  0
ENDTAB
  0
ENDSEC
  0
SECTION
  2
BLOCKS
  0
ENDSEC
  0
SECTION
  2
ENTITIES
  0
LINE
  8
0
  6
CONTINUOUS
 62
     7
  5
1D2
 10
0.297895
 20
0.406233
 30
0.0
 11
0.198193
 21
0.505935
 31
0.0
  0
LINE
  8
0
  6
CONTINUOUS
 62
     7
  5
1D3
 10
0.230366
 20
0.296985
 30
0.0
 11
0.304613
 21
0.371231
 31
0.0
  0
LINE
  8
0
  6
CONTINUOUS
 62
     7
  5
1D4
 10
0.32229
 20
0.353553
 30
0.0
 11
0.248044
 21
0.279307
 31
0.0
  0
LINE
  8
0
  6
CONTINUOUS
 62
     7
  5
1D5
 10
0.258285
 20
0.566051
 30
0.0
 11
0.358011
 21
0.466325
 31
0.0
  0
LINE
  8
0
  6
CONTINUOUS
 62
     7
  5
1D6
 10
0.29047
 20
0.357089
 30
0.0
 11
0.149049
 21
0.49851
 31
0.0
  0
LINE
  8
0
  6
CONTINUOUS
 62
     7
  5
1D7
 10
0.191122
 20
0.498864
 30
0.0
 11
0.290824
 21
0.399162
 31
0.0
  0
LINE
  8
0
  6
CONTINUOUS
 62
     7
  5
1D8
 10
0.163191
 20
0.512652
 30
0.0
 11
0.088945
 21
0.438406
 31
0.0
  0
LINE
  8
0
  6
CONTINUOUS
 62
     7
  5
1D9
 10
0.071267
 20
0.456084
 30
0.0
 11
0.145513
 21
0.53033
 31
0.0
  0
LINE
  8
0
  6
CONTINUOUS
 62
     7
  5
1DA
 10
0.215871
 20
0.523613
 30
0.0
 11
0.315573
 21
0.423911
 31
0.0
  0
LINE
  8
0
  6
CONTINUOUS
 62
     7
  5
1DB
 10
0.27823
 20
0.580047
 30
0.0
 11
0.303686
 21
0.605503
 31
0.0
  0
LINE
  8
0
  6
CONTINUOUS
 62
     7
  5
1DC
 10
0.303686
 20
0.605503
 30
0.0
 11
0.328181
 21
0.581008
 31
0.0
  0
LINE
  8
0
  6
CONTINUOUS
 62
     7
  5
1DD
 10
0.302725
 20
0.555552
 30
0.0
 11
0.27823
 21
0.580047
 31
0.0
  0
LINE
  8
0
  6
CONTINUOUS
 62
     7
  5
1DE
 10
0.328181
 20
0.581008
 30
0.0
 11
0.302725
 21
0.555552
 31
0.0
  0
LINE
  8
0
  6
CONTINUOUS
 62
     7
  5
1DF
 10
0.328181
 20
0.581008
 30
0.0
 11
0.400425
 21
0.508763
 31
0.0
  0
LINE
  8
0
  6
CONTINUOUS
 62
     7
  5
1E0
 10
0.300724
 20
0.608465
 30
0.0
 11
0.303686
 21
0.605503
 31
0.0
  0
LINE
  8
0
  6
CONTINUOUS
 62
     7
  5
1E1
 10
0.252287
 20
0.275065
 30
0.0
 11
0.067025
 21
0.460327
 31
0.0
  0
LINE
  8
0
  6
CONTINUOUS
 62
     7
  5
1E2
 10
0.198193
 20
-0.505935
 30
0.0
 11
0.297895
 21
-0.406233
 31
0.0
  0
LINE
  8
0
  6
CONTINUOUS
 62
     7
  5
1E3
 10
0.088945
 20
-0.438406
 30
0.0
 11
0.163191
 21
-0.512652
 31
0.0
  0
LINE
  8
0
  6
CONTINUOUS
 62
     7
  5
1E4
 10
0.145513
 20
-0.53033
 30
0.0
 11
0.071267
 21
-0.456084
 31
0.0
  0
LINE
  8
0
  6
CONTINUOUS
 62
     7
  5
1E5
 10
0.358011
 20
-0.466325
 30
0.0
 11
0.258285
 21
-0.566051
 31
0.0
  0
LINE
  8
0
  6
CONTINUOUS
 62
     7
  5
1E6
 10
0.149049
 20
-0.49851
 30
0.0
 11
0.29047
 21
-0.357089
 31
0.0
  0
LINE
  8
0
  6
CONTINUOUS
 62
     7
  5
1E7
 10
0.290824
 20
-0.399162
 30
0.0
 11
0.191122
 21
-0.498864
 31
0.0
  0
LINE
  8
0
  6
CONTINUOUS
 62
     7
  5
1E8
 10
0.304613
 20
-0.371231
 30
0.0
 11
0.230366
 21
-0.296985
 31
0.0
  0
LINE
  8
0
  6
CONTINUOUS
 62
     7
  5
1E9
 10
0.248044
 20
-0.279307
 30
0.0
 11
0.32229
 21
-0.353553
 31
0.0
  0
LINE
  8
0
  6
CONTINUOUS
 62
     7
  5
1EA
 10
0.315573
 20
-0.423911
 30
0.0
 11
0.215871
 21
-0.523613
 31
0.0
  0
LINE
  8
0
  6
CONTINUOUS
 62
     7
  5
1EB
 10
0.372007
 20
-0.48627
 30
0.0
 11
0.397463
 21
-0.511726
 31
0.0
  0
LINE
  8
0
  6
CONTINUOUS
 62
     7
  5
1EC
 10
0.397463
 20
-0.511726
 30
0.0
 11
0.372968
 21
-0.536221
 31
0.0
  0
LINE
  8
0
  6
CONTINUOUS
 62
     7
  5
1ED
 10
0.347512
 20
-0.510765
 30
0.0
 11
0.372007
 21
-0.48627
 31
0.0
  0
LINE
  8
0
  6
CONTINUOUS
 62
     7
  5
1EE
 10
0.372968
 20
-0.536221
 30
0.0
 11
0.347512
 21
-0.510765
 31
0.0
  0
LINE
  8
0
  6
CONTINUOUS
 62
     7
  5
1EF
 10
0.372968
 20
-0.536221
 30
0.0
 11
0.300724
 21
-0.608465
 31
0.0
  0
LINE
  8
0
  6
CONTINUOUS
 62
     7
  5
1F0
 10
0.400425
 20
-0.508764
 30
0.0
 11
0.397463
 21
-0.511726
 31
0.0
  0
LINE
  8
0
  6
CONTINUOUS
 62
     7
  5
1F1
 10
0.067025
 20
-0.460327
 30
0.0
 11
0.252287
 21
-0.275065
 31
0.0
  0
LINE
  8
0
  6
CONTINUOUS
 62
     7
  5
1F2
 10
0.97
 20
0.1275
 30
0.0
 11
1.041
 21
0.1275
 31
0.0
  0
LINE
  8
0
  6
CONTINUOUS
 62
     7
  5
1F3
 10
0.97
 20
-0.1275
 30
0.0
 11
1.041
 21
-0.1275
 31
0.0
  0
LINE
  8
0
  6
CONTINUOUS
 62
     7
  5
1F4
 10
1.041
 20
-0.1275
 30
0.0
 11
1.041
 21
0.1275
 31
0.0
  0
LINE
  8
0
  6
CONTINUOUS
 62
     7
  5
1F5
 10
0.97
 20
0.400222
 30
0.0
 11
0.97
 21
0.242715
 31
0.0
  0
LINE
  8
0
  6
CONTINUOUS
 62
     7
  5
1F6
 10
0.730998
 20
0.639225
 30
0.0
 11
0.97
 21
0.400222
 31
0.0
  0
LINE
  8
0
  6
CONTINUOUS
 62
     7
  5
1F7
 10
0.652244
 20
0.560471
 30
0.0
 11
0.730998
 21
0.639225
 31
0.0
  0
LINE
  8
0
  6
CONTINUOUS
 62
     7
  5
1F8
 10
0.97
 20
0.242715
 30
0.0
 11
0.652244
 21
0.560471
 31
0.0
  0
LINE
  8
0
  6
CONTINUOUS
 62
     7
  5
1F9
 10
0.554663
 20
0.46289
 30
0.0
 11
0.652244
 21
0.560471
 31
0.0
  0
LINE
  8
0
  6
CONTINUOUS
 62
     7
  5
1FA
 10
0.97
 20
-0.242715
 30
0.0
 11
0.97
 21
-0.400222
 31
0.0
  0
LINE
  8
0
  6
CONTINUOUS
 62
     7
  5
1FB
 10
0.652244
 20
-0.560471
 30
0.0
 11
0.97
 21
-0.242715
 31
0.0
  0
LINE
  8
0
  6
CONTINUOUS
 62
     7
  5
1FC
 10
0.730998
 20
-0.639225
 30
0.0
 11
0.652244
 21
-0.560471
 31
0.0
  0
LINE
  8
0
  6
CONTINUOUS
 62
     7
  5
1FD
 10
0.97
 20
-0.400222
 30
0.0
 11
0.730998
 21
-0.639225
 31
0.0
  0
LINE
  8
0
  6
CONTINUOUS
 62
     7
  5
1FE
 10
0.97
 20
0.242715
 30
0.0
 11
0.97
 21
-0.242715
 31
0.0
  0
LINE
  8
0
  6
CONTINUOUS
 62
     7
  5
1FF
 10
0.97
 20
-0.795
 30
0.0
 11
0.97
 21
-0.400222
 31
0.0
  0
LINE
  8
0
  6
CONTINUOUS
 62
     7
  5
200
 10
0.97
 20
0.400222
 30
0.0
 11
0.97
 21
0.795
 31
0.0
  0
LINE
  8
0
  6
CONTINUOUS
 62
     7
  5
201
 10
0.554663
 20
-0.46289
 30
0.0
 11
0.652244
 21
-0.560471
 31
0.0
  0
LINE
  8
0
  6
CONTINUOUS
 62
     7
  5
202
 10
0.498006
 20
-0.606344
 30
0.0
 11
0.454608
 21
-0.562945
 31
0.0
  0
LINE
  8
0
  6
CONTINUOUS
 62
     7
  5
203
 10
0.398304
 20
-0.706046
 30
0.0
 11
0.498006
 21
-0.606344
 31
0.0
  0
LINE
  8
0
  6
CONTINUOUS
 62
     7
  5
204
 10
0.378259
 20
-0.686001
 30
0.0
 11
0.398304
 21
-0.706046
 31
0.0
  0
LINE
  8
0
  6
CONTINUOUS
 62
     7
  5
205
 10
0.364063
 20
-0.751001
 30
0.0
 11
0.363242
 21
-0.75011
 31
0.0
  0
LINE
  8
0
  6
CONTINUOUS
 62
     7
  5
206
 10
0.363242
 20
-0.75011
 30
0.0
 11
0.362492
 21
-0.749149
 31
0.0
  0
LINE
  8
0
  6
CONTINUOUS
 62
     7
  5
207
 10
0.362492
 20
-0.749149
 30
0.0
 11
0.361812
 21
-0.74812
 31
0.0
  0
LINE
  8
0
  6
CONTINUOUS
 62
     7
  5
208
 10
0.361812
 20
-0.74812
 30
0.0
 11
0.361205
 21
-0.747023
 31
0.0
  0
LINE
  8
0
  6
CONTINUOUS
 62
     7
  5
209
 10
0.361205
 20
-0.747023
 30
0.0
 11
0.36067
 21
-0.745859
 31
0.0
  0
LINE
  8
0
  6
CONTINUOUS
 62
     7
  5
20A
 10
0.36067
 20
-0.745859
 30
0.0
 11
0.360208
 21
-0.744629
 31
0.0
  0
LINE
  8
0
  6
CONTINUOUS
 62
     7
  5
20B
 10
0.360208
 20
-0.744629
 30
0.0
 11
0.359819
 21
-0.743334
 31
0.0
  0
LINE
  8
0
  6
CONTINUOUS
 62
     7
  5
20C
 10
0.359819
 20
-0.743334
 30
0.0
 11
0.359503
 21
-0.741975
 31
0.0
  0
LINE
  8
0
  6
CONTINUOUS
 62
     7
  5
20D
 10
0.359503
 20
-0.741975
 30
0.0
 11
0.359261
 21
-0.740552
 31
0.0
  0
LINE
  8
0
  6
CONTINUOUS
 62
     7
  5
20E
 10
0.359261
 20
-0.740552
 30
0.0
 11
0.359093
 21
-0.739068
 31
0.0
  0
LINE
  8
0
  6
CONTINUOUS
 62
     7
  5
20F
 10
0.359093
 20
-0.739068
 30
0.0
 11
0.358998
 21
-0.737524
 31
0.0
  0
LINE
  8
0
  6
CONTINUOUS
 62
     7
  5
210
 10
0.358998
 20
-0.737524
 30
0.0
 11
0.358978
 21
-0.735919
 31
0.0
  0
LINE
  8
0
  6
CONTINUOUS
 62
     7
  5
211
 10
0.358978
 20
-0.735919
 30
0.0
 11
0.359032
 21
-0.734257
 31
0.0
  0
LINE
  8
0
  6
CONTINUOUS
 62
     7
  5
212
 10
0.359032
 20
-0.734257
 30
0.0
 11
0.35916
 21
-0.732537
 31
0.0
  0
LINE
  8
0
  6
CONTINUOUS
 62
     7
  5
213
 10
0.35916
 20
-0.732537
 30
0.0
 11
0.359361
 21
-0.730762
 31
0.0
  0
LINE
  8
0
  6
CONTINUOUS
 62
     7
  5
214
 10
0.359361
 20
-0.730762
 30
0.0
 11
0.359637
 21
-0.728933
 31
0.0
  0
LINE
  8
0
  6
CONTINUOUS
 62
     7
  5
215
 10
0.359637
 20
-0.728933
 30
0.0
 11
0.359986
 21
-0.72705
 31
0.0
  0
LINE
  8
0
  6
CONTINUOUS
 62
     7
  5
216
 10
0.359986
 20
-0.72705
 30
0.0
 11
0.360408
 21
-0.725117
 31
0.0
  0
LINE
  8
0
  6
CONTINUOUS
 62
     7
  5
217
 10
0.360408
 20
-0.725117
 30
0.0
 11
0.360903
 21
-0.723134
 31
0.0
  0
LINE
  8
0
  6
CONTINUOUS
 62
     7
  5
218
 10
0.360903
 20
-0.723134
 30
0.0
 11
0.361471
 21
-0.721102
 31
0.0
  0
LINE
  8
0
  6
CONTINUOUS
 62
     7
  5
219
 10
0.361471
 20
-0.721102
 30
0.0
 11
0.362111
 21
-0.719024
 31
0.0
  0
LINE
  8
0
  6
CONTINUOUS
 62
     7
  5
21A
 10
0.362111
 20
-0.719024
 30
0.0
 11
0.362822
 21
-0.716901
 31
0.0
  0
LINE
  8
0
  6
CONTINUOUS
 62
     7
  5
21B
 10
0.362822
 20
-0.716901
 30
0.0
 11
0.363605
 21
-0.714734
 31
0.0
  0
LINE
  8
0
  6
CONTINUOUS
 62
     7
  5
21C
 10
0.363605
 20
-0.714734
 30
0.0
 11
0.364458
 21
-0.712526
 31
0.0
  0
LINE
  8
0
  6
CONTINUOUS
 62
     7
  5
21D
 10
0.364458
 20
-0.712526
 30
0.0
 11
0.365381
 21
-0.710278
 31
0.0
  0
LINE
  8
0
  6
CONTINUOUS
 62
     7
  5
21E
 10
0.365381
 20
-0.710278
 30
0.0
 11
0.366372
 21
-0.707992
 31
0.0
  0
LINE
  8
0
  6
CONTINUOUS
 62
     7
  5
21F
 10
0.366372
 20
-0.707992
 30
0.0
 11
0.367432
 21
-0.705669
 31
0.0
  0
LINE
  8
0
  6
CONTINUOUS
 62
     7
  5
220
 10
0.367432
 20
-0.705669
 30
0.0
 11
0.36856
 21
-0.703312
 31
0.0
  0
LINE
  8
0
  6
CONTINUOUS
 62
     7
  5
221
 10
0.36856
 20
-0.703312
 30
0.0
 11
0.369754
 21
-0.700922
 31
0.0
  0
LINE
  8
0
  6
CONTINUOUS
 62
     7
  5
222
 10
0.369754
 20
-0.700922
 30
0.0
 11
0.371013
 21
-0.698501
 31
0.0
  0
LINE
  8
0
  6
CONTINUOUS
 62
     7
  5
223
 10
0.371013
 20
-0.698501
 30
0.0
 11
0.372338
 21
-0.696051
 31
0.0
  0
LINE
  8
0
  6
CONTINUOUS
 62
     7
  5
224
 10
0.372338
 20
-0.696051
 30
0.0
 11
0.373726
 21
-0.693574
 31
0.0
  0
LINE
  8
0
  6
CONTINUOUS
 62
     7
  5
225
 10
0.373726
 20
-0.693574
 30
0.0
 11
0.375176
 21
-0.691073
 31
0.0
  0
LINE
  8
0
  6
CONTINUOUS
 62
     7
  5
226
 10
0.375176
 20
-0.691073
 30
0.0
 11
0.376688
 21
-0.688548
 31
0.0
  0
LINE
  8
0
  6
CONTINUOUS
 62
     7
  5
227
 10
0.376688
 20
-0.688548
 30
0.0
 11
0.378259
 21
-0.686001
 31
0.0
  0
LINE
  8
0
  6
CONTINUOUS
 62
     7
  5
228
 10
0.465954
 20
-0.709107
 30
0.0
 11
0.462268
 21
-0.712275
 31
0.0
  0
LINE
  8
0
  6
CONTINUOUS
 62
     7
  5
229
 10
0.462268
 20
-0.712275
 30
0.0
 11
0.458569
 21
-0.715366
 31
0.0
  0
LINE
  8
0
  6
CONTINUOUS
 62
     7
  5
22A
 10
0.458569
 20
-0.715366
 30
0.0
 11
0.454863
 21
-0.718373
 31
0.0
  0
LINE
  8
0
  6
CONTINUOUS
 62
     7
  5
22B
 10
0.454863
 20
-0.718373
 30
0.0
 11
0.451154
 21
-0.721293
 31
0.0
  0
LINE
  8
0
  6
CONTINUOUS
 62
     7
  5
22C
 10
0.451154
 20
-0.721293
 30
0.0
 11
0.447448
 21
-0.724121
 31
0.0
  0
LINE
  8
0
  6
CONTINUOUS
 62
     7
  5
22D
 10
0.447448
 20
-0.724121
 30
0.0
 11
0.443753
 21
-0.726852
 31
0.0
  0
LINE
  8
0
  6
CONTINUOUS
 62
     7
  5
22E
 10
0.443753
 20
-0.726852
 30
0.0
 11
0.440072
 21
-0.729484
 31
0.0
  0
LINE
  8
0
  6
CONTINUOUS
 62
     7
  5
22F
 10
0.440072
 20
-0.729484
 30
0.0
 11
0.436411
 21
-0.73201
 31
0.0
  0
LINE
  8
0
  6
CONTINUOUS
 62
     7
  5
230
 10
0.436411
 20
-0.73201
 30
0.0
 11
0.432778
 21
-0.734428
 31
0.0
  0
LINE
  8
0
  6
CONTINUOUS
 62
     7
  5
231
 10
0.432778
 20
-0.734428
 30
0.0
 11
0.429176
 21
-0.736734
 31
0.0
  0
LINE
  8
0
  6
CONTINUOUS
 62
     7
  5
232
 10
0.429176
 20
-0.736734
 30
0.0
 11
0.425611
 21
-0.738925
 31
0.0
  0
LINE
  8
0
  6
CONTINUOUS
 62
     7
  5
233
 10
0.425611
 20
-0.738925
 30
0.0
 11
0.42209
 21
-0.740996
 31
0.0
  0
LINE
  8
0
  6
CONTINUOUS
 62
     7
  5
234
 10
0.42209
 20
-0.740996
 30
0.0
 11
0.418616
 21
-0.742945
 31
0.0
  0
LINE
  8
0
  6
CONTINUOUS
 62
     7
  5
235
 10
0.418616
 20
-0.742945
 30
0.0
 11
0.415197
 21
-0.744768
 31
0.0
  0
LINE
  8
0
  6
CONTINUOUS
 62
     7
  5
236
 10
0.415197
 20
-0.744768
 30
0.0
 11
0.411836
 21
-0.746464
 31
0.0
  0
LINE
  8
0
  6
CONTINUOUS
 62
     7
  5
237
 10
0.411836
 20
-0.746464
 30
0.0
 11
0.40854
 21
-0.748028
 31
0.0
  0
LINE
  8
0
  6
CONTINUOUS
 62
     7
  5
238
 10
0.40854
 20
-0.748028
 30
0.0
 11
0.405313
 21
-0.74946
 31
0.0
  0
LINE
  8
0
  6
CONTINUOUS
 62
     7
  5
239
 10
0.405313
 20
-0.74946
 30
0.0
 11
0.40216
 21
-0.750757
 31
0.0
  0
LINE
  8
0
  6
CONTINUOUS
 62
     7
  5
23A
 10
0.40216
 20
-0.750757
 30
0.0
 11
0.399086
 21
-0.751916
 31
0.0
  0
LINE
  8
0
  6
CONTINUOUS
 62
     7
  5
23B
 10
0.399086
 20
-0.751916
 30
0.0
 11
0.396096
 21
-0.752936
 31
0.0
  0
LINE
  8
0
  6
CONTINUOUS
 62
     7
  5
23C
 10
0.396096
 20
-0.752936
 30
0.0
 11
0.393194
 21
-0.753815
 31
0.0
  0
LINE
  8
0
  6
CONTINUOUS
 62
     7
  5
23D
 10
0.393194
 20
-0.753815
 30
0.0
 11
0.390385
 21
-0.754552
 31
0.0
  0
LINE
  8
0
  6
CONTINUOUS
 62
     7
  5
23E
 10
0.390385
 20
-0.754552
 30
0.0
 11
0.387674
 21
-0.755146
 31
0.0
  0
LINE
  8
0
  6
CONTINUOUS
 62
     7
  5
23F
 10
0.387674
 20
-0.755146
 30
0.0
 11
0.385063
 21
-0.755597
 31
0.0
  0
LINE
  8
0
  6
CONTINUOUS
 62
     7
  5
240
 10
0.385063
 20
-0.755597
 30
0.0
 11
0.382558
 21
-0.755902
 31
0.0
  0
LINE
  8
0
  6
CONTINUOUS
 62
     7
  5
241
 10
0.382558
 20
-0.755902
 30
0.0
 11
0.380162
 21
-0.756062
 31
0.0
  0
LINE
  8
0
  6
CONTINUOUS
 62
     7
  5
242
 10
0.380162
 20
-0.756062
 30
0.0
 11
0.377879
 21
-0.756077
 31
0.0
  0
LINE
  8
0
  6
CONTINUOUS
 62
     7
  5
243
 10
0.377879
 20
-0.756077
 30
0.0
 11
0.375713
 21
-0.755946
 31
0.0
  0
LINE
  8
0
  6
CONTINUOUS
 62
     7
  5
244
 10
0.375713
 20
-0.755946
 30
0.0
 11
0.373666
 21
-0.75567
 31
0.0
  0
LINE
  8
0
  6
CONTINUOUS
 62
     7
  5
245
 10
0.373666
 20
-0.75567
 30
0.0
 11
0.371742
 21
-0.755249
 31
0.0
  0
LINE
  8
0
  6
CONTINUOUS
 62
     7
  5
246
 10
0.371742
 20
-0.755249
 30
0.0
 11
0.369944
 21
-0.754684
 31
0.0
  0
LINE
  8
0
  6
CONTINUOUS
 62
     7
  5
247
 10
0.369944
 20
-0.754684
 30
0.0
 11
0.368275
 21
-0.753975
 31
0.0
  0
LINE
  8
0
  6
CONTINUOUS
 62
     7
  5
248
 10
0.368275
 20
-0.753975
 30
0.0
 11
0.366737
 21
-0.753124
 31
0.0
  0
LINE
  8
0
  6
CONTINUOUS
 62
     7
  5
249
 10
0.366737
 20
-0.753124
 30
0.0
 11
0.365332
 21
-0.752132
 31
0.0
  0
LINE
  8
0
  6
CONTINUOUS
 62
     7
  5
24A
 10
0.365332
 20
-0.752132
 30
0.0
 11
0.364063
 21
-0.751001
 31
0.0
  0
LINE
  8
0
  6
CONTINUOUS
 62
     7
  5
24B
 10
0.501067
 20
-0.673994
 30
0.0
 11
0.465954
 21
-0.709107
 31
0.0
  0
LINE
  8
0
  6
CONTINUOUS
 62
     7
  5
24C
 10
0.542961
 20
-0.572103
 30
0.0
 11
0.544092
 21
-0.573372
 31
0.0
  0
LINE
  8
0
  6
CONTINUOUS
 62
     7
  5
24D
 10
0.544092
 20
-0.573372
 30
0.0
 11
0.545084
 21
-0.574777
 31
0.0
  0
LINE
  8
0
  6
CONTINUOUS
 62
     7
  5
24E
 10
0.545084
 20
-0.574777
 30
0.0
 11
0.545935
 21
-0.576315
 31
0.0
  0
LINE
  8
0
  6
CONTINUOUS
 62
     7
  5
24F
 10
0.545935
 20
-0.576315
 30
0.0
 11
0.546644
 21
-0.577984
 31
0.0
  0
LINE
  8
0
  6
CONTINUOUS
 62
     7
  5
250
 10
0.546644
 20
-0.577984
 30
0.0
 11
0.547209
 21
-0.579782
 31
0.0
  0
LINE
  8
0
  6
CONTINUOUS
 62
     7
  5
251
 10
0.547209
 20
-0.579782
 30
0.0
 11
0.54763
 21
-0.581706
 31
0.0
  0
LINE
  8
0
  6
CONTINUOUS
 62
     7
  5
252
 10
0.54763
 20
-0.581706
 30
0.0
 11
0.547906
 21
-0.583753
 31
0.0
  0
LINE
  8
0
  6
CONTINUOUS
 62
     7
  5
253
 10
0.547906
 20
-0.583753
 30
0.0
 11
0.548037
 21
-0.585919
 31
0.0
  0
LINE
  8
0
  6
CONTINUOUS
 62
     7
  5
254
 10
0.548037
 20
-0.585919
 30
0.0
 11
0.548022
 21
-0.588202
 31
0.0
  0
LINE
  8
0
  6
CONTINUOUS
 62
     7
  5
255
 10
0.548022
 20
-0.588202
 30
0.0
 11
0.547862
 21
-0.590598
 31
0.0
  0
LINE
  8
0
  6
CONTINUOUS
 62
     7
  5
256
 10
0.547862
 20
-0.590598
 30
0.0
 11
0.547557
 21
-0.593103
 31
0.0
  0
LINE
  8
0
  6
CONTINUOUS
 62
     7
  5
257
 10
0.547557
 20
-0.593103
 30
0.0
 11
0.547107
 21
-0.595713
 31
0.0
  0
LINE
  8
0
  6
CONTINUOUS
 62
     7
  5
258
 10
0.547107
 20
-0.595713
 30
0.0
 11
0.546512
 21
-0.598425
 31
0.0
  0
LINE
  8
0
  6
CONTINUOUS
 62
     7
  5
259
 10
0.546512
 20
-0.598425
 30
0.0
 11
0.545775
 21
-0.601234
 31
0.0
  0
LINE
  8
0
  6
CONTINUOUS
 62
     7
  5
25A
 10
0.545775
 20
-0.601234
 30
0.0
 11
0.544896
 21
-0.604136
 31
0.0
  0
LINE
  8
0
  6
CONTINUOUS
 62
     7
  5
25B
 10
0.544896
 20
-0.604136
 30
0.0
 11
0.543876
 21
-0.607126
 31
0.0
  0
LINE
  8
0
  6
CONTINUOUS
 62
     7
  5
25C
 10
0.543876
 20
-0.607126
 30
0.0
 11
0.542717
 21
-0.6102
 31
0.0
  0
LINE
  8
0
  6
CONTINUOUS
 62
     7
  5
25D
 10
0.542717
 20
-0.6102
 30
0.0
 11
0.54142
 21
-0.613353
 31
0.0
  0
LINE
  8
0
  6
CONTINUOUS
 62
     7
  5
25E
 10
0.54142
 20
-0.613353
 30
0.0
 11
0.539989
 21
-0.61658
 31
0.0
  0
LINE
  8
0
  6
CONTINUOUS
 62
     7
  5
25F
 10
0.539989
 20
-0.61658
 30
0.0
 11
0.538424
 21
-0.619876
 31
0.0
  0
LINE
  8
0
  6
CONTINUOUS
 62
     7
  5
260
 10
0.538424
 20
-0.619876
 30
0.0
 11
0.536728
 21
-0.623237
 31
0.0
  0
LINE
  8
0
  6
CONTINUOUS
 62
     7
  5
261
 10
0.536728
 20
-0.623237
 30
0.0
 11
0.534905
 21
-0.626656
 31
0.0
  0
LINE
  8
0
  6
CONTINUOUS
 62
     7
  5
262
 10
0.534905
 20
-0.626656
 30
0.0
 11
0.532956
 21
-0.630129
 31
0.0
  0
LINE
  8
0
  6
CONTINUOUS
 62
     7
  5
263
 10
0.532956
 20
-0.630129
 30
0.0
 11
0.530885
 21
-0.633651
 31
0.0
  0
LINE
  8
0
  6
CONTINUOUS
 62
     7
  5
264
 10
0.530885
 20
-0.633651
 30
0.0
 11
0.528694
 21
-0.637216
 31
0.0
  0
LINE
  8
0
  6
CONTINUOUS
 62
     7
  5
265
 10
0.528694
 20
-0.637216
 30
0.0
 11
0.526388
 21
-0.640817
 31
0.0
  0
LINE
  8
0
  6
CONTINUOUS
 62
     7
  5
266
 10
0.526388
 20
-0.640817
 30
0.0
 11
0.52397
 21
-0.644451
 31
0.0
  0
LINE
  8
0
  6
CONTINUOUS
 62
     7
  5
267
 10
0.52397
 20
-0.644451
 30
0.0
 11
0.521444
 21
-0.648112
 31
0.0
  0
LINE
  8
0
  6
CONTINUOUS
 62
     7
  5
268
 10
0.521444
 20
-0.648112
 30
0.0
 11
0.518813
 21
-0.651792
 31
0.0
  0
LINE
  8
0
  6
CONTINUOUS
 62
     7
  5
269
 10
0.518813
 20
-0.651792
 30
0.0
 11
0.516081
 21
-0.655488
 31
0.0
  0
LINE
  8
0
  6
CONTINUOUS
 62
     7
  5
26A
 10
0.516081
 20
-0.655488
 30
0.0
 11
0.513253
 21
-0.659194
 31
0.0
  0
LINE
  8
0
  6
CONTINUOUS
 62
     7
  5
26B
 10
0.513253
 20
-0.659194
 30
0.0
 11
0.510333
 21
-0.662902
 31
0.0
  0
LINE
  8
0
  6
CONTINUOUS
 62
     7
  5
26C
 10
0.510333
 20
-0.662902
 30
0.0
 11
0.507326
 21
-0.666609
 31
0.0
  0
LINE
  8
0
  6
CONTINUOUS
 62
     7
  5
26D
 10
0.507326
 20
-0.666609
 30
0.0
 11
0.504235
 21
-0.670308
 31
0.0
  0
LINE
  8
0
  6
CONTINUOUS
 62
     7
  5
26E
 10
0.504235
 20
-0.670308
 30
0.0
 11
0.501067
 21
-0.673994
 31
0.0
  0
LINE
  8
0
  6
CONTINUOUS
 62
     7
  5
26F
 10
0.477962
 20
-0.586299
 30
0.0
 11
0.480508
 21
-0.584727
 31
0.0
  0
LINE
  8
0
  6
CONTINUOUS
 62
     7
  5
270
 10
0.480508
 20
-0.584727
 30
0.0
 11
0.483033
 21
-0.583216
 31
0.0
  0
LINE
  8
0
  6
CONTINUOUS
 62
     7
  5
271
 10
0.483033
 20
-0.583216
 30
0.0
 11
0.485534
 21
-0.581765
 31
0.0
  0
LINE
  8
0
  6
CONTINUOUS
 62
     7
  5
272
 10
0.485534
 20
-0.581765
 30
0.0
 11
0.488011
 21
-0.580378
 31
0.0
  0
LINE
  8
0
  6
CONTINUOUS
 62
     7
  5
273
 10
0.488011
 20
-0.580378
 30
0.0
 11
0.490461
 21
-0.579053
 31
0.0
  0
LINE
  8
0
  6
CONTINUOUS
 62
     7
  5
274
 10
0.490461
 20
-0.579053
 30
0.0
 11
0.492882
 21
-0.577794
 31
0.0
  0
LINE
  8
0
  6
CONTINUOUS
 62
     7
  5
275
 10
0.492882
 20
-0.577794
 30
0.0
 11
0.495272
 21
-0.5766
 31
0.0
  0
LINE
  8
0
  6
CONTINUOUS
 62
     7
  5
276
 10
0.495272
 20
-0.5766
 30
0.0
 11
0.497629
 21
-0.575472
 31
0.0
  0
LINE
  8
0
  6
CONTINUOUS
 62
     7
  5
277
 10
0.497629
 20
-0.575472
 30
0.0
 11
0.499952
 21
-0.574412
 31
0.0
  0
LINE
  8
0
  6
CONTINUOUS
 62
     7
  5
278
 10
0.499952
 20
-0.574412
 30
0.0
 11
0.502238
 21
-0.57342
 31
0.0
  0
LINE
  8
0
  6
CONTINUOUS
 62
     7
  5
279
 10
0.502238
 20
-0.57342
 30
0.0
 11
0.504486
 21
-0.572498
 31
0.0
  0
LINE
  8
0
  6
CONTINUOUS
 62
     7
  5
27A
 10
0.504486
 20
-0.572498
 30
0.0
 11
0.506694
 21
-0.571645
 31
0.0
  0
LINE
  8
0
  6
CONTINUOUS
 62
     7
  5
27B
 10
0.506694
 20
-0.571645
 30
0.0
 11
0.508861
 21
-0.570862
 31
0.0
  0
LINE
  8
0
  6
CONTINUOUS
 62
     7
  5
27C
 10
0.508861
 20
-0.570862
 30
0.0
 11
0.510984
 21
-0.570151
 31
0.0
  0
LINE
  8
0
  6
CONTINUOUS
 62
     7
  5
27D
 10
0.510984
 20
-0.570151
 30
0.0
 11
0.513062
 21
-0.569511
 31
0.0
  0
LINE
  8
0
  6
CONTINUOUS
 62
     7
  5
27E
 10
0.513062
 20
-0.569511
 30
0.0
 11
0.515094
 21
-0.568943
 31
0.0
  0
LINE
  8
0
  6
CONTINUOUS
 62
     7
  5
27F
 10
0.515094
 20
-0.568943
 30
0.0
 11
0.517077
 21
-0.568448
 31
0.0
  0
LINE
  8
0
  6
CONTINUOUS
 62
     7
  5
280
 10
0.517077
 20
-0.568448
 30
0.0
 11
0.51901
 21
-0.568026
 31
0.0
  0
LINE
  8
0
  6
CONTINUOUS
 62
     7
  5
281
 10
0.51901
 20
-0.568026
 30
0.0
 11
0.520893
 21
-0.567677
 31
0.0
  0
LINE
  8
0
  6
CONTINUOUS
 62
     7
  5
282
 10
0.520893
 20
-0.567677
 30
0.0
 11
0.522722
 21
-0.567401
 31
0.0
  0
LINE
  8
0
  6
CONTINUOUS
 62
     7
  5
283
 10
0.522722
 20
-0.567401
 30
0.0
 11
0.524497
 21
-0.567199
 31
0.0
  0
LINE
  8
0
  6
CONTINUOUS
 62
     7
  5
284
 10
0.524497
 20
-0.567199
 30
0.0
 11
0.526217
 21
-0.567072
 31
0.0
  0
LINE
  8
0
  6
CONTINUOUS
 62
     7
  5
285
 10
0.526217
 20
-0.567072
 30
0.0
 11
0.527879
 21
-0.567018
 31
0.0
  0
LINE
  8
0
  6
CONTINUOUS
 62
     7
  5
286
 10
0.527879
 20
-0.567018
 30
0.0
 11
0.529484
 21
-0.567038
 31
0.0
  0
LINE
  8
0
  6
CONTINUOUS
 62
     7
  5
287
 10
0.529484
 20
-0.567038
 30
0.0
 11
0.531028
 21
-0.567133
 31
0.0
  0
LINE
  8
0
  6
CONTINUOUS
 62
     7
  5
288
 10
0.531028
 20
-0.567133
 30
0.0
 11
0.532513
 21
-0.567301
 31
0.0
  0
LINE
  8
0
  6
CONTINUOUS
 62
     7
  5
289
 10
0.532513
 20
-0.567301
 30
0.0
 11
0.533935
 21
-0.567543
 31
0.0
  0
LINE
  8
0
  6
CONTINUOUS
 62
     7
  5
28A
 10
0.533935
 20
-0.567543
 30
0.0
 11
0.535294
 21
-0.567859
 31
0.0
  0
LINE
  8
0
  6
CONTINUOUS
 62
     7
  5
28B
 10
0.535294
 20
-0.567859
 30
0.0
 11
0.536589
 21
-0.568248
 31
0.0
  0
LINE
  8
0
  6
CONTINUOUS
 62
     7
  5
28C
 10
0.536589
 20
-0.568248
 30
0.0
 11
0.537819
 21
-0.56871
 31
0.0
  0
LINE
  8
0
  6
CONTINUOUS
 62
     7
  5
28D
 10
0.537819
 20
-0.56871
 30
0.0
 11
0.538983
 21
-0.569245
 31
0.0
  0
LINE
  8
0
  6
CONTINUOUS
 62
     7
  5
28E
 10
0.538983
 20
-0.569245
 30
0.0
 11
0.54008
 21
-0.569852
 31
0.0
  0
LINE
  8
0
  6
CONTINUOUS
 62
     7
  5
28F
 10
0.54008
 20
-0.569852
 30
0.0
 11
0.541109
 21
-0.570532
 31
0.0
  0
LINE
  8
0
  6
CONTINUOUS
 62
     7
  5
290
 10
0.541109
 20
-0.570532
 30
0.0
 11
0.54207
 21
-0.571282
 31
0.0
  0
LINE
  8
0
  6
CONTINUOUS
 62
     7
  5
291
 10
0.54207
 20
-0.571282
 30
0.0
 11
0.542961
 21
-0.572103
 31
0.0
  0
LINE
  8
0
  6
CONTINUOUS
 62
     7
  5
292
 10
0.354906
 20
-0.662648
 30
0.0
 11
0.184051
 21
-0.491793
 31
0.0
  0
LINE
  8
0
  6
CONTINUOUS
 62
     7
  5
293
 10
0.378259
 20
-0.686001
 30
0.0
 11
0.354906
 21
-0.662648
 31
0.0
  0
LINE
  8
0
  6
CONTINUOUS
 62
     7
  5
294
 10
0.633417
 20
-0.541644
 30
0.0
 11
0.501067
 21
-0.673994
 31
0.0
  0
LINE
  8
0
  6
CONTINUOUS
 62
     7
  5
295
 10
0.454608
 20
-0.562945
 30
0.0
 11
0.554663
 21
-0.46289
 31
0.0
  0
LINE
  8
0
  6
CONTINUOUS
 62
     7
  5
296
 10
0.454608
 20
-0.562945
 30
0.0
 11
0.477962
 21
-0.586299
 31
0.0
  0
LINE
  8
0
  6
CONTINUOUS
 62
     7
  5
297
 10
0.398304
 20
0.706046
 30
0.0
 11
0.354906
 21
0.662648
 31
0.0
  0
LINE
  8
0
  6
CONTINUOUS
 62
     7
  5
298
 10
0.498006
 20
0.606344
 30
0.0
 11
0.398304
 21
0.706046
 31
0.0
  0
LINE
  8
0
  6
CONTINUOUS
 62
     7
  5
299
 10
0.477962
 20
0.586299
 30
0.0
 11
0.498006
 21
0.606344
 31
0.0
  0
LINE
  8
0
  6
CONTINUOUS
 62
     7
  5
29A
 10
0.542961
 20
0.572103
 30
0.0
 11
0.54207
 21
0.571282
 31
0.0
  0
LINE
  8
0
  6
CONTINUOUS
 62
     7
  5
29B
 10
0.54207
 20
0.571282
 30
0.0
 11
0.541109
 21
0.570532
 31
0.0
  0
LINE
  8
0
  6
CONTINUOUS
 62
     7
  5
29C
 10
0.541109
 20
0.570532
 30
0.0
 11
0.54008
 21
0.569852
 31
0.0
  0
LINE
  8
0
  6
CONTINUOUS
 62
     7
  5
29D
 10
0.54008
 20
0.569852
 30
0.0
 11
0.538983
 21
0.569245
 31
0.0
  0
LINE
  8
0
  6
CONTINUOUS
 62
     7
  5
29E
 10
0.538983
 20
0.569245
 30
0.0
 11
0.537819
 21
0.56871
 31
0.0
  0
LINE
  8
0
  6
CONTINUOUS
 62
     7
  5
29F
 10
0.537819
 20
0.56871
 30
0.0
 11
0.536589
 21
0.568248
 31
0.0
  0
LINE
  8
0
  6
CONTINUOUS
 62
     7
  5
2A0
 10
0.536589
 20
0.568248
 30
0.0
 11
0.535294
 21
0.567859
 31
0.0
  0
LINE
  8
0
  6
CONTINUOUS
 62
     7
  5
2A1
 10
0.535294
 20
0.567859
 30
0.0
 11
0.533935
 21
0.567543
 31
0.0
  0
LINE
  8
0
  6
CONTINUOUS
 62
     7
  5
2A2
 10
0.533935
 20
0.567543
 30
0.0
 11
0.532513
 21
0.567301
 31
0.0
  0
LINE
  8
0
  6
CONTINUOUS
 62
     7
  5
2A3
 10
0.532513
 20
0.567301
 30
0.0
 11
0.531028
 21
0.567133
 31
0.0
  0
LINE
  8
0
  6
CONTINUOUS
 62
     7
  5
2A4
 10
0.531028
 20
0.567133
 30
0.0
 11
0.529484
 21
0.567038
 31
0.0
  0
LINE
  8
0
  6
CONTINUOUS
 62
     7
  5
2A5
 10
0.529484
 20
0.567038
 30
0.0
 11
0.527879
 21
0.567018
 31
0.0
  0
LINE
  8
0
  6
CONTINUOUS
 62
     7
  5
2A6
 10
0.527879
 20
0.567018
 30
0.0
 11
0.526217
 21
0.567072
 31
0.0
  0
LINE
  8
0
  6
CONTINUOUS
 62
     7
  5
2A7
 10
0.526217
 20
0.567072
 30
0.0
 11
0.524497
 21
0.567199
 31
0.0
  0
LINE
  8
0
  6
CONTINUOUS
 62
     7
  5
2A8
 10
0.524497
 20
0.567199
 30
0.0
 11
0.522722
 21
0.567401
 31
0.0
  0
LINE
  8
0
  6
CONTINUOUS
 62
     7
  5
2A9
 10
0.522722
 20
0.567401
 30
0.0
 11
0.520893
 21
0.567677
 31
0.0
  0
LINE
  8
0
  6
CONTINUOUS
 62
     7
  5
2AA
 10
0.520893
 20
0.567677
 30
0.0
 11
0.51901
 21
0.568026
 31
0.0
  0
LINE
  8
0
  6
CONTINUOUS
 62
     7
  5
2AB
 10
0.51901
 20
0.568026
 30
0.0
 11
0.517077
 21
0.568448
 31
0.0
  0
LINE
  8
0
  6
CONTINUOUS
 62
     7
  5
2AC
 10
0.517077
 20
0.568448
 30
0.0
 11
0.515094
 21
0.568943
 31
0.0
  0
LINE
  8
0
  6
CONTINUOUS
 62
     7
  5
2AD
 10
0.515094
 20
0.568943
 30
0.0
 11
0.513062
 21
0.569511
 31
0.0
  0
LINE
  8
0
  6
CONTINUOUS
 62
     7
  5
2AE
 10
0.513062
 20
0.569511
 30
0.0
 11
0.510984
 21
0.570151
 31
0.0
  0
LINE
  8
0
  6
CONTINUOUS
 62
     7
  5
2AF
 10
0.510984
 20
0.570151
 30
0.0
 11
0.508861
 21
0.570862
 31
0.0
  0
LINE
  8
0
  6
CONTINUOUS
 62
     7
  5
2B0
 10
0.508861
 20
0.570862
 30
0.0
 11
0.506694
 21
0.571645
 31
0.0
  0
LINE
  8
0
  6
CONTINUOUS
 62
     7
  5
2B1
 10
0.506694
 20
0.571645
 30
0.0
 11
0.504486
 21
0.572498
 31
0.0
  0
LINE
  8
0
  6
CONTINUOUS
 62
     7
  5
2B2
 10
0.504486
 20
0.572498
 30
0.0
 11
0.502238
 21
0.57342
 31
0.0
  0
LINE
  8
0
  6
CONTINUOUS
 62
     7
  5
2B3
 10
0.502238
 20
0.57342
 30
0.0
 11
0.499952
 21
0.574412
 31
0.0
  0
LINE
  8
0
  6
CONTINUOUS
 62
     7
  5
2B4
 10
0.499952
 20
0.574412
 30
0.0
 11
0.497629
 21
0.575472
 31
0.0
  0
LINE
  8
0
  6
CONTINUOUS
 62
     7
  5
2B5
 10
0.497629
 20
0.575472
 30
0.0
 11
0.495272
 21
0.5766
 31
0.0
  0
LINE
  8
0
  6
CONTINUOUS
 62
     7
  5
2B6
 10
0.495272
 20
0.5766
 30
0.0
 11
0.492882
 21
0.577794
 31
0.0
  0
LINE
  8
0
  6
CONTINUOUS
 62
     7
  5
2B7
 10
0.492882
 20
0.577794
 30
0.0
 11
0.490461
 21
0.579053
 31
0.0
  0
LINE
  8
0
  6
CONTINUOUS
 62
     7
  5
2B8
 10
0.490461
 20
0.579053
 30
0.0
 11
0.488011
 21
0.580378
 31
0.0
  0
LINE
  8
0
  6
CONTINUOUS
 62
     7
  5
2B9
 10
0.488011
 20
0.580378
 30
0.0
 11
0.485534
 21
0.581765
 31
0.0
  0
LINE
  8
0
  6
CONTINUOUS
 62
     7
  5
2BA
 10
0.485534
 20
0.581765
 30
0.0
 11
0.483033
 21
0.583216
 31
0.0
  0
LINE
  8
0
  6
CONTINUOUS
 62
     7
  5
2BB
 10
0.483033
 20
0.583216
 30
0.0
 11
0.480508
 21
0.584727
 31
0.0
  0
LINE
  8
0
  6
CONTINUOUS
 62
     7
  5
2BC
 10
0.480508
 20
0.584727
 30
0.0
 11
0.477962
 21
0.586299
 31
0.0
  0
LINE
  8
0
  6
CONTINUOUS
 62
     7
  5
2BD
 10
0.501067
 20
0.673994
 30
0.0
 11
0.504235
 21
0.670308
 31
0.0
  0
LINE
  8
0
  6
CONTINUOUS
 62
     7
  5
2BE
 10
0.504235
 20
0.670308
 30
0.0
 11
0.507326
 21
0.666609
 31
0.0
  0
LINE
  8
0
  6
CONTINUOUS
 62
     7
  5
2BF
 10
0.507326
 20
0.666609
 30
0.0
 11
0.510333
 21
0.662902
 31
0.0
  0
LINE
  8
0
  6
CONTINUOUS
 62
     7
  5
2C0
 10
0.510333
 20
0.662902
 30
0.0
 11
0.513253
 21
0.659194
 31
0.0
  0
LINE
  8
0
  6
CONTINUOUS
 62
     7
  5
2C1
 10
0.513253
 20
0.659194
 30
0.0
 11
0.516081
 21
0.655488
 31
0.0
  0
LINE
  8
0
  6
CONTINUOUS
 62
     7
  5
2C2
 10
0.516081
 20
0.655488
 30
0.0
 11
0.518813
 21
0.651792
 31
0.0
  0
LINE
  8
0
  6
CONTINUOUS
 62
     7
  5
2C3
 10
0.518813
 20
0.651792
 30
0.0
 11
0.521444
 21
0.648112
 31
0.0
  0
LINE
  8
0
  6
CONTINUOUS
 62
     7
  5
2C4
 10
0.521444
 20
0.648112
 30
0.0
 11
0.52397
 21
0.644451
 31
0.0
  0
LINE
  8
0
  6
CONTINUOUS
 62
     7
  5
2C5
 10
0.52397
 20
0.644451
 30
0.0
 11
0.526388
 21
0.640817
 31
0.0
  0
LINE
  8
0
  6
CONTINUOUS
 62
     7
  5
2C6
 10
0.526388
 20
0.640817
 30
0.0
 11
0.528694
 21
0.637216
 31
0.0
  0
LINE
  8
0
  6
CONTINUOUS
 62
     7
  5
2C7
 10
0.528694
 20
0.637216
 30
0.0
 11
0.530885
 21
0.633651
 31
0.0
  0
LINE
  8
0
  6
CONTINUOUS
 62
     7
  5
2C8
 10
0.530885
 20
0.633651
 30
0.0
 11
0.532956
 21
0.630129
 31
0.0
  0
LINE
  8
0
  6
CONTINUOUS
 62
     7
  5
2C9
 10
0.532956
 20
0.630129
 30
0.0
 11
0.534905
 21
0.626656
 31
0.0
  0
LINE
  8
0
  6
CONTINUOUS
 62
     7
  5
2CA
 10
0.534905
 20
0.626656
 30
0.0
 11
0.536728
 21
0.623237
 31
0.0
  0
LINE
  8
0
  6
CONTINUOUS
 62
     7
  5
2CB
 10
0.536728
 20
0.623237
 30
0.0
 11
0.538424
 21
0.619876
 31
0.0
  0
LINE
  8
0
  6
CONTINUOUS
 62
     7
  5
2CC
 10
0.538424
 20
0.619876
 30
0.0
 11
0.539989
 21
0.61658
 31
0.0
  0
LINE
  8
0
  6
CONTINUOUS
 62
     7
  5
2CD
 10
0.539989
 20
0.61658
 30
0.0
 11
0.54142
 21
0.613353
 31
0.0
  0
LINE
  8
0
  6
CONTINUOUS
 62
     7
  5
2CE
 10
0.54142
 20
0.613353
 30
0.0
 11
0.542717
 21
0.6102
 31
0.0
  0
LINE
  8
0
  6
CONTINUOUS
 62
     7
  5
2CF
 10
0.542717
 20
0.6102
 30
0.0
 11
0.543876
 21
0.607126
 31
0.0
  0
LINE
  8
0
  6
CONTINUOUS
 62
     7
  5
2D0
 10
0.543876
 20
0.607126
 30
0.0
 11
0.544896
 21
0.604136
 31
0.0
  0
LINE
  8
0
  6
CONTINUOUS
 62
     7
  5
2D1
 10
0.544896
 20
0.604136
 30
0.0
 11
0.545775
 21
0.601234
 31
0.0
  0
LINE
  8
0
  6
CONTINUOUS
 62
     7
  5
2D2
 10
0.545775
 20
0.601234
 30
0.0
 11
0.546512
 21
0.598425
 31
0.0
  0
LINE
  8
0
  6
CONTINUOUS
 62
     7
  5
2D3
 10
0.546512
 20
0.598425
 30
0.0
 11
0.547107
 21
0.595713
 31
0.0
  0
LINE
  8
0
  6
CONTINUOUS
 62
     7
  5
2D4
 10
0.547107
 20
0.595713
 30
0.0
 11
0.547557
 21
0.593103
 31
0.0
  0
LINE
  8
0
  6
CONTINUOUS
 62
     7
  5
2D5
 10
0.547557
 20
0.593103
 30
0.0
 11
0.547862
 21
0.590598
 31
0.0
  0
LINE
  8
0
  6
CONTINUOUS
 62
     7
  5
2D6
 10
0.547862
 20
0.590598
 30
0.0
 11
0.548022
 21
0.588202
 31
0.0
  0
LINE
  8
0
  6
CONTINUOUS
 62
     7
  5
2D7
 10
0.548022
 20
0.588202
 30
0.0
 11
0.548037
 21
0.585919
 31
0.0
  0
LINE
  8
0
  6
CONTINUOUS
 62
     7
  5
2D8
 10
0.548037
 20
0.585919
 30
0.0
 11
0.547906
 21
0.583753
 31
0.0
  0
LINE
  8
0
  6
CONTINUOUS
 62
     7
  5
2D9
 10
0.547906
 20
0.583753
 30
0.0
 11
0.54763
 21
0.581706
 31
0.0
  0
LINE
  8
0
  6
CONTINUOUS
 62
     7
  5
2DA
 10
0.54763
 20
0.581706
 30
0.0
 11
0.547209
 21
0.579782
 31
0.0
  0
LINE
  8
0
  6
CONTINUOUS
 62
     7
  5
2DB
 10
0.547209
 20
0.579782
 30
0.0
 11
0.546644
 21
0.577984
 31
0.0
  0
LINE
  8
0
  6
CONTINUOUS
 62
     7
  5
2DC
 10
0.546644
 20
0.577984
 30
0.0
 11
0.545935
 21
0.576315
 31
0.0
  0
LINE
  8
0
  6
CONTINUOUS
 62
     7
  5
2DD
 10
0.545935
 20
0.576315
 30
0.0
 11
0.545084
 21
0.574777
 31
0.0
  0
LINE
  8
0
  6
CONTINUOUS
 62
     7
  5
2DE
 10
0.545084
 20
0.574777
 30
0.0
 11
0.544092
 21
0.573372
 31
0.0
  0
LINE
  8
0
  6
CONTINUOUS
 62
     7
  5
2DF
 10
0.544092
 20
0.573372
 30
0.0
 11
0.542961
 21
0.572103
 31
0.0
  0
LINE
  8
0
  6
CONTINUOUS
 62
     7
  5
2E0
 10
0.465954
 20
0.709107
 30
0.0
 11
0.501067
 21
0.673994
 31
0.0
  0
LINE
  8
0
  6
CONTINUOUS
 62
     7
  5
2E1
 10
0.364063
 20
0.751001
 30
0.0
 11
0.365332
 21
0.752132
 31
0.0
  0
LINE
  8
0
  6
CONTINUOUS
 62
     7
  5
2E2
 10
0.365332
 20
0.752132
 30
0.0
 11
0.366737
 21
0.753124
 31
0.0
  0
LINE
  8
0
  6
CONTINUOUS
 62
     7
  5
2E3
 10
0.366737
 20
0.753124
 30
0.0
 11
0.368275
 21
0.753975
 31
0.0
  0
LINE
  8
0
  6
CONTINUOUS
 62
     7
  5
2E4
 10
0.368275
 20
0.753975
 30
0.0
 11
0.369944
 21
0.754684
 31
0.0
  0
LINE
  8
0
  6
CONTINUOUS
 62
     7
  5
2E5
 10
0.369944
 20
0.754684
 30
0.0
 11
0.371742
 21
0.755249
 31
0.0
  0
LINE
  8
0
  6
CONTINUOUS
 62
     7
  5
2E6
 10
0.371742
 20
0.755249
 30
0.0
 11
0.373666
 21
0.75567
 31
0.0
  0
LINE
  8
0
  6
CONTINUOUS
 62
     7
  5
2E7
 10
0.373666
 20
0.75567
 30
0.0
 11
0.375713
 21
0.755946
 31
0.0
  0
LINE
  8
0
  6
CONTINUOUS
 62
     7
  5
2E8
 10
0.375713
 20
0.755946
 30
0.0
 11
0.377879
 21
0.756077
 31
0.0
  0
LINE
  8
0
  6
CONTINUOUS
 62
     7
  5
2E9
 10
0.377879
 20
0.756077
 30
0.0
 11
0.380162
 21
0.756062
 31
0.0
  0
LINE
  8
0
  6
CONTINUOUS
 62
     7
  5
2EA
 10
0.380162
 20
0.756062
 30
0.0
 11
0.382558
 21
0.755902
 31
0.0
  0
LINE
  8
0
  6
CONTINUOUS
 62
     7
  5
2EB
 10
0.382558
 20
0.755902
 30
0.0
 11
0.385063
 21
0.755597
 31
0.0
  0
LINE
  8
0
  6
CONTINUOUS
 62
     7
  5
2EC
 10
0.385063
 20
0.755597
 30
0.0
 11
0.387674
 21
0.755146
 31
0.0
  0
LINE
  8
0
  6
CONTINUOUS
 62
     7
  5
2ED
 10
0.387674
 20
0.755146
 30
0.0
 11
0.390385
 21
0.754552
 31
0.0
  0
LINE
  8
0
  6
CONTINUOUS
 62
     7
  5
2EE
 10
0.390385
 20
0.754552
 30
0.0
 11
0.393194
 21
0.753815
 31
0.0
  0
LINE
  8
0
  6
CONTINUOUS
 62
     7
  5
2EF
 10
0.393194
 20
0.753815
 30
0.0
 11
0.396096
 21
0.752936
 31
0.0
  0
LINE
  8
0
  6
CONTINUOUS
 62
     7
  5
2F0
 10
0.396096
 20
0.752936
 30
0.0
 11
0.399086
 21
0.751916
 31
0.0
  0
LINE
  8
0
  6
CONTINUOUS
 62
     7
  5
2F1
 10
0.399086
 20
0.751916
 30
0.0
 11
0.40216
 21
0.750757
 31
0.0
  0
LINE
  8
0
  6
CONTINUOUS
 62
     7
  5
2F2
 10
0.40216
 20
0.750757
 30
0.0
 11
0.405313
 21
0.74946
 31
0.0
  0
LINE
  8
0
  6
CONTINUOUS
 62
     7
  5
2F3
 10
0.405313
 20
0.74946
 30
0.0
 11
0.40854
 21
0.748028
 31
0.0
  0
LINE
  8
0
  6
CONTINUOUS
 62
     7
  5
2F4
 10
0.40854
 20
0.748028
 30
0.0
 11
0.411836
 21
0.746464
 31
0.0
  0
LINE
  8
0
  6
CONTINUOUS
 62
     7
  5
2F5
 10
0.411836
 20
0.746464
 30
0.0
 11
0.415197
 21
0.744768
 31
0.0
  0
LINE
  8
0
  6
CONTINUOUS
 62
     7
  5
2F6
 10
0.415197
 20
0.744768
 30
0.0
 11
0.418616
 21
0.742945
 31
0.0
  0
LINE
  8
0
  6
CONTINUOUS
 62
     7
  5
2F7
 10
0.418616
 20
0.742945
 30
0.0
 11
0.42209
 21
0.740996
 31
0.0
  0
LINE
  8
0
  6
CONTINUOUS
 62
     7
  5
2F8
 10
0.42209
 20
0.740996
 30
0.0
 11
0.425611
 21
0.738925
 31
0.0
  0
LINE
  8
0
  6
CONTINUOUS
 62
     7
  5
2F9
 10
0.425611
 20
0.738925
 30
0.0
 11
0.429176
 21
0.736734
 31
0.0
  0
LINE
  8
0
  6
CONTINUOUS
 62
     7
  5
2FA
 10
0.429176
 20
0.736734
 30
0.0
 11
0.432778
 21
0.734428
 31
0.0
  0
LINE
  8
0
  6
CONTINUOUS
 62
     7
  5
2FB
 10
0.432778
 20
0.734428
 30
0.0
 11
0.436411
 21
0.73201
 31
0.0
  0
LINE
  8
0
  6
CONTINUOUS
 62
     7
  5
2FC
 10
0.436411
 20
0.73201
 30
0.0
 11
0.440072
 21
0.729484
 31
0.0
  0
LINE
  8
0
  6
CONTINUOUS
 62
     7
  5
2FD
 10
0.440072
 20
0.729484
 30
0.0
 11
0.443753
 21
0.726852
 31
0.0
  0
LINE
  8
0
  6
CONTINUOUS
 62
     7
  5
2FE
 10
0.443753
 20
0.726852
 30
0.0
 11
0.447448
 21
0.724121
 31
0.0
  0
LINE
  8
0
  6
CONTINUOUS
 62
     7
  5
2FF
 10
0.447448
 20
0.724121
 30
0.0
 11
0.451154
 21
0.721293
 31
0.0
  0
LINE
  8
0
  6
CONTINUOUS
 62
     7
  5
300
 10
0.451154
 20
0.721293
 30
0.0
 11
0.454863
 21
0.718373
 31
0.0
  0
LINE
  8
0
  6
CONTINUOUS
 62
     7
  5
301
 10
0.454863
 20
0.718373
 30
0.0
 11
0.458569
 21
0.715366
 31
0.0
  0
LINE
  8
0
  6
CONTINUOUS
 62
     7
  5
302
 10
0.458569
 20
0.715366
 30
0.0
 11
0.462268
 21
0.712275
 31
0.0
  0
LINE
  8
0
  6
CONTINUOUS
 62
     7
  5
303
 10
0.462268
 20
0.712275
 30
0.0
 11
0.465954
 21
0.709107
 31
0.0
  0
LINE
  8
0
  6
CONTINUOUS
 62
     7
  5
304
 10
0.378259
 20
0.686001
 30
0.0
 11
0.376688
 21
0.688548
 31
0.0
  0
LINE
  8
0
  6
CONTINUOUS
 62
     7
  5
305
 10
0.376688
 20
0.688548
 30
0.0
 11
0.375176
 21
0.691073
 31
0.0
  0
LINE
  8
0
  6
CONTINUOUS
 62
     7
  5
306
 10
0.375176
 20
0.691073
 30
0.0
 11
0.373726
 21
0.693574
 31
0.0
  0
LINE
  8
0
  6
CONTINUOUS
 62
     7
  5
307
 10
0.373726
 20
0.693574
 30
0.0
 11
0.372338
 21
0.696051
 31
0.0
  0
LINE
  8
0
  6
CONTINUOUS
 62
     7
  5
308
 10
0.372338
 20
0.696051
 30
0.0
 11
0.371013
 21
0.698501
 31
0.0
  0
LINE
  8
0
  6
CONTINUOUS
 62
     7
  5
309
 10
0.371013
 20
0.698501
 30
0.0
 11
0.369754
 21
0.700922
 31
0.0
  0
LINE
  8
0
  6
CONTINUOUS
 62
     7
  5
30A
 10
0.369754
 20
0.700922
 30
0.0
 11
0.36856
 21
0.703312
 31
0.0
  0
LINE
  8
0
  6
CONTINUOUS
 62
     7
  5
30B
 10
0.36856
 20
0.703312
 30
0.0
 11
0.367432
 21
0.705669
 31
0.0
  0
LINE
  8
0
  6
CONTINUOUS
 62
     7
  5
30C
 10
0.367432
 20
0.705669
 30
0.0
 11
0.366372
 21
0.707992
 31
0.0
  0
LINE
  8
0
  6
CONTINUOUS
 62
     7
  5
30D
 10
0.366372
 20
0.707992
 30
0.0
 11
0.365381
 21
0.710278
 31
0.0
  0
LINE
  8
0
  6
CONTINUOUS
 62
     7
  5
30E
 10
0.365381
 20
0.710278
 30
0.0
 11
0.364458
 21
0.712526
 31
0.0
  0
LINE
  8
0
  6
CONTINUOUS
 62
     7
  5
30F
 10
0.364458
 20
0.712526
 30
0.0
 11
0.363605
 21
0.714734
 31
0.0
  0
LINE
  8
0
  6
CONTINUOUS
 62
     7
  5
310
 10
0.363605
 20
0.714734
 30
0.0
 11
0.362822
 21
0.716901
 31
0.0
  0
LINE
  8
0
  6
CONTINUOUS
 62
     7
  5
311
 10
0.362822
 20
0.716901
 30
0.0
 11
0.362111
 21
0.719024
 31
0.0
  0
LINE
  8
0
  6
CONTINUOUS
 62
     7
  5
312
 10
0.362111
 20
0.719024
 30
0.0
 11
0.361471
 21
0.721102
 31
0.0
  0
LINE
  8
0
  6
CONTINUOUS
 62
     7
  5
313
 10
0.361471
 20
0.721102
 30
0.0
 11
0.360903
 21
0.723134
 31
0.0
  0
LINE
  8
0
  6
CONTINUOUS
 62
     7
  5
314
 10
0.360903
 20
0.723134
 30
0.0
 11
0.360408
 21
0.725117
 31
0.0
  0
LINE
  8
0
  6
CONTINUOUS
 62
     7
  5
315
 10
0.360408
 20
0.725117
 30
0.0
 11
0.359986
 21
0.72705
 31
0.0
  0
LINE
  8
0
  6
CONTINUOUS
 62
     7
  5
316
 10
0.359986
 20
0.72705
 30
0.0
 11
0.359637
 21
0.728933
 31
0.0
  0
LINE
  8
0
  6
CONTINUOUS
 62
     7
  5
317
 10
0.359637
 20
0.728933
 30
0.0
 11
0.359361
 21
0.730762
 31
0.0
  0
LINE
  8
0
  6
CONTINUOUS
 62
     7
  5
318
 10
0.359361
 20
0.730762
 30
0.0
 11
0.35916
 21
0.732537
 31
0.0
  0
LINE
  8
0
  6
CONTINUOUS
 62
     7
  5
319
 10
0.35916
 20
0.732537
 30
0.0
 11
0.359032
 21
0.734257
 31
0.0
  0
LINE
  8
0
  6
CONTINUOUS
 62
     7
  5
31A
 10
0.359032
 20
0.734257
 30
0.0
 11
0.358978
 21
0.735919
 31
0.0
  0
LINE
  8
0
  6
CONTINUOUS
 62
     7
  5
31B
 10
0.358978
 20
0.735919
 30
0.0
 11
0.358998
 21
0.737524
 31
0.0
  0
LINE
  8
0
  6
CONTINUOUS
 62
     7
  5
31C
 10
0.358998
 20
0.737524
 30
0.0
 11
0.359093
 21
0.739068
 31
0.0
  0
LINE
  8
0
  6
CONTINUOUS
 62
     7
  5
31D
 10
0.359093
 20
0.739068
 30
0.0
 11
0.359261
 21
0.740552
 31
0.0
  0
LINE
  8
0
  6
CONTINUOUS
 62
     7
  5
31E
 10
0.359261
 20
0.740552
 30
0.0
 11
0.359503
 21
0.741975
 31
0.0
  0
LINE
  8
0
  6
CONTINUOUS
 62
     7
  5
31F
 10
0.359503
 20
0.741975
 30
0.0
 11
0.359819
 21
0.743334
 31
0.0
  0
LINE
  8
0
  6
CONTINUOUS
 62
     7
  5
320
 10
0.359819
 20
0.743334
 30
0.0
 11
0.360208
 21
0.744629
 31
0.0
  0
LINE
  8
0
  6
CONTINUOUS
 62
     7
  5
321
 10
0.360208
 20
0.744629
 30
0.0
 11
0.36067
 21
0.745859
 31
0.0
  0
LINE
  8
0
  6
CONTINUOUS
 62
     7
  5
322
 10
0.36067
 20
0.745859
 30
0.0
 11
0.361205
 21
0.747023
 31
0.0
  0
LINE
  8
0
  6
CONTINUOUS
 62
     7
  5
323
 10
0.361205
 20
0.747023
 30
0.0
 11
0.361812
 21
0.74812
 31
0.0
  0
LINE
  8
0
  6
CONTINUOUS
 62
     7
  5
324
 10
0.361812
 20
0.74812
 30
0.0
 11
0.362492
 21
0.749149
 31
0.0
  0
LINE
  8
0
  6
CONTINUOUS
 62
     7
  5
325
 10
0.362492
 20
0.749149
 30
0.0
 11
0.363242
 21
0.75011
 31
0.0
  0
LINE
  8
0
  6
CONTINUOUS
 62
     7
  5
326
 10
0.363242
 20
0.75011
 30
0.0
 11
0.364063
 21
0.751001
 31
0.0
  0
LINE
  8
0
  6
CONTINUOUS
 62
     7
  5
327
 10
0.454608
 20
0.562945
 30
0.0
 11
0.283753
 21
0.392091
 31
0.0
  0
LINE
  8
0
  6
CONTINUOUS
 62
     7
  5
328
 10
0.477962
 20
0.586299
 30
0.0
 11
0.454608
 21
0.562945
 31
0.0
  0
LINE
  8
0
  6
CONTINUOUS
 62
     7
  5
329
 10
0.366131
 20
0.80893
 30
0.0
 11
0.465954
 21
0.709107
 31
0.0
  0
LINE
  8
0
  6
CONTINUOUS
 62
     7
  5
32A
 10
0.311131
 20
0.80893
 30
0.0
 11
0.366131
 21
0.80893
 31
0.0
  0
LINE
  8
0
  6
CONTINUOUS
 62
     7
  5
32B
 10
0.259877
 20
0.757676
 30
0.0
 11
0.311131
 21
0.80893
 31
0.0
  0
LINE
  8
0
  6
CONTINUOUS
 62
     7
  5
32C
 10
0.354906
 20
0.662648
 30
0.0
 11
0.259877
 21
0.757676
 31
0.0
  0
LINE
  8
0
  6
CONTINUOUS
 62
     7
  5
32D
 10
0.354906
 20
0.662648
 30
0.0
 11
0.378259
 21
0.686001
 31
0.0
  0
LINE
  8
0
  6
CONTINUOUS
 62
     7
  5
32E
 10
0.184051
 20
-0.491793
 30
0.0
 11
0.141271
 21
-0.534573
 31
0.0
  0
LINE
  8
0
  6
CONTINUOUS
 62
     7
  5
32F
 10
0.141271
 20
-0.534573
 30
0.0
 11
0.067025
 21
-0.460327
 31
0.0
  0
LINE
  8
0
  6
CONTINUOUS
 62
     7
  5
330
 10
0.252287
 20
-0.275065
 30
0.0
 11
0.326533
 21
-0.349311
 31
0.0
  0
LINE
  8
0
  6
CONTINUOUS
 62
     7
  5
331
 10
0.326533
 20
-0.349311
 30
0.0
 11
0.283753
 21
-0.392091
 31
0.0
  0
LINE
  8
0
  6
CONTINUOUS
 62
     7
  5
332
 10
0.283753
 20
-0.392091
 30
0.0
 11
0.454608
 21
-0.562945
 31
0.0
  0
LINE
  8
0
  6
CONTINUOUS
 62
     7
  5
333
 10
0.259877
 20
-0.757676
 30
0.0
 11
0.354906
 21
-0.662648
 31
0.0
  0
LINE
  8
0
  6
CONTINUOUS
 62
     7
  5
334
 10
0.311131
 20
-0.80893
 30
0.0
 11
0.259877
 21
-0.757676
 31
0.0
  0
LINE
  8
0
  6
CONTINUOUS
 62
     7
  5
335
 10
0.366131
 20
-0.80893
 30
0.0
 11
0.311131
 21
-0.80893
 31
0.0
  0
LINE
  8
0
  6
CONTINUOUS
 62
     7
  5
336
 10
0.465954
 20
-0.709107
 30
0.0
 11
0.366131
 21
-0.80893
 31
0.0
  0
LINE
  8
0
  6
CONTINUOUS
 62
     7
  5
337
 10
0.283753
 20
0.392091
 30
0.0
 11
0.326533
 21
0.349311
 31
0.0
  0
LINE
  8
0
  6
CONTINUOUS
 62
     7
  5
338
 10
0.326533
 20
0.349311
 30
0.0
 11
0.252287
 21
0.275065
 31
0.0
  0
LINE
  8
0
  6
CONTINUOUS
 62
     7
  5
339
 10
0.067025
 20
0.460327
 30
0.0
 11
0.141271
 21
0.534573
 31
0.0
  0
LINE
  8
0
  6
CONTINUOUS
 62
     7
  5
33A
 10
0.141271
 20
0.534573
 30
0.0
 11
0.184051
 21
0.491793
 31
0.0
  0
LINE
  8
0
  6
CONTINUOUS
 62
     7
  5
33B
 10
0.184051
 20
0.491793
 30
0.0
 11
0.354906
 21
0.662648
 31
0.0
  0
LINE
  8
0
  6
CONTINUOUS
 62
     7
  5
33C
 10
0.554663
 20
0.46289
 30
0.0
 11
0.454608
 21
0.562945
 31
0.0
  0
LINE
  8
0
  6
CONTINUOUS
 62
     7
  5
33D
 10
0.004954
 20
0.502753
 30
0.0
 11
0.259877
 21
0.757676
 31
0.0
  0
LINE
  8
0
  6
CONTINUOUS
 62
     7
  5
33E
 10
0.004954
 20
-0.502753
 30
0.0
 11
0.004954
 21
0.502753
 31
0.0
  0
LINE
  8
0
  6
CONTINUOUS
 62
     7
  5
33F
 10
0.259877
 20
-0.757676
 30
0.0
 11
0.004954
 21
-0.502753
 31
0.0
  0
LINE
  8
0
  6
CONTINUOUS
 62
     7
  5
340
 10
0.501067
 20
0.673994
 30
0.0
 11
0.633417
 21
0.541644
 31
0.0
  0
LINE
  8
0
  6
CONTINUOUS
 62
     7
  5
341
 10
0.0
 20
-0.795
 30
0.0
 11
0.297201
 21
-0.795
 31
0.0
  0
LINE
  8
0
  6
CONTINUOUS
 62
     7
  5
342
 10
0.380061
 20
-0.795
 30
0.0
 11
0.97
 21
-0.795
 31
0.0
  0
LINE
  8
0
  6
CONTINUOUS
 62
     7
  5
343
 10
0.297201
 20
0.795
 30
0.0
 11
0.0
 21
0.795
 31
0.0
  0
LINE
  8
0
  6
CONTINUOUS
 62
     7
  5
344
 10
0.0
 20
0.795
 30
0.0
 11
0.0
 21
-0.795
 31
0.0
  0
LINE
  8
0
  6
CONTINUOUS
 62
     7
  5
345
 10
0.97
 20
0.795
 30
0.0
 11
0.380061
 21
0.795
 31
0.0
  0
LINE
  8
0
  6
CONTINUOUS
 62
     7
  5
346
 10
-0.11
 20
0.557
 30
0.0
 11
-0.11
 21
0.661
 31
0.0
  0
LINE
  8
0
  6
CONTINUOUS
 62
     7
  5
347
 10
-0.2425
 20
0.094
 30
0.0
 11
0.0
 21
0.094
 31
0.0
  0
LINE
  8
0
  6
CONTINUOUS
 62
     7
  5
348
 10
-0.2425
 20
-0.094
 30
0.0
 11
-0.2425
 21
0.094
 31
0.0
  0
LINE
  8
0
  6
CONTINUOUS
 62
     7
  5
349
 10
-0.2425
 20
-0.094
 30
0.0
 11
0.0
 21
-0.094
 31
0.0
  0
LINE
  8
0
  6
CONTINUOUS
 62
     7
  5
34A
 10
0.170969
 20
0.47659
 30
0.0
 11
0.110865
 21
0.416486
 31
0.0
  0
LINE
  8
0
  6
CONTINUOUS
 62
     7
  5
34B
 10
0.208446
 20
0.318905
 30
0.0
 11
0.26855
 21
0.379009
 31
0.0
  0
LINE
  8
0
  6
CONTINUOUS
 62
     7
  5
34C
 10
0.217924
 20
0.525665
 30
0.0
 11
0.216931
 21
0.522552
 31
0.0
  0
LINE
  8
0
  6
CONTINUOUS
 62
     7
  5
34D
 10
0.314512
 20
0.424971
 30
0.0
 11
0.317626
 21
0.425963
 31
0.0
  0
LINE
  8
0
  6
CONTINUOUS
 62
     7
  5
34E
 10
0.199254
 20
0.504874
 30
0.0
 11
0.192183
 21
0.497803
 31
0.0
  0
LINE
  8
0
  6
CONTINUOUS
 62
     7
  5
34F
 10
0.289763
 20
0.400222
 30
0.0
 11
0.296834
 21
0.407294
 31
0.0
  0
LINE
  8
0
  6
CONTINUOUS
 62
     7
  5
350
 10
0.26855
 20
-0.379009
 30
0.0
 11
0.208446
 21
-0.318905
 31
0.0
  0
LINE
  8
0
  6
CONTINUOUS
 62
     7
  5
351
 10
0.110865
 20
-0.416486
 30
0.0
 11
0.170969
 21
-0.47659
 31
0.0
  0
LINE
  8
0
  6
CONTINUOUS
 62
     7
  5
352
 10
0.317626
 20
-0.425963
 30
0.0
 11
0.314512
 21
-0.424971
 31
0.0
  0
LINE
  8
0
  6
CONTINUOUS
 62
     7
  5
353
 10
0.216931
 20
-0.522552
 30
0.0
 11
0.217924
 21
-0.525665
 31
0.0
  0
LINE
  8
0
  6
CONTINUOUS
 62
     7
  5
354
 10
0.296834
 20
-0.407294
 30
0.0
 11
0.289763
 21
-0.400222
 31
0.0
  0
LINE
  8
0
  6
CONTINUOUS
 62
     7
  5
355
 10
0.192183
 20
-0.497803
 30
0.0
 11
0.199254
 21
-0.504874
 31
0.0
  0
LINE
  8
0
  6
CONTINUOUS
 62
     7
  5
356
 10
-0.11
 20
0.557
 30
0.0
 11
0.0
 21
0.557
 31
0.0
  0
LINE
  8
0
  6
CONTINUOUS
 62
     7
  5
357
 10
0.0
 20
0.661
 30
0.0
 11
-0.11
 21
0.661
 31
0.0
  0
LINE
  8
0
  6
CONTINUOUS
 62
     3
  5
358
 10
0.97
 20
0.0
 30
0.0
 11
0.0
 21
0.0
 31
0.0
  0
LINE
  8
0
  6
CONTINUOUS
 62
     3
  5
359
 10
0.308148
 20
0.516188
 30
0.0
 11
0.265722
 21
0.473762
 31
0.0
  0
LINE
  8
0
  6
CONTINUOUS
 62
     3
  5
35A
 10
0.308148
 20
-0.516188
 30
0.0
 11
0.265722
 21
-0.473762
 31
0.0
  0
ENDSEC
  0
EOF
