999
DXF file: C:\Users\sesa63760\Dev\_Creo\CAD\MCADID0005867_3D-CAD\mcadid0005867_3d-simplified_3.dxf
999
Pro/ENGINEER 2019471 by Parametric Technology Corporation
  0
SECTION
  2
HEADER
  9
$ACADVER
  1
AC1024
  9
$DWGCODEPAGE
  3
ANSI_1252
  9
$EXTMAX
 10
97.9537081781
 20
138.5345301377
 30
0.0
  9
$EXTMIN
 10
0.0
 20
0.0
 30
0.0
  9
$LIMMIN
 10
0.0
 20
0.0
  9
$LIMMAX
 10
97.9537081781
 20
138.5345301377
  9
$VIEWCTR
 10
48.9768540891
 20
69.2672650688
  9
$VIEWSIZE
 40
138.5345301377
  9
$CLAYER
  8
0
  9
$LTSCALE
 40
9.0303990016
  9
$CELTYPE
  6
BYLAYER
  9
$DIMSCALE
 40
1.0
  9
$DIMASZ
 40
1.1661155735
  9
$DIMEXO
 40
1.0
  9
$DIMDLI
 40
6.2391847647
  9
$DIMEXE
 40
1.0
  9
$DIMCEN
 40
1.4777016548
  9
$DIMLFAC
 40
1.0
  9
$DIMBLK
  1
_FILLED
  9
$DIMALT
 70
0
  9
$DIMALTF
 40
0.0393700787
  9
$DIMTXT
 40
1.632561803
  9
$DIMTOL
 70
1
  9
$DIMLIM
 70
0
  9
$DIMTFAC
 40
1.0
  9
$DIMTP
 40
0.01
  9
$DIMTM
 40
0.01
  9
$DIMGAP
 40
0.625
  9
$DIMDSEP
 70
46
  9
$AUNITS
 70
0
  9
$PDMODE
 70
3
  9
$PDSIZE
 40
0.3125
  9
$HANDSEED
  5
292
  9
$TILEMODE
 70
1
  9
$MEASUREMENT
 70
1
  9
$INSUNITS
 70
4
  0
ENDSEC
  0
SECTION
  2
CLASSES
  0
CLASS
  1
ACDBDICTIONARYWDFLT
  2
AcDbDictionaryWithDefault
  3
AutoCAD 2000
 90
0
 91
1
280
0
281
0
  0
CLASS
  1
ACDBPLACEHOLDER
  2
AcDbPlaceHolder
  3
AutoCAD 2000
 90
0
 91
1
280
0
281
0
  0
CLASS
  1
LAYOUT
  2
AcDbLayout
  3
AutoCAD 2000
 90
0
 91
0
280
0
281
0
  0
ENDSEC
  0
SECTION
  2
TABLES
  0
TABLE
  2
VPORT
  5
8
100
AcDbSymbolTable
 70
2
  0
VPORT
  5
1F4
100
AcDbSymbolTableRecord
100
AcDbViewportTableRecord
  2
*ACTIVE
 70
0
 10
0.0
 20
0.0
 11
1.0
 21
1.0
 12
48.9768540891
 22
69.2672650688
 13
0.0
 23
0.0
 14
1.0
 24
1.0
 15
0.0
 25
0.0
 16
0.0
 26
0.0
 36
1.0
 17
0.0
 27
0.0
 37
0.0
 40
138.5345301377
 41
0.7070707071
 42
50.0
 43
0.0
 44
0.0
 50
0.0
 51
0.0
 71
0
 72
100
 73
1
 74
1
 75
0
 76
0
 77
0
 78
0
  0
ENDTAB
  0
TABLE
  2
LTYPE
  5
5
100
AcDbSymbolTable
 70
6
  0
LTYPE
  5
14
100
AcDbSymbolTableRecord
100
AcDbLinetypeTableRecord
  2
BYBLOCK
 70
0
  3

 72
65
 73
0
 40
0.0
  0
LTYPE
  5
15
100
AcDbSymbolTableRecord
100
AcDbLinetypeTableRecord
  2
BYLAYER
 70
0
  3

 72
65
 73
0
 40
0.0
  0
LTYPE
  5
16
100
AcDbSymbolTableRecord
100
AcDbLinetypeTableRecord
  2
CONTINUOUS
 70
64
  3
Solid line
 72
65
 73
0
 40
0.0
  0
LTYPE
  5
1F5
100
AcDbSymbolTableRecord
100
AcDbLinetypeTableRecord
  2
CENTER
 70
64
  3
____ _ ____ _ ____ _ ____ _ ____ _ ____ _ ____
 72
65
 73
4
 40
0.6
 49
0.375
 74
0
 49
-0.075
 74
0
 49
0.075
 74
0
 49
-0.075
 74
0
  0
LTYPE
  5
1F6
100
AcDbSymbolTableRecord
100
AcDbLinetypeTableRecord
  2
HIDDEN
 70
64
  3
- - - - - - - - - - - - - - - - - - - -
 72
65
 73
2
 40
0.2
 49
0.1
 74
0
 49
-0.1
 74
0
  0
LTYPE
  5
1F7
100
AcDbSymbolTableRecord
100
AcDbLinetypeTableRecord
  2
PHANTOM
 70
64
  3
_____ _ _ _____ _ _ _____ _ _ _____
 72
65
 73
6
 40
0.8
 49
0.45
 74
0
 49
-0.05
 74
0
 49
0.1
 74
0
 49
-0.05
 74
0
 49
0.1
 74
0
 49
-0.05
 74
0
  0
LTYPE
  5
1F8
100
AcDbSymbolTableRecord
100
AcDbLinetypeTableRecord
  2
DOT
 70
64
  3
. . . . . . . . . . . . . . . . . . . .
 72
65
 73
2
 40
0.2
 49
0.1
 74
0
 49
-0.1
 74
0
  0
LTYPE
  5
1F9
100
AcDbSymbolTableRecord
100
AcDbLinetypeTableRecord
  2
DASHED
 70
64
  3
- - - - - - - - - - - - - - - - - - - -
 72
65
 73
2
 40
0.2
 49
0.1
 74
0
 49
-0.1
 74
0
  0
ENDTAB
  0
TABLE
  2
LAYER
  5
2
100
AcDbSymbolTable
 70
36
  0
LAYER
  5
10
100
AcDbSymbolTableRecord
100
AcDbLayerTableRecord
  2
0
 70
0
 62
7
  6
CONTINUOUS
370
-3
390
F
  0
LAYER
  5
1FA
100
AcDbSymbolTableRecord
100
AcDbLayerTableRecord
  2
DEFAULT_1
 70
0
 62
7
  6
CENTER
370
-3
390
F
  0
LAYER
  5
1FB
100
AcDbSymbolTableRecord
100
AcDbLayerTableRecord
  2
DEFAULT_2
 70
0
 62
7
  6
HIDDEN
370
-3
390
F
  0
LAYER
  5
1FC
100
AcDbSymbolTableRecord
100
AcDbLayerTableRecord
  2
DEFAULT_3
 70
0
 62
7
  6
PHANTOM
370
-3
390
F
  0
LAYER
  5
1FD
100
AcDbSymbolTableRecord
100
AcDbLayerTableRecord
  2
00_COMPONENTS
 70
0
 62
7
  6
CONTINUOUS
370
-3
390
F
  0
LAYER
  5
1FE
100
AcDbSymbolTableRecord
100
AcDbLayerTableRecord
  2
01_1_DEFAULT_DATUMS
 70
0
 62
7
  6
CONTINUOUS
370
-3
390
F
  0
LAYER
  5
1FF
100
AcDbSymbolTableRecord
100
AcDbLayerTableRecord
  2
01_PLANES
 70
0
 62
7
  6
CONTINUOUS
370
-3
390
F
  0
LAYER
  5
200
100
AcDbSymbolTableRecord
100
AcDbLayerTableRecord
  2
02_COORD_SYS
 70
0
 62
7
  6
CONTINUOUS
370
-3
390
F
  0
LAYER
  5
201
100
AcDbSymbolTableRecord
100
AcDbLayerTableRecord
  2
03_AXES
 70
0
 62
7
  6
CONTINUOUS
370
-3
390
F
  0
LAYER
  5
202
100
AcDbSymbolTableRecord
100
AcDbLayerTableRecord
  2
04_POINTS
 70
0
 62
7
  6
CONTINUOUS
370
-3
390
F
  0
LAYER
  5
203
100
AcDbSymbolTableRecord
100
AcDbLayerTableRecord
  2
05_CURVES
 70
0
 62
7
  6
CONTINUOUS
370
-3
390
F
  0
LAYER
  5
204
100
AcDbSymbolTableRecord
100
AcDbLayerTableRecord
  2
06_SURFS
 70
0
 62
7
  6
CONTINUOUS
370
-3
390
F
  0
LAYER
  5
205
100
AcDbSymbolTableRecord
100
AcDbLayerTableRecord
  2
07_COSMETICS
 70
0
 62
7
  6
CONTINUOUS
370
-3
390
F
  0
LAYER
  5
206
100
AcDbSymbolTableRecord
100
AcDbLayerTableRecord
  2
10_NOTES
 70
0
 62
7
  6
CONTINUOUS
370
-3
390
F
  0
LAYER
  5
207
100
AcDbSymbolTableRecord
100
AcDbLayerTableRecord
  2
11_NOTES_PUB
 70
0
 62
7
  6
CONTINUOUS
370
-3
390
F
  0
LAYER
  5
208
100
AcDbSymbolTableRecord
100
AcDbLayerTableRecord
  2
13_REF_GTOL
 70
0
 62
7
  6
CONTINUOUS
370
-3
390
F
  0
LAYER
  5
209
100
AcDbSymbolTableRecord
100
AcDbLayerTableRecord
  2
16_MISC
 70
0
 62
7
  6
CONTINUOUS
370
-3
390
F
  0
LAYER
  5
20A
100
AcDbSymbolTableRecord
100
AcDbLayerTableRecord
  2
17_NO_PRINT
 70
0
 62
7
  6
CONTINUOUS
370
-3
390
F
  0
LAYER
  5
20B
100
AcDbSymbolTableRecord
100
AcDbLayerTableRecord
  2
18_DATUM_CAMS_JOINTS
 70
0
 62
7
  6
CONTINUOUS
370
-3
390
F
  0
LAYER
  5
20C
100
AcDbSymbolTableRecord
100
AcDbLayerTableRecord
  2
19_DATUM_FUNCTIONAL
 70
0
 62
7
  6
CONTINUOUS
370
-3
390
F
  0
LAYER
  5
20D
100
AcDbSymbolTableRecord
100
AcDbLayerTableRecord
  2
20_DATUM_KINEMATIC_SCHEME
 70
0
 62
7
  6
CONTINUOUS
370
-3
390
F
  0
ENDTAB
  0
TABLE
  2
STYLE
  5
3
100
AcDbSymbolTable
 70
1
  0
STYLE
  5
11
100
AcDbSymbolTableRecord
100
AcDbTextStyleTableRecord
  2
STANDARD
 70
0
 40
0.0
 41
1.0
 50
0.0
 71
0
 42
0.2
  3
ARIAL.TTF
  4

  0
STYLE
  5
20E
100
AcDbSymbolTableRecord
100
AcDbTextStyleTableRecord
  2
TEXTSTYLE_1
 70
0
 40
0.0
 41
0.8
 50
0.0
 71
0
 42
0.2
  3
gdt
  4

  0
ENDTAB
  0
TABLE
  2
VIEW
  5
6
100
AcDbSymbolTable
 70
0
  0
ENDTAB
  0
TABLE
  2
UCS
  5
7
100
AcDbSymbolTable
 70
0
  0
ENDTAB
  0
TABLE
  2
APPID
  5
9
100
AcDbSymbolTable
 70
1
  0
APPID
  5
20F
100
AcDbSymbolTableRecord
100
AcDbRegAppTableRecord
  2
ACAD
 70
0
  0
ENDTAB
  0
TABLE
  2
BLOCK_RECORD
  5
1
100
AcDbSymbolTable
 70
0
  0
BLOCK_RECORD
  5
210
100
AcDbSymbolTableRecord
100
AcDbBlockTableRecord
  2
*Model_Space
  0
BLOCK_RECORD
  5
211
100
AcDbSymbolTableRecord
100
AcDbBlockTableRecord
  2
*Paper_Space
  0
BLOCK_RECORD
  5
212
100
AcDbSymbolTableRecord
100
AcDbBlockTableRecord
  2
_FILLED
  0
ENDTAB
  0
TABLE
  2
DIMSTYLE
  5
A
100
AcDbSymbolTable
 70
1
100
AcDbDimStyleTable
 71
0
  0
DIMSTYLE
105
213
100
AcDbSymbolTableRecord
100
AcDbDimStyleTableRecord
  2
STANDARD
 70
0
  3

  4

 40
1.0
 41
1.1661155735
 42
1.0
 43
0.38
 44
1.0
 45
0.0
 46
0.0
 47
0.01
 48
0.01
140
1.632561803
141
0.09
142
0.0
143
25.4
144
1.0
145
0.0
146
1.0
147
0.625
 71
1
 72
0
 73
0
 74
0
 75
0
 76
0
 77
1
 78
8
 79
2
170
0
171
1
172
0
173
0
174
0
175
0
176
0
177
0
178
0
270
2
179
2
271
2
272
2
273
2
274
2
275
0
280
0
281
0
282
0
283
1
284
8
285
0
286
0
287
3
288
0
340
11
278
46
341
212
342
212
343
212
344
212
  0
ENDTAB
  0
ENDSEC
  0
SECTION
  2
BLOCKS
  0
BLOCK
  5
20
100
AcDbEntity
  8
0
100
AcDbBlockBegin
  2
*Model_Space
 70
0
 10
0.0
 20
0.0
 30
0.0
  3
*Model_Space
  1

  0
ENDBLK
  5
21
100
AcDbEntity
  8
0
100
AcDbBlockEnd
  0
BLOCK
  5
1C
100
AcDbEntity
  8
0
100
AcDbBlockBegin
  2
*Paper_Space
 70
0
 10
0.0
 20
0.0
 30
0.0
  3
*Paper_Space
  1

  0
ENDBLK
  5
1D
100
AcDbEntity
  8
0
100
AcDbBlockEnd
  0
BLOCK
  5
214
100
AcDbEntity
  8
0
100
AcDbBlockBegin
  2
_FILLED
 70
64
 10
0.0
 20
0.0
  3
_FILLED
  1

  0
SOLID
  5
215
100
AcDbEntity
  8
0
  6
BYBLOCK
 62
0
100
AcDbTrace
 10
0.0
 20
0.0
 11
-1.0
 21
0.25
 12
-1.0
 22
-0.25
 13
-1.0
 23
-0.25
  0
ENDBLK
  5
216
100
AcDbEntity
  8
0
  6
BYBLOCK
 62
0
100
AcDbBlockEnd
  0
ENDSEC
  0
SECTION
  2
ENTITIES
  0
LINE
  5
217
100
AcDbEntity
  8
0
100
AcDbLine
 62
7
  6
BYLAYER
 10
11.5877917937
 20
64.4598100614
 11
11.5877917937
 21
74.7529797097
  0
LINE
  5
218
100
AcDbEntity
  8
0
100
AcDbLine
 62
7
  6
BYLAYER
 10
11.6893691257
 20
64.3582327294
 11
11.6893691257
 21
74.8545570418
  0
LINE
  5
219
100
AcDbEntity
  8
0
100
AcDbLine
 62
7
  6
BYLAYER
 10
12.0881542071
 20
74.8545570418
 11
12.0881542071
 21
64.3582327294
  0
LINE
  5
21A
100
AcDbEntity
  8
0
100
AcDbLine
 62
7
  6
BYLAYER
 10
12.8368167656
 20
63.6095701709
 11
12.8368167656
 21
75.6032196003
  0
LINE
  5
21B
100
AcDbEntity
  8
0
100
AcDbLine
 62
7
  6
BYLAYER
 10
20.4877917937
 20
75.6032082866
 11
20.4877917937
 21
63.6095814845
  0
LINE
  5
21C
100
AcDbEntity
  8
0
100
AcDbLine
 62
7
  6
BYLAYER
 10
12.0881542071
 20
74.8545570418
 11
12.8368167656
 21
75.6032196003
  0
LINE
  5
21D
100
AcDbEntity
  8
0
100
AcDbLine
 62
7
  6
BYLAYER
 10
12.0881542071
 20
64.3582327294
 11
12.8368167656
 21
63.6095701709
  0
LINE
  5
21E
100
AcDbEntity
  8
0
100
AcDbLine
 62
7
  6
BYLAYER
 10
21.2369321963
 20
63.6095701709
 11
21.2369321963
 21
75.6032196003
  0
LINE
  5
21F
100
AcDbEntity
  8
0
100
AcDbLine
 62
7
  6
BYLAYER
 10
23.7459197896
 20
62.7252167755
 11
23.7459197896
 21
68.4206888159
  0
LINE
  5
220
100
AcDbEntity
  8
0
100
AcDbLine
 62
7
  6
BYLAYER
 10
23.7459197896
 20
70.7921009552
 11
23.7459197896
 21
76.4875729184
  0
LINE
  5
221
100
AcDbEntity
  8
0
100
AcDbLine
 62
7
  6
BYLAYER
 10
20.4877917937
 20
74.8540791977
 11
21.2369321963
 21
75.6032196003
  0
LINE
  5
222
100
AcDbEntity
  8
0
100
AcDbLine
 62
7
  6
BYLAYER
 10
20.4877917937
 20
64.3587105735
 11
21.2369321963
 21
63.6095701709
  0
LINE
  5
223
100
AcDbEntity
  8
0
100
AcDbLine
 62
7
  6
BYLAYER
 10
28.8699318733
 20
77.5012108603
 11
28.8699318733
 21
61.7115789108
  0
LINE
  5
224
100
AcDbEntity
  8
0
100
AcDbLine
 62
7
  6
BYLAYER
 10
34.076710672
 20
61.3619166098
 11
34.076710672
 21
77.8508731614
  0
LINE
  5
225
100
AcDbEntity
  8
0
100
AcDbLine
 62
7
  6
BYLAYER
 10
35.0511006351
 20
77.8508731614
 11
35.0511006351
 21
61.3619166098
  0
LINE
  5
226
100
AcDbEntity
  8
0
100
AcDbLine
 62
7
  6
BYLAYER
 10
35.3520705078
 20
61.3619166098
 11
35.3520705078
 21
77.8508731614
  0
LINE
  5
227
100
AcDbEntity
  8
0
100
AcDbLine
 62
7
  6
BYLAYER
 10
41.3451330991
 20
77.8510883374
 11
42.0937956576
 21
78.5997508959
  0
LINE
  5
228
100
AcDbEntity
  8
0
100
AcDbLine
 62
7
  6
BYLAYER
 10
53.7789549184
 20
57.6013948856
 11
56.7789549184
 21
57.6013948856
  0
LINE
  5
229
100
AcDbEntity
  8
0
100
AcDbLine
 62
7
  6
BYLAYER
 10
73.6789549184
 20
57.6013948856
 11
76.6789549184
 21
57.6013948856
  0
LINE
  5
22A
100
AcDbEntity
  8
0
100
AcDbLine
 62
7
  6
BYLAYER
 10
75.815816266
 20
58.2562335977
 11
74.5420935708
 21
58.2562335977
  0
LINE
  5
22B
100
AcDbEntity
  8
0
100
AcDbLine
 62
7
  6
BYLAYER
 10
55.915816266
 20
58.2562335977
 11
54.6420935708
 21
58.2562335977
  0
LINE
  5
22C
100
AcDbEntity
  8
0
100
AcDbLine
 62
7
  6
BYLAYER
 10
23.7459197896
 20
62.7250366513
 11
28.8699318733
 21
61.7115789108
  0
LINE
  5
22D
100
AcDbEntity
  8
0
100
AcDbLine
 62
7
  6
BYLAYER
 10
41.3451330991
 20
61.3617014337
 11
42.0937956576
 21
60.6130388752
  0
LINE
  5
22E
100
AcDbEntity
  8
0
100
AcDbLine
 62
7
  6
BYLAYER
 10
41.3451330991
 20
77.8510883374
 11
41.3451330991
 21
61.3617014337
  0
LINE
  5
22F
100
AcDbEntity
  8
0
100
AcDbLine
 62
7
  6
BYLAYER
 10
42.0937956576
 20
60.6130388752
 11
42.0937956576
 21
78.5997508959
  0
LINE
  5
230
100
AcDbEntity
  8
0
100
AcDbLine
 62
7
  6
BYLAYER
 10
84.1844323627
 20
60.6130388752
 11
76.6789549184
 21
60.6130388752
  0
LINE
  5
231
100
AcDbEntity
  8
0
100
AcDbLine
 62
7
  6
BYLAYER
 10
72.9803128654
 20
60.6130388752
 11
57.4775969714
 21
60.6130388752
  0
LINE
  5
232
100
AcDbEntity
  8
0
100
AcDbLine
 62
7
  6
BYLAYER
 10
53.7789549184
 20
60.6130388752
 11
42.0937956576
 21
60.6130388752
  0
LINE
  5
233
100
AcDbEntity
  8
0
100
AcDbLine
 62
7
  6
BYLAYER
 10
87.8825996742
 20
61.3127938294
 11
85.9827273524
 21
61.3127938294
  0
LINE
  5
234
100
AcDbEntity
  8
0
100
AcDbLine
 62
7
  6
BYLAYER
 10
85.7833348117
 20
61.3127938294
 11
84.7863721082
 21
61.3127938294
  0
LINE
  5
235
100
AcDbEntity
  8
0
100
AcDbLine
 62
7
  6
BYLAYER
 10
41.3451330991
 20
61.3617014337
 11
35.3520705078
 21
61.3617014337
  0
LINE
  5
236
100
AcDbEntity
  8
0
100
AcDbLine
 62
7
  6
BYLAYER
 10
35.0511006351
 20
61.3617014337
 11
34.076710672
 21
61.3617014337
  0
LINE
  5
237
100
AcDbEntity
  8
0
100
AcDbLine
 62
7
  6
BYLAYER
 10
85.9827273524
 20
61.5121863701
 11
85.7833348117
 21
61.5121863701
  0
LINE
  5
238
100
AcDbEntity
  8
0
100
AcDbLine
 62
7
  6
BYLAYER
 10
28.8699318733
 20
61.7115789108
 11
34.076710672
 21
61.3715135321
  0
LINE
  5
239
100
AcDbEntity
  8
0
100
AcDbLine
 62
7
  6
BYLAYER
 10
35.3520705078
 20
62.1630337199
 11
35.0511006351
 21
62.1630337199
  0
LINE
  5
23A
100
AcDbEntity
  8
0
100
AcDbLine
 62
7
  6
BYLAYER
 10
23.7459197896
 20
63.6095701709
 11
21.2369321963
 21
63.6095701709
  0
LINE
  5
23B
100
AcDbEntity
  8
0
100
AcDbLine
 62
7
  6
BYLAYER
 10
20.4877917937
 20
63.6095701709
 11
12.8368167656
 21
63.6095701709
  0
LINE
  5
23C
100
AcDbEntity
  8
0
100
AcDbLine
 62
7
  6
BYLAYER
 10
12.0881542071
 20
64.3582327294
 11
11.6893691257
 21
64.3582327294
  0
LINE
  5
23D
100
AcDbEntity
  8
0
100
AcDbLine
 62
7
  6
BYLAYER
 10
72.9803128654
 20
80.655230614
 11
73.6789549184
 21
80.9068229389
  0
LINE
  5
23E
100
AcDbEntity
  8
0
100
AcDbLine
 62
7
  6
BYLAYER
 10
72.9803128654
 20
58.5575591571
 11
73.6789549184
 21
58.3059668323
  0
LINE
  5
23F
100
AcDbEntity
  8
0
100
AcDbLine
 62
7
  6
BYLAYER
 10
54.6420935708
 20
68.9515561735
 11
55.915816266
 21
68.9515561735
  0
LINE
  5
240
100
AcDbEntity
  8
0
100
AcDbLine
 62
7
  6
BYLAYER
 10
74.5420935708
 20
68.9515561735
 11
75.815816266
 21
68.9515561735
  0
LINE
  5
241
100
AcDbEntity
  8
0
100
AcDbLine
 62
7
  6
BYLAYER
 10
75.815816266
 20
70.2612335977
 11
74.5420935708
 21
70.2612335977
  0
LINE
  5
242
100
AcDbEntity
  8
0
100
AcDbLine
 62
7
  6
BYLAYER
 10
55.915816266
 20
70.2612335977
 11
54.6420935708
 21
70.2612335977
  0
LINE
  5
243
100
AcDbEntity
  8
0
100
AcDbLine
 62
7
  6
BYLAYER
 10
53.7789549184
 20
57.6013948856
 11
53.7789549184
 21
81.6113948856
  0
LINE
  5
244
100
AcDbEntity
  8
0
100
AcDbLine
 62
7
  6
BYLAYER
 10
54.6420935708
 20
57.6013948856
 11
54.6420935708
 21
58.2562335977
  0
LINE
  5
245
100
AcDbEntity
  8
0
100
AcDbLine
 62
7
  6
BYLAYER
 10
54.6420935708
 20
68.9515561735
 11
54.6420935708
 21
70.2612335977
  0
LINE
  5
246
100
AcDbEntity
  8
0
100
AcDbLine
 62
7
  6
BYLAYER
 10
54.6420935708
 20
80.9565561735
 11
54.6420935708
 21
81.6113948856
  0
LINE
  5
247
100
AcDbEntity
  8
0
100
AcDbLine
 62
7
  6
BYLAYER
 10
55.915816266
 20
81.6113948856
 11
55.915816266
 21
80.9565561735
  0
LINE
  5
248
100
AcDbEntity
  8
0
100
AcDbLine
 62
7
  6
BYLAYER
 10
55.915816266
 20
70.2612335977
 11
55.915816266
 21
68.9515561735
  0
LINE
  5
249
100
AcDbEntity
  8
0
100
AcDbLine
 62
7
  6
BYLAYER
 10
55.915816266
 20
58.2562335977
 11
55.915816266
 21
57.6013948856
  0
LINE
  5
24A
100
AcDbEntity
  8
0
100
AcDbLine
 62
7
  6
BYLAYER
 10
12.0881542071
 20
74.8545570418
 11
11.6893691257
 21
74.8545570418
  0
LINE
  5
24B
100
AcDbEntity
  8
0
100
AcDbLine
 62
7
  6
BYLAYER
 10
56.7789549184
 20
81.6113948856
 11
56.7789549184
 21
57.6013948856
  0
LINE
  5
24C
100
AcDbEntity
  8
0
100
AcDbLine
 62
7
  6
BYLAYER
 10
57.4775969714
 20
80.6552244747
 11
57.4775969714
 21
58.5575652964
  0
LINE
  5
24D
100
AcDbEntity
  8
0
100
AcDbLine
 62
7
  6
BYLAYER
 10
23.7459197896
 20
75.6032196003
 11
21.2369321963
 21
75.6032196003
  0
LINE
  5
24E
100
AcDbEntity
  8
0
100
AcDbLine
 62
7
  6
BYLAYER
 10
20.4877917937
 20
75.6032196003
 11
12.8368167656
 21
75.6032196003
  0
LINE
  5
24F
100
AcDbEntity
  8
0
100
AcDbLine
 62
7
  6
BYLAYER
 10
35.3520705078
 20
77.0497560512
 11
35.0511006351
 21
77.0497560512
  0
LINE
  5
250
100
AcDbEntity
  8
0
100
AcDbLine
 62
7
  6
BYLAYER
 10
85.9827273524
 20
77.700603401
 11
85.7833348117
 21
77.700603401
  0
LINE
  5
251
100
AcDbEntity
  8
0
100
AcDbLine
 62
7
  6
BYLAYER
 10
41.3451330991
 20
77.8510883374
 11
35.3520705078
 21
77.8510883374
  0
LINE
  5
252
100
AcDbEntity
  8
0
100
AcDbLine
 62
7
  6
BYLAYER
 10
35.0511006351
 20
77.8510883374
 11
34.076710672
 21
77.8510883374
  0
LINE
  5
253
100
AcDbEntity
  8
0
100
AcDbLine
 62
7
  6
BYLAYER
 10
87.8825996742
 20
77.8999959417
 11
85.9827273524
 21
77.8999959417
  0
LINE
  5
254
100
AcDbEntity
  8
0
100
AcDbLine
 62
7
  6
BYLAYER
 10
85.7833348117
 20
77.8999959417
 11
84.7863721082
 21
77.8999959417
  0
LINE
  5
255
100
AcDbEntity
  8
0
100
AcDbLine
 62
7
  6
BYLAYER
 10
28.8699318733
 20
77.5012108603
 11
34.076710672
 21
77.8412762391
  0
LINE
  5
256
100
AcDbEntity
  8
0
100
AcDbLine
 62
7
  6
BYLAYER
 10
84.1844323627
 20
78.5997508959
 11
76.6789549184
 21
78.5997508959
  0
LINE
  5
257
100
AcDbEntity
  8
0
100
AcDbLine
 62
7
  6
BYLAYER
 10
72.9803128654
 20
78.5997508959
 11
57.4775969714
 21
78.5997508959
  0
LINE
  5
258
100
AcDbEntity
  8
0
100
AcDbLine
 62
7
  6
BYLAYER
 10
53.7789549184
 20
78.5997508959
 11
42.0937956576
 21
78.5997508959
  0
LINE
  5
259
100
AcDbEntity
  8
0
100
AcDbLine
 62
7
  6
BYLAYER
 10
57.4775969714
 20
58.5575591571
 11
56.7789549184
 21
58.3059668323
  0
LINE
  5
25A
100
AcDbEntity
  8
0
100
AcDbLine
 62
7
  6
BYLAYER
 10
23.7459197896
 20
76.4877531198
 11
28.8699318733
 21
77.5012108603
  0
LINE
  5
25B
100
AcDbEntity
  8
0
100
AcDbLine
 62
7
  6
BYLAYER
 10
54.6420935708
 20
80.9565561735
 11
55.915816266
 21
80.9565561735
  0
LINE
  5
25C
100
AcDbEntity
  8
0
100
AcDbLine
 62
7
  6
BYLAYER
 10
74.5420935708
 20
80.9565561735
 11
75.815816266
 21
80.9565561735
  0
LINE
  5
25D
100
AcDbEntity
  8
0
100
AcDbLine
 62
7
  6
BYLAYER
 10
76.6789549184
 20
81.6113948856
 11
73.6789549184
 21
81.6113948856
  0
LINE
  5
25E
100
AcDbEntity
  8
0
100
AcDbLine
 62
7
  6
BYLAYER
 10
56.7789549184
 20
81.6113948856
 11
53.7789549184
 21
81.6113948856
  0
LINE
  5
25F
100
AcDbEntity
  8
0
100
AcDbLine
 62
7
  6
BYLAYER
 10
57.4775969714
 20
80.655230614
 11
56.7789549184
 21
80.9068229389
  0
LINE
  5
260
100
AcDbEntity
  8
0
100
AcDbLine
 62
7
  6
BYLAYER
 10
88.9322321054
 20
62.2570868052
 11
88.2294972821
 21
61.9655266125
  0
LINE
  5
261
100
AcDbEntity
  8
0
100
AcDbLine
 62
7
  6
BYLAYER
 10
88.9322321054
 20
76.955702966
 11
88.2294972821
 21
77.2472631586
  0
LINE
  5
262
100
AcDbEntity
  8
0
100
AcDbLine
 62
7
  6
BYLAYER
 10
72.9803128654
 20
58.5575652964
 11
72.9803128654
 21
80.6552244747
  0
LINE
  5
263
100
AcDbEntity
  8
0
100
AcDbLine
 62
7
  6
BYLAYER
 10
73.6789549184
 20
57.6013948856
 11
73.6789549184
 21
81.6113948856
  0
LINE
  5
264
100
AcDbEntity
  8
0
100
AcDbLine
 62
7
  6
BYLAYER
 10
74.5420935708
 20
57.6013948856
 11
74.5420935708
 21
58.2562335977
  0
LINE
  5
265
100
AcDbEntity
  8
0
100
AcDbLine
 62
7
  6
BYLAYER
 10
74.5420935708
 20
68.9515561735
 11
74.5420935708
 21
70.2612335977
  0
LINE
  5
266
100
AcDbEntity
  8
0
100
AcDbLine
 62
7
  6
BYLAYER
 10
74.5420935708
 20
80.9565561735
 11
74.5420935708
 21
81.6113948856
  0
LINE
  5
267
100
AcDbEntity
  8
0
100
AcDbLine
 62
7
  6
BYLAYER
 10
75.815816266
 20
81.6113948856
 11
75.815816266
 21
80.9565561735
  0
LINE
  5
268
100
AcDbEntity
  8
0
100
AcDbLine
 62
7
  6
BYLAYER
 10
75.815816266
 20
70.2612335977
 11
75.815816266
 21
68.9515561735
  0
LINE
  5
269
100
AcDbEntity
  8
0
100
AcDbLine
 62
7
  6
BYLAYER
 10
75.815816266
 20
58.2562335977
 11
75.815816266
 21
57.6013948856
  0
LINE
  5
26A
100
AcDbEntity
  8
0
100
AcDbLine
 62
7
  6
BYLAYER
 10
76.6789549184
 20
81.6113948856
 11
76.6789549184
 21
57.6013948856
  0
LINE
  5
26B
100
AcDbEntity
  8
0
100
AcDbLine
 62
7
  6
BYLAYER
 10
84.7863721082
 20
61.2112164973
 11
84.1844323627
 21
60.6130388752
  0
LINE
  5
26C
100
AcDbEntity
  8
0
100
AcDbLine
 62
7
  6
BYLAYER
 10
84.7863721082
 20
78.0015732738
 11
84.1844323627
 21
78.5997508959
  0
LINE
  5
26D
100
AcDbEntity
  8
0
100
AcDbLine
 62
7
  6
BYLAYER
 10
84.1844323627
 20
78.5997508959
 11
84.1844323627
 21
60.6130388752
  0
LINE
  5
26E
100
AcDbEntity
  8
0
100
AcDbLine
 62
7
  6
BYLAYER
 10
84.7863721082
 20
78.0013531808
 11
84.7863721082
 21
61.2114365903
  0
LINE
  5
26F
100
AcDbEntity
  8
0
100
AcDbLine
 62
7
  6
BYLAYER
 10
85.7833348117
 20
77.8997792004
 11
85.7833348117
 21
61.3130105707
  0
LINE
  5
270
100
AcDbEntity
  8
0
100
AcDbLine
 62
7
  6
BYLAYER
 10
85.9827273524
 20
61.3130105707
 11
85.9827273524
 21
77.8997792004
  0
LINE
  5
271
100
AcDbEntity
  8
0
100
AcDbLine
 62
7
  6
BYLAYER
 10
87.8825996742
 20
77.8999959417
 11
87.8825996742
 21
61.3127938294
  0
LINE
  5
272
100
AcDbEntity
  8
0
100
AcDbLine
 62
7
  6
BYLAYER
 10
88.0819922149
 20
77.700603401
 11
88.0819922149
 21
61.5121863701
  0
LINE
  5
273
100
AcDbEntity
  8
0
100
AcDbLine
 62
7
  6
BYLAYER
 10
88.2294972821
 20
77.2472631586
 11
88.2294972821
 21
61.9655266125
  0
LINE
  5
274
100
AcDbEntity
  8
0
100
AcDbLine
 62
7
  6
BYLAYER
 10
88.9322321054
 20
76.955702966
 11
88.9322321054
 21
62.2570868052
  0
LINE
  5
275
100
AcDbEntity
  8
0
100
AcDbLine
 62
7
  6
BYLAYER
 10
89.0789549184
 20
76.6020497588
 11
89.0789549184
 21
62.6107400123
  0
LINE
  5
276
100
AcDbEntity
  8
0
100
AcDbLine
 62
7
  6
BYLAYER
 10
88.2294972821
 20
61.9655266125
 11
88.0819922149
 21
61.6100015788
  0
LINE
  5
277
100
AcDbEntity
  8
0
100
AcDbLine
 62
7
  6
BYLAYER
 10
89.0789549184
 20
62.6107264057
 11
88.9322321054
 21
62.2570868052
  0
LINE
  5
278
100
AcDbEntity
  8
0
100
AcDbLine
 62
7
  6
BYLAYER
 10
88.2294972821
 20
77.2472631586
 11
88.0819922149
 21
77.6027881924
  0
LINE
  5
279
100
AcDbEntity
  8
0
100
AcDbLine
 62
7
  6
BYLAYER
 10
89.0789549184
 20
76.6020633655
 11
88.9322321054
 21
76.955702966
  0
ARC
  5
27A
100
AcDbEntity
  8
0
100
AcDbCircle
 62
7
  6
BYLAYER
 10
14.7883999778
 20
69.6058995927
 40
9.0357178889
100
AcDbArc
 50
0.003140668
 51
7.5434157539
  0
ARC
  5
27B
100
AcDbEntity
  8
0
100
AcDbCircle
 62
7
  6
BYLAYER
 10
14.8548472587
 20
69.6025078806
 40
8.9692714367
100
AcDbArc
 50
352.4286133573
 51
0.0248302206
  0
ARC
  5
27C
100
AcDbEntity
  8
0
100
AcDbCircle
 62
7
  6
BYLAYER
 10
87.8829416854
 20
61.5118443589
 40
0.1990508233
100
AcDbArc
 50
269.9015537403
 51
0.0984462597
  0
ARC
  5
27D
100
AcDbEntity
  8
0
100
AcDbCircle
 62
7
  6
BYLAYER
 10
87.8829416854
 20
77.7009454123
 40
0.1990508233
100
AcDbArc
 50
359.9015537403
 51
90.0984462597
  0
ARC
  5
27E
100
AcDbEntity
  8
0
100
AcDbCircle
 62
7
  6
BYLAYER
 10
11.690566165
 20
74.7517826705
 40
0.1027813422
100
AcDbArc
 50
90.6673083559
 51
179.3326916442
  0
ARC
  5
27F
100
AcDbEntity
  8
0
100
AcDbCircle
 62
7
  6
BYLAYER
 10
11.690566165
 20
64.4610071007
 40
0.1027813422
100
AcDbArc
 50
180.6673083558
 51
269.3326916441
  0
SPLINE
  5
280
100
AcDbEntity
  8
0
100
AcDbSpline
 62
7
  6
BYLAYER
 70
0
 71
3
 72
11
 73
7
 74
0
 42
0.0000001
 43
0.0000001
 44
0.0000000001
 40
0.0
 40
0.0
 40
0.0
 40
0.0
 40
0.249047688
 40
0.4985365606
 40
0.7487968618
 40
1.0
 40
1.0
 40
1.0
 40
1.0
 10
76.6789549184
 20
63.6038948856
 30
0.0
 10
76.6789549184
 20
63.1526280596
 30
0.0
 10
76.6395624826
 20
62.2488184183
 30
0.0
 10
76.4660753706
 20
60.901743531
 30
0.0
 10
76.1904037165
 20
59.5681156459
 30
0.0
 10
75.9485792284
 20
58.6916138252
 30
0.0
 10
75.815816266
 20
58.2562335977
 30
0.0
  0
SPLINE
  5
281
100
AcDbEntity
  8
0
100
AcDbSpline
 62
7
  6
BYLAYER
 70
0
 71
3
 72
11
 73
7
 74
0
 42
0.0000001
 43
0.0000001
 44
0.0000000001
 40
0.0
 40
0.0
 40
0.0
 40
0.0
 40
0.2511976629
 40
0.5014566469
 40
0.750949112
 40
1.0
 40
1.0
 40
1.0
 40
1.0
 10
75.815816266
 20
80.9565561735
 30
0.0
 10
75.9485763258
 20
80.5211854648
 30
0.0
 10
76.1903197786
 20
79.6446763695
 30
0.0
 10
76.4661328988
 20
78.3110840259
 30
0.0
 10
76.6395452434
 20
76.9639865328
 30
0.0
 10
76.6789549184
 20
76.0601674798
 30
0.0
 10
76.6789549184
 20
75.6088948856
 30
0.0
  0
SPLINE
  5
282
100
AcDbEntity
  8
0
100
AcDbSpline
 62
7
  6
BYLAYER
 70
0
 71
3
 72
11
 73
7
 74
0
 42
0.0000001
 43
0.0000001
 44
0.0000000001
 40
0.0
 40
0.0
 40
0.0
 40
0.0
 40
0.249047688
 40
0.4985365606
 40
0.7487968618
 40
1.0
 40
1.0
 40
1.0
 40
1.0
 10
73.6789549184
 20
75.6088948856
 30
0.0
 10
73.6789549184
 20
76.0601617116
 30
0.0
 10
73.7183473542
 20
76.9639713528
 30
0.0
 10
73.8918344662
 20
78.3110462401
 30
0.0
 10
74.1675061203
 20
79.6446741252
 30
0.0
 10
74.4093306084
 20
80.521175946
 30
0.0
 10
74.5420935708
 20
80.9565561735
 30
0.0
  0
SPLINE
  5
283
100
AcDbEntity
  8
0
100
AcDbSpline
 62
7
  6
BYLAYER
 70
0
 71
3
 72
11
 73
7
 74
0
 42
0.0000001
 43
0.0000001
 44
0.0000000001
 40
0.0
 40
0.0
 40
0.0
 40
0.0
 40
0.2511976629
 40
0.5014566469
 40
0.750949112
 40
1.0
 40
1.0
 40
1.0
 40
1.0
 10
74.5420935708
 20
58.2562335977
 30
0.0
 10
74.409333511
 20
58.6916043064
 30
0.0
 10
74.1675900582
 20
59.5681134016
 30
0.0
 10
73.891776938
 20
60.9017057452
 30
0.0
 10
73.7183645934
 20
62.2488032383
 30
0.0
 10
73.6789549184
 20
63.1526222913
 30
0.0
 10
73.6789549184
 20
63.6038948856
 30
0.0
  0
SPLINE
  5
284
100
AcDbEntity
  8
0
100
AcDbSpline
 62
7
  6
BYLAYER
 70
0
 71
3
 72
11
 73
7
 74
0
 42
0.0000001
 43
0.0000001
 44
0.0000000001
 40
0.0
 40
0.0
 40
0.0
 40
0.0
 40
0.2511976629
 40
0.5014566469
 40
0.750949112
 40
1.0
 40
1.0
 40
1.0
 40
1.0
 10
75.815816266
 20
68.9515561735
 30
0.0
 10
75.9485763258
 20
68.5161854648
 30
0.0
 10
76.1903197786
 20
67.6396763695
 30
0.0
 10
76.4661328988
 20
66.3060840259
 30
0.0
 10
76.6395452434
 20
64.9589865328
 30
0.0
 10
76.6789549184
 20
64.0551674798
 30
0.0
 10
76.6789549184
 20
63.6038948856
 30
0.0
  0
SPLINE
  5
285
100
AcDbEntity
  8
0
100
AcDbSpline
 62
7
  6
BYLAYER
 70
0
 71
3
 72
11
 73
7
 74
0
 42
0.0000001
 43
0.0000001
 44
0.0000000001
 40
0.0
 40
0.0
 40
0.0
 40
0.0
 40
0.249047688
 40
0.4985365606
 40
0.7487968618
 40
1.0
 40
1.0
 40
1.0
 40
1.0
 10
76.6789549184
 20
75.6088948856
 30
0.0
 10
76.6789549184
 20
75.1576280596
 30
0.0
 10
76.6395624826
 20
74.2538184183
 30
0.0
 10
76.4660753706
 20
72.906743531
 30
0.0
 10
76.1904037165
 20
71.5731156459
 30
0.0
 10
75.9485792284
 20
70.6966138252
 30
0.0
 10
75.815816266
 20
70.2612335977
 30
0.0
  0
SPLINE
  5
286
100
AcDbEntity
  8
0
100
AcDbSpline
 62
7
  6
BYLAYER
 70
0
 71
3
 72
11
 73
7
 74
0
 42
0.0000001
 43
0.0000001
 44
0.0000000001
 40
0.0
 40
0.0
 40
0.0
 40
0.0
 40
0.249047688
 40
0.4985365606
 40
0.7487968618
 40
1.0
 40
1.0
 40
1.0
 40
1.0
 10
73.6789549184
 20
63.6038948856
 30
0.0
 10
73.6789549184
 20
64.0551617116
 30
0.0
 10
73.7183473542
 20
64.9589713528
 30
0.0
 10
73.8918344662
 20
66.3060462401
 30
0.0
 10
74.1675061203
 20
67.6396741252
 30
0.0
 10
74.4093306084
 20
68.516175946
 30
0.0
 10
74.5420935708
 20
68.9515561735
 30
0.0
  0
SPLINE
  5
287
100
AcDbEntity
  8
0
100
AcDbSpline
 62
7
  6
BYLAYER
 70
0
 71
3
 72
11
 73
7
 74
0
 42
0.0000001
 43
0.0000001
 44
0.0000000001
 40
0.0
 40
0.0
 40
0.0
 40
0.0
 40
0.2511976629
 40
0.5014566469
 40
0.750949112
 40
1.0
 40
1.0
 40
1.0
 40
1.0
 10
74.5420935708
 20
70.2612335977
 30
0.0
 10
74.409333511
 20
70.6966043064
 30
0.0
 10
74.1675900582
 20
71.5731134016
 30
0.0
 10
73.891776938
 20
72.9067057452
 30
0.0
 10
73.7183645934
 20
74.2538032383
 30
0.0
 10
73.6789549184
 20
75.1576222913
 30
0.0
 10
73.6789549184
 20
75.6088948856
 30
0.0
  0
SPLINE
  5
288
100
AcDbEntity
  8
0
100
AcDbSpline
 62
7
  6
BYLAYER
 70
0
 71
3
 72
11
 73
7
 74
0
 42
0.0000001
 43
0.0000001
 44
0.0000000001
 40
0.0
 40
0.0
 40
0.0
 40
0.0
 40
0.249047688
 40
0.4985365606
 40
0.7487968618
 40
1.0
 40
1.0
 40
1.0
 40
1.0
 10
53.7789549184
 20
75.6088948856
 30
0.0
 10
53.7789549184
 20
76.0601617116
 30
0.0
 10
53.8183473542
 20
76.9639713528
 30
0.0
 10
53.9918344662
 20
78.3110462401
 30
0.0
 10
54.2675061203
 20
79.6446741252
 30
0.0
 10
54.5093306084
 20
80.521175946
 30
0.0
 10
54.6420935708
 20
80.9565561735
 30
0.0
  0
SPLINE
  5
289
100
AcDbEntity
  8
0
100
AcDbSpline
 62
7
  6
BYLAYER
 70
0
 71
3
 72
11
 73
7
 74
0
 42
0.0000001
 43
0.0000001
 44
0.0000000001
 40
0.0
 40
0.0
 40
0.0
 40
0.0
 40
0.2511976629
 40
0.5014566469
 40
0.750949112
 40
1.0
 40
1.0
 40
1.0
 40
1.0
 10
54.6420935708
 20
58.2562335977
 30
0.0
 10
54.509333511
 20
58.6916043064
 30
0.0
 10
54.2675900582
 20
59.5681134016
 30
0.0
 10
53.991776938
 20
60.9017057452
 30
0.0
 10
53.8183645934
 20
62.2488032383
 30
0.0
 10
53.7789549184
 20
63.1526222913
 30
0.0
 10
53.7789549184
 20
63.6038948856
 30
0.0
  0
SPLINE
  5
28A
100
AcDbEntity
  8
0
100
AcDbSpline
 62
7
  6
BYLAYER
 70
0
 71
3
 72
11
 73
7
 74
0
 42
0.0000001
 43
0.0000001
 44
0.0000000001
 40
0.0
 40
0.0
 40
0.0
 40
0.0
 40
0.249047688
 40
0.4985365606
 40
0.7487968618
 40
1.0
 40
1.0
 40
1.0
 40
1.0
 10
56.7789549184
 20
63.6038948856
 30
0.0
 10
56.7789549184
 20
63.1526280596
 30
0.0
 10
56.7395624826
 20
62.2488184183
 30
0.0
 10
56.5660753706
 20
60.901743531
 30
0.0
 10
56.2904037165
 20
59.5681156459
 30
0.0
 10
56.0485792284
 20
58.6916138252
 30
0.0
 10
55.915816266
 20
58.2562335977
 30
0.0
  0
SPLINE
  5
28B
100
AcDbEntity
  8
0
100
AcDbSpline
 62
7
  6
BYLAYER
 70
0
 71
3
 72
11
 73
7
 74
0
 42
0.0000001
 43
0.0000001
 44
0.0000000001
 40
0.0
 40
0.0
 40
0.0
 40
0.0
 40
0.2511976629
 40
0.5014566469
 40
0.750949112
 40
1.0
 40
1.0
 40
1.0
 40
1.0
 10
55.915816266
 20
80.9565561735
 30
0.0
 10
56.0485763258
 20
80.5211854648
 30
0.0
 10
56.2903197786
 20
79.6446763695
 30
0.0
 10
56.5661328988
 20
78.3110840259
 30
0.0
 10
56.7395452434
 20
76.9639865328
 30
0.0
 10
56.7789549184
 20
76.0601674798
 30
0.0
 10
56.7789549184
 20
75.6088948856
 30
0.0
  0
SPLINE
  5
28C
100
AcDbEntity
  8
0
100
AcDbSpline
 62
7
  6
BYLAYER
 70
0
 71
3
 72
11
 73
7
 74
0
 42
0.0000001
 43
0.0000001
 44
0.0000000001
 40
0.0
 40
0.0
 40
0.0
 40
0.0
 40
0.2511976629
 40
0.5014566469
 40
0.750949112
 40
1.0
 40
1.0
 40
1.0
 40
1.0
 10
54.6420935708
 20
70.2612335977
 30
0.0
 10
54.509333511
 20
70.6966043064
 30
0.0
 10
54.2675900582
 20
71.5731134016
 30
0.0
 10
53.991776938
 20
72.9067057452
 30
0.0
 10
53.8183645934
 20
74.2538032383
 30
0.0
 10
53.7789549184
 20
75.1576222913
 30
0.0
 10
53.7789549184
 20
75.6088948856
 30
0.0
  0
SPLINE
  5
28D
100
AcDbEntity
  8
0
100
AcDbSpline
 62
7
  6
BYLAYER
 70
0
 71
3
 72
11
 73
7
 74
0
 42
0.0000001
 43
0.0000001
 44
0.0000000001
 40
0.0
 40
0.0
 40
0.0
 40
0.0
 40
0.249047688
 40
0.4985365606
 40
0.7487968618
 40
1.0
 40
1.0
 40
1.0
 40
1.0
 10
53.7789549184
 20
63.6038948856
 30
0.0
 10
53.7789549184
 20
64.0551617116
 30
0.0
 10
53.8183473542
 20
64.9589713528
 30
0.0
 10
53.9918344662
 20
66.3060462401
 30
0.0
 10
54.2675061203
 20
67.6396741252
 30
0.0
 10
54.5093306084
 20
68.516175946
 30
0.0
 10
54.6420935708
 20
68.9515561735
 30
0.0
  0
SPLINE
  5
28E
100
AcDbEntity
  8
0
100
AcDbSpline
 62
7
  6
BYLAYER
 70
0
 71
3
 72
11
 73
7
 74
0
 42
0.0000001
 43
0.0000001
 44
0.0000000001
 40
0.0
 40
0.0
 40
0.0
 40
0.0
 40
0.249047688
 40
0.4985365606
 40
0.7487968618
 40
1.0
 40
1.0
 40
1.0
 40
1.0
 10
56.7789549184
 20
75.6088948856
 30
0.0
 10
56.7789549184
 20
75.1576280596
 30
0.0
 10
56.7395624826
 20
74.2538184183
 30
0.0
 10
56.5660753706
 20
72.906743531
 30
0.0
 10
56.2904037165
 20
71.5731156459
 30
0.0
 10
56.0485792284
 20
70.6966138252
 30
0.0
 10
55.915816266
 20
70.2612335977
 30
0.0
  0
SPLINE
  5
28F
100
AcDbEntity
  8
0
100
AcDbSpline
 62
7
  6
BYLAYER
 70
0
 71
3
 72
11
 73
7
 74
0
 42
0.0000001
 43
0.0000001
 44
0.0000000001
 40
0.0
 40
0.0
 40
0.0
 40
0.0
 40
0.2511976629
 40
0.5014566469
 40
0.750949112
 40
1.0
 40
1.0
 40
1.0
 40
1.0
 10
55.915816266
 20
68.9515561735
 30
0.0
 10
56.0485763258
 20
68.5161854648
 30
0.0
 10
56.2903197786
 20
67.6396763695
 30
0.0
 10
56.5661328988
 20
66.3060840259
 30
0.0
 10
56.7395452434
 20
64.9589865328
 30
0.0
 10
56.7789549184
 20
64.0551674798
 30
0.0
 10
56.7789549184
 20
63.6038948856
 30
0.0
  0
ENDSEC
  0
SECTION
  2
OBJECTS
  0
DICTIONARY
  5
C
100
AcDbDictionary
280
0
281
1
  3
ACAD_GROUP
350
D
  3
ACAD_MLINESTYLE
350
17
  3
ACAD_LAYOUT
350
1A
  3
ACAD_PLOTSETTINGS
350
19
  3
ACAD_PLOTSTYLENAME
350
E
  0
DICTIONARY
  5
D
102
{ACAD_REACTORS
330
C
102
}
100
AcDbDictionary
280
0
281
1
  0
ACDBDICTIONARYWDFLT
  5
E
102
{ACAD_REACTORS
330
C
102
}
100
AcDbDictionary
281
1
  3
Normal
350
F
100
AcDbDictionaryWithDefault
340
F
  0
DICTIONARY
  5
17
102
{ACAD_REACTORS
330
C
102
}
100
AcDbDictionary
280
0
281
1
  3
Standard
350
18
  0
DICTIONARY
  5
19
102
{ACAD_REACTORS
330
C
102
}
100
AcDbDictionary
281
1
  0
DICTIONARY
  5
1A
102
{ACAD_REACTORS
330
C
102
}
100
AcDbDictionary
281
1
  3
Model
350
290
  3
Layout1
350
291
  0
ACDBPLACEHOLDER
  5
F
102
{ACAD_REACTORS
330
E
102
}
  0
MLINESTYLE
  5
18
102
{ACAD_REACTORS
330
17
102
}
100
AcDbMlineStyle
  2
STANDARD
 70
0
  3

 62
256
 51
90.0
 52
90.0
 71
2
 49
0.5
 62
256
  6
BYLAYER
 49
-0.5
 62
256
  6
BYLAYER
  0
LAYOUT
  5
290
102
{ACAD_REACTORS
330
1A
102
}
100
AcDbPlotSettings
  1

  2
none_device
  4

  6

 40
0.0
 41
0.0
 42
0.0
 43
0.0
 44
210.0
 45
297.0
 46
0.0
 47
0.0
 48
0.0
 49
0.0
140
0.0
141
0.0
142
1.0
143
1.0
 70
1024
 72
1
 73
0
 74
0
  7

 75
0
147
1.0
148
0.0
149
0.0
100
AcDbLayout
  1
Model
 70
0
 71
0
 10
0.0
 20
0.0
 11
210.0
 21
297.0
 12
0.0
 22
0.0
 32
0.0
 14
0.0
 24
0.0
 34
0.0
 15
0.0
 25
0.0
 35
0.0
146
0.0
 13
0.0
 23
0.0
 33
0.0
 16
1.0
 26
0.0
 36
0.0
 17
0.0
 27
1.0
 37
0.0
 76
0
330
210
345
0
346
0
  0
LAYOUT
  5
291
102
{ACAD_REACTORS
330
1A
102
}
100
AcDbPlotSettings
  1

  2
none_device
  4

  6

 40
0.0
 41
0.0
 42
0.0
 43
0.0
 44
210.0
 45
297.0
 46
0.0
 47
0.0
 48
0.0
 49
0.0
140
0.0
141
0.0
142
1.0
143
1.0
 70
0
 72
1
 73
0
 74
0
  7

 75
0
147
1.0
148
0.0
149
0.0
100
AcDbLayout
  1
Layout1
 70
0
 71
1
 10
0.0
 20
0.0
 11
210.0
 21
297.0
 12
0.0
 22
0.0
 32
0.0
 14
0.0
 24
0.0
 34
0.0
 15
0.0
 25
0.0
 35
0.0
146
0.0
 13
0.0
 23
0.0
 33
0.0
 16
1.0
 26
0.0
 36
0.0
 17
0.0
 27
1.0
 37
0.0
 76
0
330
211
345
0
346
0
  0
ENDSEC
  0
EOF
