ISO-10303-21;
HEADER;
FILE_DESCRIPTION(('STEP AP242'),'1');
FILE_NAME('nsycsa810.stp','2021-09-28T16:05:15',('TraceParts'),('TraceParts S.A.'),'Spatial InterOp 3D',' ',' ');
FILE_SCHEMA(('AP242_MANAGED_MODEL_BASED_3D_ENGINEERING_MIM_LF  {1 0 10303 442 1 1 4}'));
ENDSEC;
DATA;
#1=PRODUCT_DEFINITION_CONTEXT('',#9,'design');
#2=APPLICATION_PROTOCOL_DEFINITION('INTERNATIONAL STANDARD','ap242_managed_model_based_3d_engineering',2014,#9);
#3=PRODUCT_CATEGORY_RELATIONSHIP('NONE','NONE',#10,#11);
#4=SHAPE_DEFINITION_REPRESENTATION(#12,#13);
#5= (GEOMETRIC_REPRESENTATION_CONTEXT(3)GLOBAL_UNCERTAINTY_ASSIGNED_CONTEXT((#16))GLOBAL_UNIT_ASSIGNED_CONTEXT((#18,#19,#20))REPRESENTATION_CONTEXT('NONE','WORKSPACE'));
#9=APPLICATION_CONTEXT('managed model based 3d engineering');
#10=PRODUCT_CATEGORY('part','NONE');
#11=PRODUCT_RELATED_PRODUCT_CATEGORY('detail',' ',(#22));
#12=PRODUCT_DEFINITION_SHAPE('NONE','NONE',#23);
#13=ADVANCED_BREP_SHAPE_REPRESENTATION('nsycsa810',(#24,#25),#5);
#16=UNCERTAINTY_MEASURE_WITH_UNIT(LENGTH_MEASURE(1.0E-06),#18,'','');
#18= (CONVERSION_BASED_UNIT('MILLIMETRE',#28)LENGTH_UNIT()NAMED_UNIT(#31));
#19= (NAMED_UNIT(#33)PLANE_ANGLE_UNIT()SI_UNIT($,.RADIAN.));
#20= (NAMED_UNIT(#33)SOLID_ANGLE_UNIT()SI_UNIT($,.STERADIAN.));
#22=PRODUCT('nsycsa810','nsycsa810','PART-nsycsa810-DESC',(#39));
#23=PRODUCT_DEFINITION('','NONE',#40,#1);
#24=MANIFOLD_SOLID_BREP('nsycsa810',#41);
#25=AXIS2_PLACEMENT_3D('',#42,#43,#44);
#28=LENGTH_MEASURE_WITH_UNIT(LENGTH_MEASURE(1.0),#45);
#31=DIMENSIONAL_EXPONENTS(1.0,0.0,0.0,0.0,0.0,0.0,0.0);
#33=DIMENSIONAL_EXPONENTS(0.0,0.0,0.0,0.0,0.0,0.0,0.0);
#39=PRODUCT_CONTEXT('',#9,'mechanical');
#40=PRODUCT_DEFINITION_FORMATION_WITH_SPECIFIED_SOURCE(' ','NONE',#22,.NOT_KNOWN.);
#41=CLOSED_SHELL('',(#46,#47,#48,#49,#50,#51,#52,#53,#54,#55,#56,#57,#58,#59,#60,#61,#62));
#42=CARTESIAN_POINT('',(0.0,0.0,0.0));
#43=DIRECTION('',(0.0,0.0,1.0));
#44=DIRECTION('',(1.0,0.0,0.0));
#45= (NAMED_UNIT(#31)LENGTH_UNIT()SI_UNIT(.MILLI.,.METRE.));
#46=ADVANCED_FACE('',(#64),#65,.F.);
#47=ADVANCED_FACE('',(#66),#67,.T.);
#48=ADVANCED_FACE('',(#68),#69,.F.);
#49=ADVANCED_FACE('',(#70),#71,.T.);
#50=ADVANCED_FACE('',(#72),#73,.T.);
#51=ADVANCED_FACE('',(#74),#75,.T.);
#52=ADVANCED_FACE('',(#76),#77,.T.);
#53=ADVANCED_FACE('',(#78),#79,.T.);
#54=ADVANCED_FACE('',(#80),#81,.T.);
#55=ADVANCED_FACE('',(#82,#83,#84),#85,.T.);
#56=ADVANCED_FACE('',(#86),#87,.T.);
#57=ADVANCED_FACE('',(#88),#89,.T.);
#58=ADVANCED_FACE('',(#90,#91,#92),#93,.T.);
#59=ADVANCED_FACE('',(#94),#95,.F.);
#60=ADVANCED_FACE('',(#96),#97,.F.);
#61=ADVANCED_FACE('',(#98),#99,.F.);
#62=ADVANCED_FACE('',(#100),#101,.F.);
#64=FACE_OUTER_BOUND('',#102,.T.);
#65=PLANE('',#103);
#66=FACE_OUTER_BOUND('',#104,.T.);
#67=PLANE('',#105);
#68=FACE_OUTER_BOUND('',#106,.T.);
#69=CYLINDRICAL_SURFACE('',#107,1.0);
#70=FACE_OUTER_BOUND('',#108,.T.);
#71=PLANE('',#109);
#72=FACE_OUTER_BOUND('',#110,.T.);
#73=PLANE('',#111);
#74=FACE_OUTER_BOUND('',#112,.T.);
#75=PLANE('',#113);
#76=FACE_OUTER_BOUND('',#114,.T.);
#77=CYLINDRICAL_SURFACE('',#115,4.0);
#78=FACE_OUTER_BOUND('',#116,.T.);
#79=PLANE('',#117);
#80=FACE_OUTER_BOUND('',#118,.T.);
#81=CYLINDRICAL_SURFACE('',#119,4.0);
#82=FACE_OUTER_BOUND('',#120,.T.);
#83=FACE_BOUND('',#121,.T.);
#84=FACE_BOUND('',#122,.T.);
#85=PLANE('',#123);
#86=FACE_OUTER_BOUND('',#124,.T.);
#87=CYLINDRICAL_SURFACE('',#125,4.0);
#88=FACE_OUTER_BOUND('',#126,.T.);
#89=PLANE('',#127);
#90=FACE_OUTER_BOUND('',#128,.T.);
#91=FACE_BOUND('',#129,.T.);
#92=FACE_BOUND('',#130,.T.);
#93=PLANE('',#131);
#94=FACE_OUTER_BOUND('',#132,.T.);
#95=CYLINDRICAL_SURFACE('',#133,2.25);
#96=FACE_OUTER_BOUND('',#134,.T.);
#97=CYLINDRICAL_SURFACE('',#135,2.25);
#98=FACE_OUTER_BOUND('',#136,.T.);
#99=CYLINDRICAL_SURFACE('',#137,2.25);
#100=FACE_OUTER_BOUND('',#138,.T.);
#101=CYLINDRICAL_SURFACE('',#139,2.25);
#102=EDGE_LOOP('',(#140,#141,#142,#143,#144,#145,#146,#147,#148,#149,#150));
#103=AXIS2_PLACEMENT_3D('',#151,#152,#153);
#104=EDGE_LOOP('',(#154,#155,#156,#157));
#105=AXIS2_PLACEMENT_3D('',#158,#159,#160);
#106=EDGE_LOOP('',(#161,#162,#163,#164));
#107=AXIS2_PLACEMENT_3D('',#165,#166,#167);
#108=EDGE_LOOP('',(#168,#169,#170,#171));
#109=AXIS2_PLACEMENT_3D('',#172,#173,#174);
#110=EDGE_LOOP('',(#175,#176,#177,#178,#179,#180,#181,#182,#183,#184,#185));
#111=AXIS2_PLACEMENT_3D('',#186,#187,#188);
#112=EDGE_LOOP('',(#189,#190,#191,#192));
#113=AXIS2_PLACEMENT_3D('',#193,#194,#195);
#114=EDGE_LOOP('',(#196,#197,#198,#199));
#115=AXIS2_PLACEMENT_3D('',#200,#201,#202);
#116=EDGE_LOOP('',(#203,#204,#205,#206));
#117=AXIS2_PLACEMENT_3D('',#207,#208,#209);
#118=EDGE_LOOP('',(#210,#211,#212,#213));
#119=AXIS2_PLACEMENT_3D('',#214,#215,#216);
#120=EDGE_LOOP('',(#217,#218,#219,#220));
#121=EDGE_LOOP('',(#221,#222));
#122=EDGE_LOOP('',(#223,#224));
#123=AXIS2_PLACEMENT_3D('',#225,#226,#227);
#124=EDGE_LOOP('',(#228,#229,#230,#231));
#125=AXIS2_PLACEMENT_3D('',#232,#233,#234);
#126=EDGE_LOOP('',(#235,#236,#237,#238));
#127=AXIS2_PLACEMENT_3D('',#239,#240,#241);
#128=EDGE_LOOP('',(#242,#243,#244,#245));
#129=EDGE_LOOP('',(#246,#247));
#130=EDGE_LOOP('',(#248,#249));
#131=AXIS2_PLACEMENT_3D('',#250,#251,#252);
#132=EDGE_LOOP('',(#253,#254,#255,#256));
#133=AXIS2_PLACEMENT_3D('',#257,#258,#259);
#134=EDGE_LOOP('',(#260,#261,#262,#263));
#135=AXIS2_PLACEMENT_3D('',#264,#265,#266);
#136=EDGE_LOOP('',(#267,#268,#269,#270));
#137=AXIS2_PLACEMENT_3D('',#271,#272,#273);
#138=EDGE_LOOP('',(#274,#275,#276,#277));
#139=AXIS2_PLACEMENT_3D('',#278,#279,#280);
#140=ORIENTED_EDGE('',*,*,#281,.F.);
#141=ORIENTED_EDGE('',*,*,#282,.F.);
#142=ORIENTED_EDGE('',*,*,#283,.F.);
#143=ORIENTED_EDGE('',*,*,#284,.T.);
#144=ORIENTED_EDGE('',*,*,#285,.F.);
#145=ORIENTED_EDGE('',*,*,#286,.F.);
#146=ORIENTED_EDGE('',*,*,#287,.F.);
#147=ORIENTED_EDGE('',*,*,#288,.F.);
#148=ORIENTED_EDGE('',*,*,#289,.F.);
#149=ORIENTED_EDGE('',*,*,#290,.T.);
#150=ORIENTED_EDGE('',*,*,#291,.F.);
#151=CARTESIAN_POINT('',(0.0,0.0,0.0));
#152=DIRECTION('',(1.0,0.0,0.0));
#153=DIRECTION('',(0.0,1.0,0.0));
#154=ORIENTED_EDGE('',*,*,#292,.F.);
#155=ORIENTED_EDGE('',*,*,#293,.F.);
#156=ORIENTED_EDGE('',*,*,#291,.T.);
#157=ORIENTED_EDGE('',*,*,#294,.T.);
#158=CARTESIAN_POINT('',(0.0,1.0,40.0));
#159=DIRECTION('',(0.0,-1.0,0.0));
#160=DIRECTION('',(0.0,0.0,-1.0));
#161=ORIENTED_EDGE('',*,*,#295,.F.);
#162=ORIENTED_EDGE('',*,*,#294,.F.);
#163=ORIENTED_EDGE('',*,*,#290,.F.);
#164=ORIENTED_EDGE('',*,*,#296,.T.);
#165=CARTESIAN_POINT('',(-1376.6016,0.0,1.414213562373));
#166=DIRECTION('',(-1.0,0.0,-0.0));
#167=DIRECTION('',(0.0,0.707106781186548,-0.707106781186548));
#168=ORIENTED_EDGE('',*,*,#289,.T.);
#169=ORIENTED_EDGE('',*,*,#297,.T.);
#170=ORIENTED_EDGE('',*,*,#298,.F.);
#171=ORIENTED_EDGE('',*,*,#296,.F.);
#172=CARTESIAN_POINT('',(0.0,1.0,1.0));
#173=DIRECTION('',(0.0,-0.707106781186548,0.707106781186548));
#174=DIRECTION('',(-1.0,0.0,0.0));
#175=ORIENTED_EDGE('',*,*,#299,.T.);
#176=ORIENTED_EDGE('',*,*,#300,.T.);
#177=ORIENTED_EDGE('',*,*,#301,.T.);
#178=ORIENTED_EDGE('',*,*,#302,.T.);
#179=ORIENTED_EDGE('',*,*,#303,.T.);
#180=ORIENTED_EDGE('',*,*,#304,.T.);
#181=ORIENTED_EDGE('',*,*,#305,.T.);
#182=ORIENTED_EDGE('',*,*,#306,.T.);
#183=ORIENTED_EDGE('',*,*,#292,.T.);
#184=ORIENTED_EDGE('',*,*,#295,.T.);
#185=ORIENTED_EDGE('',*,*,#298,.T.);
#186=CARTESIAN_POINT('',(1056.0,0.0,0.0));
#187=DIRECTION('',(1.0,0.0,0.0));
#188=DIRECTION('',(0.0,1.0,0.0));
#189=ORIENTED_EDGE('',*,*,#293,.T.);
#190=ORIENTED_EDGE('',*,*,#306,.F.);
#191=ORIENTED_EDGE('',*,*,#307,.F.);
#192=ORIENTED_EDGE('',*,*,#281,.T.);
#193=CARTESIAN_POINT('',(0.0,2.0,40.0));
#194=DIRECTION('',(0.0,0.0,1.0));
#195=DIRECTION('',(1.0,0.0,0.0));
#196=ORIENTED_EDGE('',*,*,#307,.T.);
#197=ORIENTED_EDGE('',*,*,#305,.F.);
#198=ORIENTED_EDGE('',*,*,#308,.F.);
#199=ORIENTED_EDGE('',*,*,#282,.T.);
#200=CARTESIAN_POINT('',(0.0,2.0,36.0));
#201=DIRECTION('',(-1.0,0.0,-0.0));
#202=DIRECTION('',(0.0,0.0,-1.0));
#203=ORIENTED_EDGE('',*,*,#283,.T.);
#204=ORIENTED_EDGE('',*,*,#308,.T.);
#205=ORIENTED_EDGE('',*,*,#304,.F.);
#206=ORIENTED_EDGE('',*,*,#309,.T.);
#207=CARTESIAN_POINT('',(0.0,6.0,-1.071067811865));
#208=DIRECTION('',(-0.0,1.0,0.0));
#209=DIRECTION('',(1.0,0.0,0.0));
#210=ORIENTED_EDGE('',*,*,#309,.F.);
#211=ORIENTED_EDGE('',*,*,#303,.F.);
#212=ORIENTED_EDGE('',*,*,#310,.T.);
#213=ORIENTED_EDGE('',*,*,#284,.F.);
#214=CARTESIAN_POINT('',(2437.180589171,2.0,0.5746834991991));
#215=DIRECTION('',(1.0,-0.0,0.0));
#216=DIRECTION('',(0.0,1.0,0.0));
#217=ORIENTED_EDGE('',*,*,#302,.F.);
#218=ORIENTED_EDGE('',*,*,#311,.F.);
#219=ORIENTED_EDGE('',*,*,#285,.T.);
#220=ORIENTED_EDGE('',*,*,#310,.F.);
#221=ORIENTED_EDGE('',*,*,#312,.F.);
#222=ORIENTED_EDGE('',*,*,#313,.F.);
#223=ORIENTED_EDGE('',*,*,#314,.F.);
#224=ORIENTED_EDGE('',*,*,#315,.F.);
#225=CARTESIAN_POINT('',(0.0,5.0,-18.0));
#226=DIRECTION('',(-0.0,1.0,0.0));
#227=DIRECTION('',(1.0,0.0,0.0));
#228=ORIENTED_EDGE('',*,*,#311,.T.);
#229=ORIENTED_EDGE('',*,*,#301,.F.);
#230=ORIENTED_EDGE('',*,*,#316,.F.);
#231=ORIENTED_EDGE('',*,*,#286,.T.);
#232=CARTESIAN_POINT('',(0.0,1.0,-18.0));
#233=DIRECTION('',(-1.0,0.0,-0.0));
#234=DIRECTION('',(0.0,0.0,-1.0));
#235=ORIENTED_EDGE('',*,*,#316,.T.);
#236=ORIENTED_EDGE('',*,*,#300,.F.);
#237=ORIENTED_EDGE('',*,*,#317,.F.);
#238=ORIENTED_EDGE('',*,*,#287,.T.);
#239=CARTESIAN_POINT('',(0.0,0.0,-22.0));
#240=DIRECTION('',(0.0,0.0,-1.0));
#241=DIRECTION('',(0.0,-1.0,0.0));
#242=ORIENTED_EDGE('',*,*,#317,.T.);
#243=ORIENTED_EDGE('',*,*,#299,.F.);
#244=ORIENTED_EDGE('',*,*,#297,.F.);
#245=ORIENTED_EDGE('',*,*,#288,.T.);
#246=ORIENTED_EDGE('',*,*,#318,.T.);
#247=ORIENTED_EDGE('',*,*,#319,.T.);
#248=ORIENTED_EDGE('',*,*,#320,.T.);
#249=ORIENTED_EDGE('',*,*,#321,.T.);
#250=CARTESIAN_POINT('',(0.0,0.0,0.0));
#251=DIRECTION('',(0.0,-1.0,0.0));
#252=DIRECTION('',(0.0,0.0,-1.0));
#253=ORIENTED_EDGE('',*,*,#322,.F.);
#254=ORIENTED_EDGE('',*,*,#313,.T.);
#255=ORIENTED_EDGE('',*,*,#323,.T.);
#256=ORIENTED_EDGE('',*,*,#319,.F.);
#257=CARTESIAN_POINT('',(113.5,5.0,-12.0));
#258=DIRECTION('',(0.0,-1.0,0.0));
#259=DIRECTION('',(0.0,0.0,1.0));
#260=ORIENTED_EDGE('',*,*,#323,.F.);
#261=ORIENTED_EDGE('',*,*,#312,.T.);
#262=ORIENTED_EDGE('',*,*,#322,.T.);
#263=ORIENTED_EDGE('',*,*,#318,.F.);
#264=CARTESIAN_POINT('',(113.5,5.0,-12.0));
#265=DIRECTION('',(0.0,-1.0,0.0));
#266=DIRECTION('',(0.0,0.0,1.0));
#267=ORIENTED_EDGE('',*,*,#324,.F.);
#268=ORIENTED_EDGE('',*,*,#315,.T.);
#269=ORIENTED_EDGE('',*,*,#325,.T.);
#270=ORIENTED_EDGE('',*,*,#321,.F.);
#271=CARTESIAN_POINT('',(942.5,5.0,-12.0));
#272=DIRECTION('',(0.0,-1.0,0.0));
#273=DIRECTION('',(0.0,0.0,1.0));
#274=ORIENTED_EDGE('',*,*,#325,.F.);
#275=ORIENTED_EDGE('',*,*,#314,.T.);
#276=ORIENTED_EDGE('',*,*,#324,.T.);
#277=ORIENTED_EDGE('',*,*,#320,.F.);
#278=CARTESIAN_POINT('',(942.5,5.0,-12.0));
#279=DIRECTION('',(0.0,-1.0,0.0));
#280=DIRECTION('',(0.0,0.0,1.0));
#281=EDGE_CURVE('',#326,#327,#328,.T.);
#282=EDGE_CURVE('',#329,#326,#330,.T.);
#283=EDGE_CURVE('',#331,#329,#332,.T.);
#284=EDGE_CURVE('',#331,#333,#334,.T.);
#285=EDGE_CURVE('',#335,#333,#336,.T.);
#286=EDGE_CURVE('',#337,#335,#338,.T.);
#287=EDGE_CURVE('',#339,#337,#340,.T.);
#288=EDGE_CURVE('',#341,#339,#342,.T.);
#289=EDGE_CURVE('',#343,#341,#344,.T.);
#290=EDGE_CURVE('',#343,#345,#346,.T.);
#291=EDGE_CURVE('',#327,#345,#347,.T.);
#292=EDGE_CURVE('',#348,#349,#350,.T.);
#293=EDGE_CURVE('',#327,#348,#351,.T.);
#294=EDGE_CURVE('',#345,#349,#352,.T.);
#295=EDGE_CURVE('',#349,#353,#354,.T.);
#296=EDGE_CURVE('',#343,#353,#355,.T.);
#297=EDGE_CURVE('',#341,#356,#357,.T.);
#298=EDGE_CURVE('',#353,#356,#358,.T.);
#299=EDGE_CURVE('',#356,#359,#360,.T.);
#300=EDGE_CURVE('',#359,#361,#362,.T.);
#301=EDGE_CURVE('',#361,#363,#364,.T.);
#302=EDGE_CURVE('',#363,#365,#366,.T.);
#303=EDGE_CURVE('',#365,#367,#368,.T.);
#304=EDGE_CURVE('',#367,#369,#370,.T.);
#305=EDGE_CURVE('',#369,#371,#372,.T.);
#306=EDGE_CURVE('',#371,#348,#373,.T.);
#307=EDGE_CURVE('',#326,#371,#374,.T.);
#308=EDGE_CURVE('',#329,#369,#375,.T.);
#309=EDGE_CURVE('',#367,#331,#376,.T.);
#310=EDGE_CURVE('',#365,#333,#377,.T.);
#311=EDGE_CURVE('',#335,#363,#378,.T.);
#312=EDGE_CURVE('',#379,#380,#381,.T.);
#313=EDGE_CURVE('',#380,#379,#382,.T.);
#314=EDGE_CURVE('',#383,#384,#385,.T.);
#315=EDGE_CURVE('',#384,#383,#386,.T.);
#316=EDGE_CURVE('',#337,#361,#387,.T.);
#317=EDGE_CURVE('',#339,#359,#388,.T.);
#318=EDGE_CURVE('',#389,#390,#391,.T.);
#319=EDGE_CURVE('',#390,#389,#392,.T.);
#320=EDGE_CURVE('',#393,#394,#395,.T.);
#321=EDGE_CURVE('',#394,#393,#396,.T.);
#322=EDGE_CURVE('',#380,#390,#397,.T.);
#323=EDGE_CURVE('',#379,#389,#398,.T.);
#324=EDGE_CURVE('',#384,#394,#399,.T.);
#325=EDGE_CURVE('',#383,#393,#400,.T.);
#326=VERTEX_POINT('',#401);
#327=VERTEX_POINT('',#402);
#328=LINE('',#403,#404);
#329=VERTEX_POINT('',#405);
#330=CIRCLE('',#406,4.0);
#331=VERTEX_POINT('',#407);
#332=LINE('',#408,#409);
#333=VERTEX_POINT('',#410);
#334=CIRCLE('',#411,4.0);
#335=VERTEX_POINT('',#412);
#336=LINE('',#413,#414);
#337=VERTEX_POINT('',#415);
#338=CIRCLE('',#416,4.0);
#339=VERTEX_POINT('',#417);
#340=LINE('',#418,#419);
#341=VERTEX_POINT('',#420);
#342=LINE('',#421,#422);
#343=VERTEX_POINT('',#423);
#344=LINE('',#424,#425);
#345=VERTEX_POINT('',#426);
#346=CIRCLE('',#427,1.0);
#347=LINE('',#428,#429);
#348=VERTEX_POINT('',#430);
#349=VERTEX_POINT('',#431);
#350=LINE('',#432,#433);
#351=LINE('',#434,#435);
#352=LINE('',#436,#437);
#353=VERTEX_POINT('',#438);
#354=CIRCLE('',#439,1.0);
#355=LINE('',#440,#441);
#356=VERTEX_POINT('',#442);
#357=LINE('',#443,#444);
#358=LINE('',#445,#446);
#359=VERTEX_POINT('',#447);
#360=LINE('',#448,#449);
#361=VERTEX_POINT('',#450);
#362=LINE('',#451,#452);
#363=VERTEX_POINT('',#453);
#364=CIRCLE('',#454,4.0);
#365=VERTEX_POINT('',#455);
#366=LINE('',#456,#457);
#367=VERTEX_POINT('',#458);
#368=CIRCLE('',#459,4.0);
#369=VERTEX_POINT('',#460);
#370=LINE('',#461,#462);
#371=VERTEX_POINT('',#463);
#372=CIRCLE('',#464,4.0);
#373=LINE('',#465,#466);
#374=LINE('',#467,#468);
#375=LINE('',#469,#470);
#376=LINE('',#471,#472);
#377=LINE('',#473,#474);
#378=LINE('',#475,#476);
#379=VERTEX_POINT('',#477);
#380=VERTEX_POINT('',#478);
#381=CIRCLE('',#479,2.25);
#382=CIRCLE('',#480,2.25);
#383=VERTEX_POINT('',#481);
#384=VERTEX_POINT('',#482);
#385=CIRCLE('',#483,2.25);
#386=CIRCLE('',#484,2.25);
#387=LINE('',#485,#486);
#388=LINE('',#487,#488);
#389=VERTEX_POINT('',#489);
#390=VERTEX_POINT('',#490);
#391=CIRCLE('',#491,2.25);
#392=CIRCLE('',#492,2.25);
#393=VERTEX_POINT('',#493);
#394=VERTEX_POINT('',#494);
#395=CIRCLE('',#495,2.25);
#396=CIRCLE('',#496,2.25);
#397=LINE('',#497,#498);
#398=LINE('',#499,#500);
#399=LINE('',#501,#502);
#400=LINE('',#503,#504);
#401=CARTESIAN_POINT('',(0.0,2.0,40.0));
#402=CARTESIAN_POINT('',(0.0,1.0,40.0));
#403=CARTESIAN_POINT('',(0.0,2.0,40.0));
#404=VECTOR('',#505,1.0);
#405=CARTESIAN_POINT('',(0.0,6.0,36.0));
#406=AXIS2_PLACEMENT_3D('',#506,#507,#508);
#407=CARTESIAN_POINT('',(0.0,6.0,0.5746834991991));
#408=CARTESIAN_POINT('',(0.0,6.0,0.5746834991991));
#409=VECTOR('',#509,35.4253165008);
#410=CARTESIAN_POINT('',(0.0,5.0,-2.071067811865));
#411=AXIS2_PLACEMENT_3D('',#510,#511,#512);
#412=CARTESIAN_POINT('',(0.0,5.0,-18.0));
#413=CARTESIAN_POINT('',(0.0,5.0,-18.0));
#414=VECTOR('',#513,15.92893218813);
#415=CARTESIAN_POINT('',(0.0,1.0,-22.0));
#416=AXIS2_PLACEMENT_3D('',#514,#515,#516);
#417=CARTESIAN_POINT('',(0.0,0.0,-22.0));
#418=CARTESIAN_POINT('',(0.0,0.0,-22.0));
#419=VECTOR('',#517,1.0);
#420=CARTESIAN_POINT('',(0.0,0.0,0.0));
#421=CARTESIAN_POINT('',(0.0,0.0,0.0));
#422=VECTOR('',#518,22.0);
#423=CARTESIAN_POINT('',(0.0,0.7071067811865,0.7071067811865));
#424=CARTESIAN_POINT('',(0.0,0.7071067811865,0.7071067811865));
#425=VECTOR('',#519,1.0);
#426=CARTESIAN_POINT('',(0.0,1.0,1.414213562373));
#427=AXIS2_PLACEMENT_3D('',#520,#521,#522);
#428=CARTESIAN_POINT('',(0.0,1.0,40.0));
#429=VECTOR('',#523,38.58578643763);
#430=CARTESIAN_POINT('',(1056.0,1.0,40.0));
#431=CARTESIAN_POINT('',(1056.0,1.0,1.414213562373));
#432=CARTESIAN_POINT('',(1056.0,1.0,40.0));
#433=VECTOR('',#524,38.58578643763);
#434=CARTESIAN_POINT('',(0.0,1.0,40.0));
#435=VECTOR('',#525,1056.0);
#436=CARTESIAN_POINT('',(0.0,1.0,1.414213562373));
#437=VECTOR('',#526,1056.0);
#438=CARTESIAN_POINT('',(1056.0,0.7071067811865,0.7071067811865));
#439=AXIS2_PLACEMENT_3D('',#527,#528,#529);
#440=CARTESIAN_POINT('',(0.0,0.7071067811865,0.7071067811865));
#441=VECTOR('',#530,1056.0);
#442=CARTESIAN_POINT('',(1056.0,0.0,0.0));
#443=CARTESIAN_POINT('',(0.0,0.0,0.0));
#444=VECTOR('',#531,1056.0);
#445=CARTESIAN_POINT('',(1056.0,0.7071067811865,0.7071067811865));
#446=VECTOR('',#532,1.0);
#447=CARTESIAN_POINT('',(1056.0,0.0,-22.0));
#448=CARTESIAN_POINT('',(1056.0,0.0,0.0));
#449=VECTOR('',#533,22.0);
#450=CARTESIAN_POINT('',(1056.0,1.0,-22.0));
#451=CARTESIAN_POINT('',(1056.0,0.0,-22.0));
#452=VECTOR('',#534,1.0);
#453=CARTESIAN_POINT('',(1056.0,5.0,-18.0));
#454=AXIS2_PLACEMENT_3D('',#535,#536,#537);
#455=CARTESIAN_POINT('',(1056.0,5.0,-2.071067811865));
#456=CARTESIAN_POINT('',(1056.0,5.0,-18.0));
#457=VECTOR('',#538,15.92893218813);
#458=CARTESIAN_POINT('',(1056.0,6.0,0.5746834991991));
#459=AXIS2_PLACEMENT_3D('',#539,#540,#541);
#460=CARTESIAN_POINT('',(1056.0,6.0,36.0));
#461=CARTESIAN_POINT('',(1056.0,6.0,0.5746834991991));
#462=VECTOR('',#542,35.4253165008);
#463=CARTESIAN_POINT('',(1056.0,2.0,40.0));
#464=AXIS2_PLACEMENT_3D('',#543,#544,#545);
#465=CARTESIAN_POINT('',(1056.0,2.0,40.0));
#466=VECTOR('',#546,1.0);
#467=CARTESIAN_POINT('',(0.0,2.0,40.0));
#468=VECTOR('',#547,1056.0);
#469=CARTESIAN_POINT('',(0.0,6.0,36.0));
#470=VECTOR('',#548,1056.0);
#471=CARTESIAN_POINT('',(1056.0,6.0,0.5746834991991));
#472=VECTOR('',#549,1056.0);
#473=CARTESIAN_POINT('',(1056.0,5.0,-2.071067811865));
#474=VECTOR('',#550,1056.0);
#475=CARTESIAN_POINT('',(0.0,5.0,-18.0));
#476=VECTOR('',#551,1056.0);
#477=CARTESIAN_POINT('',(113.5,5.0,-14.25));
#478=CARTESIAN_POINT('',(113.5,5.0,-9.75));
#479=AXIS2_PLACEMENT_3D('',#552,#553,#554);
#480=AXIS2_PLACEMENT_3D('',#555,#556,#557);
#481=CARTESIAN_POINT('',(942.5,5.0,-14.25));
#482=CARTESIAN_POINT('',(942.5,5.0,-9.75));
#483=AXIS2_PLACEMENT_3D('',#558,#559,#560);
#484=AXIS2_PLACEMENT_3D('',#561,#562,#563);
#485=CARTESIAN_POINT('',(0.0,1.0,-22.0));
#486=VECTOR('',#564,1056.0);
#487=CARTESIAN_POINT('',(0.0,0.0,-22.0));
#488=VECTOR('',#565,1056.0);
#489=CARTESIAN_POINT('',(113.5,0.0,-14.25));
#490=CARTESIAN_POINT('',(113.5,0.0,-9.75));
#491=AXIS2_PLACEMENT_3D('',#566,#567,#568);
#492=AXIS2_PLACEMENT_3D('',#569,#570,#571);
#493=CARTESIAN_POINT('',(942.5,0.0,-14.25));
#494=CARTESIAN_POINT('',(942.5,0.0,-9.75));
#495=AXIS2_PLACEMENT_3D('',#572,#573,#574);
#496=AXIS2_PLACEMENT_3D('',#575,#576,#577);
#497=CARTESIAN_POINT('',(113.5,5.0,-9.75));
#498=VECTOR('',#578,5.0);
#499=CARTESIAN_POINT('',(113.5,5.0,-14.25));
#500=VECTOR('',#579,5.0);
#501=CARTESIAN_POINT('',(942.5,5.0,-9.75));
#502=VECTOR('',#580,5.0);
#503=CARTESIAN_POINT('',(942.5,5.0,-14.25));
#504=VECTOR('',#581,5.0);
#505=DIRECTION('',(0.0,-1.0,0.0));
#506=CARTESIAN_POINT('',(0.0,2.0,36.0));
#507=DIRECTION('',(1.0,0.0,0.0));
#508=DIRECTION('',(0.0,1.0,0.0));
#509=DIRECTION('',(0.0,0.0,1.0));
#510=CARTESIAN_POINT('',(0.0,2.0,0.5746834991991));
#511=DIRECTION('',(-1.0,0.0,0.0));
#512=DIRECTION('',(0.0,1.0,0.0));
#513=DIRECTION('',(0.0,0.0,1.0));
#514=CARTESIAN_POINT('',(0.0,1.0,-18.0));
#515=DIRECTION('',(1.0,0.0,0.0));
#516=DIRECTION('',(0.0,0.0,-1.0));
#517=DIRECTION('',(0.0,1.0,0.0));
#518=DIRECTION('',(0.0,0.0,-1.0));
#519=DIRECTION('',(0.0,-0.707106781186548,-0.707106781186548));
#520=CARTESIAN_POINT('',(0.0,0.0,1.414213562373));
#521=DIRECTION('',(1.0,0.0,0.0));
#522=DIRECTION('',(0.0,0.707106781186548,-0.707106781186548));
#523=DIRECTION('',(0.0,0.0,-1.0));
#524=DIRECTION('',(0.0,0.0,-1.0));
#525=DIRECTION('',(1.0,0.0,0.0));
#526=DIRECTION('',(1.0,0.0,0.0));
#527=CARTESIAN_POINT('',(1056.0,0.0,1.414213562373));
#528=DIRECTION('',(-1.0,0.0,0.0));
#529=DIRECTION('',(0.0,1.0,0.0));
#530=DIRECTION('',(1.0,0.0,0.0));
#531=DIRECTION('',(1.0,0.0,0.0));
#532=DIRECTION('',(0.0,-0.707106781186548,-0.707106781186548));
#533=DIRECTION('',(0.0,0.0,-1.0));
#534=DIRECTION('',(0.0,1.0,0.0));
#535=CARTESIAN_POINT('',(1056.0,1.0,-18.0));
#536=DIRECTION('',(1.0,0.0,0.0));
#537=DIRECTION('',(0.0,0.0,-1.0));
#538=DIRECTION('',(0.0,0.0,1.0));
#539=CARTESIAN_POINT('',(1056.0,2.0,0.5746834991991));
#540=DIRECTION('',(1.0,0.0,0.0));
#541=DIRECTION('',(0.0,0.750000000000024,-0.661437827766121));
#542=DIRECTION('',(0.0,0.0,1.0));
#543=CARTESIAN_POINT('',(1056.0,2.0,36.0));
#544=DIRECTION('',(1.0,0.0,0.0));
#545=DIRECTION('',(0.0,1.0,0.0));
#546=DIRECTION('',(0.0,-1.0,0.0));
#547=DIRECTION('',(1.0,0.0,0.0));
#548=DIRECTION('',(1.0,0.0,0.0));
#549=DIRECTION('',(-1.0,0.0,0.0));
#550=DIRECTION('',(-1.0,0.0,0.0));
#551=DIRECTION('',(1.0,0.0,0.0));
#552=CARTESIAN_POINT('',(113.5,5.0,-12.0));
#553=DIRECTION('',(0.0,1.0,0.0));
#554=DIRECTION('',(0.0,0.0,-1.0));
#555=CARTESIAN_POINT('',(113.5,5.0,-12.0));
#556=DIRECTION('',(0.0,1.0,0.0));
#557=DIRECTION('',(0.0,0.0,1.0));
#558=CARTESIAN_POINT('',(942.5,5.0,-12.0));
#559=DIRECTION('',(0.0,1.0,0.0));
#560=DIRECTION('',(0.0,0.0,-1.0));
#561=CARTESIAN_POINT('',(942.5,5.0,-12.0));
#562=DIRECTION('',(0.0,1.0,0.0));
#563=DIRECTION('',(0.0,0.0,1.0));
#564=DIRECTION('',(1.0,0.0,0.0));
#565=DIRECTION('',(1.0,0.0,0.0));
#566=CARTESIAN_POINT('',(113.5,0.0,-12.0));
#567=DIRECTION('',(0.0,1.0,0.0));
#568=DIRECTION('',(0.0,0.0,-1.0));
#569=CARTESIAN_POINT('',(113.5,0.0,-12.0));
#570=DIRECTION('',(0.0,1.0,0.0));
#571=DIRECTION('',(0.0,0.0,1.0));
#572=CARTESIAN_POINT('',(942.5,0.0,-12.0));
#573=DIRECTION('',(0.0,1.0,0.0));
#574=DIRECTION('',(0.0,0.0,-1.0));
#575=CARTESIAN_POINT('',(942.5,0.0,-12.0));
#576=DIRECTION('',(0.0,1.0,0.0));
#577=DIRECTION('',(0.0,0.0,1.0));
#578=DIRECTION('',(0.0,-1.0,0.0));
#579=DIRECTION('',(0.0,-1.0,0.0));
#580=DIRECTION('',(0.0,-1.0,0.0));
#581=DIRECTION('',(0.0,-1.0,0.0));
ENDSEC;
END-ISO-10303-21;
