999
DXF file: C:\Users\sesa63760\Dev\_Creo\CAD\MCADPP0003179_3D-CAD\drw0001_4.dxf
999
Pro/ENGINEER 2019471 by Parametric Technology Corporation
  0
SECTION
  2
HEADER
  9
$ACADVER
  1
AC1024
  9
$DWGCODEPAGE
  3
ANSI_1252
  9
$EXTMAX
 10
543.4181812972
 20
768.5485706918
 30
0.0
  9
$EXTMIN
 10
0.0
 20
0.0
 30
0.0
  9
$LIMMIN
 10
0.0
 20
0.0
  9
$LIMMAX
 10
543.4181812972
 20
768.5485706918
  9
$VIEWCTR
 10
271.7090906486
 20
384.2742853459
  9
$VIEWSIZE
 40
768.5485706918
  9
$CLAYER
  8
0
  9
$LTSCALE
 40
50.0979809044
  9
$CELTYPE
  6
BYLAYER
  9
$DIMSCALE
 40
1.0
  9
$DIMASZ
 40
6.4692640631
  9
$DIMEXO
 40
1.0
  9
$DIMDLI
 40
34.613150443
  9
$DIMEXE
 40
1.0
  9
$DIMCEN
 40
8.1978514207
  9
$DIMLFAC
 40
1.0
  9
$DIMBLK
  1
_FILLED
  9
$DIMALT
 70
0
  9
$DIMALTF
 40
0.0393700787
  9
$DIMTXT
 40
9.0569696883
  9
$DIMTOL
 70
1
  9
$DIMLIM
 70
0
  9
$DIMTFAC
 40
1.0
  9
$DIMTP
 40
0.01
  9
$DIMTM
 40
0.01
  9
$DIMGAP
 40
0.625
  9
$DIMDSEP
 70
46
  9
$AUNITS
 70
0
  9
$PDMODE
 70
3
  9
$PDSIZE
 40
0.3125
  9
$HANDSEED
  5
43C
  9
$TILEMODE
 70
1
  9
$MEASUREMENT
 70
1
  9
$INSUNITS
 70
4
  0
ENDSEC
  0
SECTION
  2
CLASSES
  0
CLASS
  1
ACDBDICTIONARYWDFLT
  2
AcDbDictionaryWithDefault
  3
AutoCAD 2000
 90
0
 91
1
280
0
281
0
  0
CLASS
  1
ACDBPLACEHOLDER
  2
AcDbPlaceHolder
  3
AutoCAD 2000
 90
0
 91
1
280
0
281
0
  0
CLASS
  1
LAYOUT
  2
AcDbLayout
  3
AutoCAD 2000
 90
0
 91
0
280
0
281
0
  0
ENDSEC
  0
SECTION
  2
TABLES
  0
TABLE
  2
VPORT
  5
8
100
AcDbSymbolTable
 70
2
  0
VPORT
  5
1F4
100
AcDbSymbolTableRecord
100
AcDbViewportTableRecord
  2
*ACTIVE
 70
0
 10
0.0
 20
0.0
 11
1.0
 21
1.0
 12
271.7090906486
 22
384.2742853459
 13
0.0
 23
0.0
 14
1.0
 24
1.0
 15
0.0
 25
0.0
 16
0.0
 26
0.0
 36
1.0
 17
0.0
 27
0.0
 37
0.0
 40
768.5485706918
 41
0.7070707071
 42
50.0
 43
0.0
 44
0.0
 50
0.0
 51
0.0
 71
0
 72
100
 73
1
 74
1
 75
0
 76
0
 77
0
 78
0
  0
ENDTAB
  0
TABLE
  2
LTYPE
  5
5
100
AcDbSymbolTable
 70
6
  0
LTYPE
  5
14
100
AcDbSymbolTableRecord
100
AcDbLinetypeTableRecord
  2
BYBLOCK
 70
0
  3

 72
65
 73
0
 40
0.0
  0
LTYPE
  5
15
100
AcDbSymbolTableRecord
100
AcDbLinetypeTableRecord
  2
BYLAYER
 70
0
  3

 72
65
 73
0
 40
0.0
  0
LTYPE
  5
16
100
AcDbSymbolTableRecord
100
AcDbLinetypeTableRecord
  2
CONTINUOUS
 70
64
  3
Solid line
 72
65
 73
0
 40
0.0
  0
LTYPE
  5
1F5
100
AcDbSymbolTableRecord
100
AcDbLinetypeTableRecord
  2
CENTER
 70
64
  3
____ _ ____ _ ____ _ ____ _ ____ _ ____ _ ____
 72
65
 73
4
 40
0.6
 49
0.375
 74
0
 49
-0.075
 74
0
 49
0.075
 74
0
 49
-0.075
 74
0
  0
LTYPE
  5
1F6
100
AcDbSymbolTableRecord
100
AcDbLinetypeTableRecord
  2
HIDDEN
 70
64
  3
- - - - - - - - - - - - - - - - - - - -
 72
65
 73
2
 40
0.2
 49
0.1
 74
0
 49
-0.1
 74
0
  0
LTYPE
  5
1F7
100
AcDbSymbolTableRecord
100
AcDbLinetypeTableRecord
  2
PHANTOM
 70
64
  3
_____ _ _ _____ _ _ _____ _ _ _____
 72
65
 73
6
 40
0.8
 49
0.45
 74
0
 49
-0.05
 74
0
 49
0.1
 74
0
 49
-0.05
 74
0
 49
0.1
 74
0
 49
-0.05
 74
0
  0
LTYPE
  5
1F8
100
AcDbSymbolTableRecord
100
AcDbLinetypeTableRecord
  2
DOT
 70
64
  3
. . . . . . . . . . . . . . . . . . . .
 72
65
 73
2
 40
0.2
 49
0.1
 74
0
 49
-0.1
 74
0
  0
LTYPE
  5
1F9
100
AcDbSymbolTableRecord
100
AcDbLinetypeTableRecord
  2
DASHED
 70
64
  3
- - - - - - - - - - - - - - - - - - - -
 72
65
 73
2
 40
0.2
 49
0.1
 74
0
 49
-0.1
 74
0
  0
ENDTAB
  0
TABLE
  2
LAYER
  5
2
100
AcDbSymbolTable
 70
36
  0
LAYER
  5
10
100
AcDbSymbolTableRecord
100
AcDbLayerTableRecord
  2
0
 70
0
 62
7
  6
CONTINUOUS
370
-3
390
F
  0
LAYER
  5
1FA
100
AcDbSymbolTableRecord
100
AcDbLayerTableRecord
  2
DEFAULT_1
 70
0
 62
7
  6
CENTER
370
-3
390
F
  0
LAYER
  5
1FB
100
AcDbSymbolTableRecord
100
AcDbLayerTableRecord
  2
DEFAULT_2
 70
0
 62
8
  6
HIDDEN
370
-3
390
F
  0
LAYER
  5
1FC
100
AcDbSymbolTableRecord
100
AcDbLayerTableRecord
  2
DEFAULT_3
 70
0
 62
7
  6
PHANTOM
370
-3
390
F
  0
LAYER
  5
1FD
100
AcDbSymbolTableRecord
100
AcDbLayerTableRecord
  2
00_COMPONENTS
 70
0
 62
7
  6
CONTINUOUS
370
-3
390
F
  0
LAYER
  5
1FE
100
AcDbSymbolTableRecord
100
AcDbLayerTableRecord
  2
01_1_DEFAULT_DATUMS
 70
0
 62
7
  6
CONTINUOUS
370
-3
390
F
  0
LAYER
  5
1FF
100
AcDbSymbolTableRecord
100
AcDbLayerTableRecord
  2
01_PLANES
 70
0
 62
7
  6
CONTINUOUS
370
-3
390
F
  0
LAYER
  5
200
100
AcDbSymbolTableRecord
100
AcDbLayerTableRecord
  2
02_COORD_SYS
 70
0
 62
7
  6
CONTINUOUS
370
-3
390
F
  0
LAYER
  5
201
100
AcDbSymbolTableRecord
100
AcDbLayerTableRecord
  2
03_AXES
 70
0
 62
7
  6
CONTINUOUS
370
-3
390
F
  0
LAYER
  5
202
100
AcDbSymbolTableRecord
100
AcDbLayerTableRecord
  2
04_POINTS
 70
0
 62
7
  6
CONTINUOUS
370
-3
390
F
  0
LAYER
  5
203
100
AcDbSymbolTableRecord
100
AcDbLayerTableRecord
  2
05_CURVES
 70
0
 62
7
  6
CONTINUOUS
370
-3
390
F
  0
LAYER
  5
204
100
AcDbSymbolTableRecord
100
AcDbLayerTableRecord
  2
06_SURFS
 70
0
 62
7
  6
CONTINUOUS
370
-3
390
F
  0
LAYER
  5
205
100
AcDbSymbolTableRecord
100
AcDbLayerTableRecord
  2
07_COSMETICS
 70
0
 62
7
  6
CONTINUOUS
370
-3
390
F
  0
LAYER
  5
206
100
AcDbSymbolTableRecord
100
AcDbLayerTableRecord
  2
10_NOTES
 70
0
 62
7
  6
CONTINUOUS
370
-3
390
F
  0
LAYER
  5
207
100
AcDbSymbolTableRecord
100
AcDbLayerTableRecord
  2
11_NOTES_PUB
 70
0
 62
7
  6
CONTINUOUS
370
-3
390
F
  0
LAYER
  5
208
100
AcDbSymbolTableRecord
100
AcDbLayerTableRecord
  2
13_REF_GTOL
 70
0
 62
7
  6
CONTINUOUS
370
-3
390
F
  0
LAYER
  5
209
100
AcDbSymbolTableRecord
100
AcDbLayerTableRecord
  2
16_MISC
 70
0
 62
7
  6
CONTINUOUS
370
-3
390
F
  0
LAYER
  5
20A
100
AcDbSymbolTableRecord
100
AcDbLayerTableRecord
  2
17_NO_PRINT
 70
0
 62
7
  6
CONTINUOUS
370
-3
390
F
  0
LAYER
  5
20B
100
AcDbSymbolTableRecord
100
AcDbLayerTableRecord
  2
18_DATUM_CAMS_JOINTS
 70
0
 62
7
  6
CONTINUOUS
370
-3
390
F
  0
LAYER
  5
20C
100
AcDbSymbolTableRecord
100
AcDbLayerTableRecord
  2
19_DATUM_FUNCTIONAL
 70
0
 62
7
  6
CONTINUOUS
370
-3
390
F
  0
LAYER
  5
20D
100
AcDbSymbolTableRecord
100
AcDbLayerTableRecord
  2
20_DATUM_KINEMATIC_SCHEME
 70
0
 62
7
  6
CONTINUOUS
370
-3
390
F
  0
ENDTAB
  0
TABLE
  2
STYLE
  5
3
100
AcDbSymbolTable
 70
1
  0
STYLE
  5
11
100
AcDbSymbolTableRecord
100
AcDbTextStyleTableRecord
  2
STANDARD
 70
0
 40
0.0
 41
0.8
 50
0.0
 71
0
 42
0.2
  3
txt
  4

  0
STYLE
  5
20E
100
AcDbSymbolTableRecord
100
AcDbTextStyleTableRecord
  2
TEXTSTYLE_1
 70
0
 40
0.0
 41
0.8
 50
0.0
 71
0
 42
0.2
  3
gdt
  4

  0
ENDTAB
  0
TABLE
  2
VIEW
  5
6
100
AcDbSymbolTable
 70
0
  0
ENDTAB
  0
TABLE
  2
UCS
  5
7
100
AcDbSymbolTable
 70
0
  0
ENDTAB
  0
TABLE
  2
APPID
  5
9
100
AcDbSymbolTable
 70
1
  0
APPID
  5
20F
100
AcDbSymbolTableRecord
100
AcDbRegAppTableRecord
  2
ACAD
 70
0
  0
ENDTAB
  0
TABLE
  2
BLOCK_RECORD
  5
1
100
AcDbSymbolTable
 70
0
  0
BLOCK_RECORD
  5
210
100
AcDbSymbolTableRecord
100
AcDbBlockTableRecord
  2
*Model_Space
  0
BLOCK_RECORD
  5
211
100
AcDbSymbolTableRecord
100
AcDbBlockTableRecord
  2
*Paper_Space
  0
BLOCK_RECORD
  5
212
100
AcDbSymbolTableRecord
100
AcDbBlockTableRecord
  2
_FILLED
  0
ENDTAB
  0
TABLE
  2
DIMSTYLE
  5
A
100
AcDbSymbolTable
 70
1
100
AcDbDimStyleTable
 71
0
  0
DIMSTYLE
105
213
100
AcDbSymbolTableRecord
100
AcDbDimStyleTableRecord
  2
STANDARD
 70
0
  3

  4

 40
1.0
 41
6.4692640631
 42
1.0
 43
0.38
 44
1.0
 45
0.0
 46
0.0
 47
0.01
 48
0.01
140
9.0569696883
141
0.09
142
0.0
143
25.4
144
1.0
145
0.0
146
1.0
147
0.625
 71
1
 72
0
 73
0
 74
0
 75
0
 76
0
 77
1
 78
8
 79
2
170
0
171
1
172
0
173
0
174
0
175
0
176
0
177
0
178
0
270
2
179
2
271
2
272
2
273
2
274
2
275
0
280
0
281
0
282
0
283
1
284
8
285
0
286
0
287
3
288
0
340
11
278
46
341
212
342
212
343
212
344
212
  0
ENDTAB
  0
ENDSEC
  0
SECTION
  2
BLOCKS
  0
BLOCK
  5
20
100
AcDbEntity
  8
0
100
AcDbBlockBegin
  2
*Model_Space
 70
0
 10
0.0
 20
0.0
 30
0.0
  3
*Model_Space
  1

  0
ENDBLK
  5
21
100
AcDbEntity
  8
0
100
AcDbBlockEnd
  0
BLOCK
  5
1C
100
AcDbEntity
  8
0
100
AcDbBlockBegin
  2
*Paper_Space
 70
0
 10
0.0
 20
0.0
 30
0.0
  3
*Paper_Space
  1

  0
ENDBLK
  5
1D
100
AcDbEntity
  8
0
100
AcDbBlockEnd
  0
BLOCK
  5
214
100
AcDbEntity
  8
0
100
AcDbBlockBegin
  2
_FILLED
 70
64
 10
0.0
 20
0.0
  3
_FILLED
  1

  0
SOLID
  5
215
100
AcDbEntity
  8
0
  6
BYBLOCK
 62
0
100
AcDbTrace
 10
0.0
 20
0.0
 11
-1.0
 21
0.25
 12
-1.0
 22
-0.25
 13
-1.0
 23
-0.25
  0
ENDBLK
  5
216
100
AcDbEntity
  8
0
  6
BYBLOCK
 62
0
100
AcDbBlockEnd
  0
ENDSEC
  0
SECTION
  2
ENTITIES
  0
LINE
  5
217
100
AcDbEntity
  8
0
100
AcDbLine
 62
7
  6
CONTINUOUS
 10
68.2490474699
 20
449.1484733117
 11
68.4174530644
 21
444.3259680529
  0
LINE
  5
218
100
AcDbEntity
  8
0
100
AcDbLine
 62
7
  6
CONTINUOUS
 10
68.9839801753
 20
449.9368799746
 11
69.2055919794
 21
443.590748223
  0
LINE
  5
219
100
AcDbEntity
  8
0
100
AcDbLine
 62
7
  6
CONTINUOUS
 10
60.5228554952
 20
375.1915455335
 11
60.5228554952
 21
280.3225455335
  0
LINE
  5
21A
100
AcDbEntity
  8
0
100
AcDbLine
 62
7
  6
CONTINUOUS
 10
60.5228554952
 20
422.2234281379
 11
60.5228554952
 21
483.5225455335
  0
LINE
  5
21B
100
AcDbEntity
  8
0
100
AcDbLine
 62
7
  6
CONTINUOUS
 10
78.8516103353
 20
452.6641666902
 11
79.249955842
 21
453.413345627
  0
LINE
  5
21C
100
AcDbEntity
  8
0
100
AcDbLine
 62
7
  6
CONTINUOUS
 10
79.3177147974
 20
453.5364918667
 11
79.249988283
 21
453.4133426538
  0
LINE
  5
21D
100
AcDbEntity
  8
0
100
AcDbLine
 62
7
  6
CONTINUOUS
 10
78.8516112328
 20
452.6641409875
 11
79.2394300948
 21
441.5584618277
  0
LINE
  5
21E
100
AcDbEntity
  8
0
100
AcDbLine
 62
7
  6
CONTINUOUS
 10
83.1994163078
 20
441.6967475934
 11
82.8115974458
 21
452.8024267532
  0
LINE
  5
21F
100
AcDbEntity
  8
0
100
AcDbLine
 62
7
  6
CONTINUOUS
 10
83.1994172054
 20
441.6967218907
 11
82.8010716987
 21
440.9475429539
  0
LINE
  5
220
100
AcDbEntity
  8
0
100
AcDbLine
 62
7
  6
CONTINUOUS
 10
82.8010417412
 20
440.9475456994
 11
82.7333127432
 21
440.8243967141
  0
LINE
  5
221
100
AcDbEntity
  8
0
100
AcDbLine
 62
7
  6
CONTINUOUS
 10
68.2490377816
 20
449.1487507479
 11
68.9839801753
 21
449.9368799746
  0
LINE
  5
222
100
AcDbEntity
  8
0
100
AcDbLine
 62
7
  6
CONTINUOUS
 10
92.9862646871
 20
387.8915455335
 11
92.9862646871
 21
407.2817212223
  0
LINE
  5
223
100
AcDbEntity
  8
0
100
AcDbLine
 62
7
  6
CONTINUOUS
 10
92.9862646871
 20
410.7040692026
 11
92.9862646871
 21
460.3831455335
  0
LINE
  5
224
100
AcDbEntity
  8
0
100
AcDbLine
 62
7
  6
CONTINUOUS
 10
91.8046541216
 20
407.4059134972
 11
92.1604271991
 21
410.7908682202
  0
LINE
  5
225
100
AcDbEntity
  8
0
100
AcDbLine
 62
7
  6
CONTINUOUS
 10
99.3829109643
 20
406.6094066071
 11
99.7386840418
 21
409.9943613301
  0
LINE
  5
226
100
AcDbEntity
  8
0
100
AcDbLine
 62
7
  6
CONTINUOUS
 10
100.7920983672
 20
412.3435317438
 11
102.8975119873
 21
417.8283217422
  0
LINE
  5
227
100
AcDbEntity
  8
0
100
AcDbLine
 62
7
  6
CONTINUOUS
 10
109.4727342957
 20
317.7072895542
 11
103.0358722696
 21
332.1647183735
  0
LINE
  5
228
100
AcDbEntity
  8
0
100
AcDbLine
 62
7
  6
CONTINUOUS
 10
119.5354474043
 20
428.5892445387
 11
119.9715041069
 21
429.483293271
  0
LINE
  5
229
100
AcDbEntity
  8
0
100
AcDbLine
 62
7
  6
CONTINUOUS
 10
122.3199339593
 20
429.8289778268
 11
122.7559906618
 21
430.7230265591
  0
LINE
  5
22A
100
AcDbEntity
  8
0
100
AcDbLine
 62
7
  6
CONTINUOUS
 10
60.5228554952
 20
375.1915455335
 11
73.2228554952
 21
387.8915455335
  0
LINE
  5
22B
100
AcDbEntity
  8
0
100
AcDbLine
 62
7
  6
CONTINUOUS
 10
84.1093501189
 20
387.8915455335
 11
61.7469319218
 21
418.475441009
  0
LINE
  5
22C
100
AcDbEntity
  8
0
100
AcDbLine
 62
7
  6
CONTINUOUS
 10
120.9915654075
 20
362.4021172024
 11
100.0194106173
 21
409.5063480893
  0
LINE
  5
22D
100
AcDbEntity
  8
0
100
AcDbLine
 62
7
  6
CONTINUOUS
 10
102.3309300461
 20
410.5355028457
 11
101.4011300801
 21
412.6238677619
  0
LINE
  5
22E
100
AcDbEntity
  8
0
100
AcDbLine
 62
7
  6
CONTINUOUS
 10
102.3398160797
 20
410.5394591627
 11
101.4100161136
 21
412.6278240789
  0
LINE
  5
22F
100
AcDbEntity
  8
0
100
AcDbLine
 62
7
  6
CONTINUOUS
 10
96.0550679579
 20
437.769371411
 11
102.7702899351
 21
422.6867359053
  0
LINE
  5
230
100
AcDbEntity
  8
0
100
AcDbLine
 62
7
  6
CONTINUOUS
 10
138.5770554952
 20
459.9513455335
 11
138.5770554952
 21
458.7499343305
  0
LINE
  5
231
100
AcDbEntity
  8
0
100
AcDbLine
 62
7
  6
CONTINUOUS
 10
141.2440554952
 20
453.6759925869
 11
141.2440554952
 21
459.9513455335
  0
LINE
  5
232
100
AcDbEntity
  8
0
100
AcDbLine
 62
7
  6
CONTINUOUS
 10
141.7520554952
 20
459.9513455335
 11
141.7520554952
 21
452.5350059058
  0
LINE
  5
233
100
AcDbEntity
  8
0
100
AcDbLine
 62
7
  6
CONTINUOUS
 10
142.3870554952
 20
451.1087725544
 11
142.3870554952
 21
451.6963455335
  0
LINE
  5
234
100
AcDbEntity
  8
0
100
AcDbLine
 62
7
  6
CONTINUOUS
 10
154.5464932676
 20
450.8860433545
 11
153.9595675231
 21
446.0958665132
  0
LINE
  5
235
100
AcDbEntity
  8
0
100
AcDbLine
 62
7
  6
CONTINUOUS
 10
155.3955094653
 20
451.5497145803
 11
154.6232387489
 21
445.2468503155
  0
LINE
  5
236
100
AcDbEntity
  8
0
100
AcDbLine
 62
7
  6
CONTINUOUS
 10
155.3955094653
 20
451.5497145803
 11
154.5464932676
 21
450.8860433545
  0
LINE
  5
237
100
AcDbEntity
  8
0
100
AcDbLine
 62
7
  6
CONTINUOUS
 10
131.2948993117
 20
460.4100955636
 11
99.2733039304
 21
446.1531627505
  0
LINE
  5
238
100
AcDbEntity
  8
0
100
AcDbLine
 62
7
  6
CONTINUOUS
 10
79.7652503757
 20
440.7207496924
 11
79.6890983848
 21
440.8388745571
  0
LINE
  5
239
100
AcDbEntity
  8
0
100
AcDbLine
 62
7
  6
CONTINUOUS
 10
82.3619316174
 20
453.522014424
 11
82.2857771649
 21
453.6401388885
  0
LINE
  5
23A
100
AcDbEntity
  8
0
100
AcDbLine
 62
7
  6
CONTINUOUS
 10
79.2394309924
 20
441.5584361249
 11
79.6890662303
 21
440.8388693283
  0
LINE
  5
23B
100
AcDbEntity
  8
0
100
AcDbLine
 62
7
  6
CONTINUOUS
 10
82.8115965482
 20
452.8024524559
 11
82.3619613104
 21
453.5220192526
  0
LINE
  5
23C
100
AcDbEntity
  8
0
100
AcDbLine
 62
7
  6
CONTINUOUS
 10
118.8146948628
 20
417.874547784
 11
117.8848948968
 21
419.9629127002
  0
LINE
  5
23D
100
AcDbEntity
  8
0
100
AcDbLine
 62
7
  6
CONTINUOUS
 10
117.2229248208
 20
422.1705231662
 11
114.53683603
 21
428.2035773685
  0
LINE
  5
23E
100
AcDbEntity
  8
0
100
AcDbLine
 62
7
  6
CONTINUOUS
 10
115.1426316946
 20
428.4732949758
 11
117.8287204854
 21
422.4402407735
  0
LINE
  5
23F
100
AcDbEntity
  8
0
100
AcDbLine
 62
7
  6
CONTINUOUS
 10
119.4511685839
 20
420.6602626747
 11
118.7796463861
 21
422.1685262253
  0
LINE
  5
240
100
AcDbEntity
  8
0
100
AcDbLine
 62
7
  6
CONTINUOUS
 10
117.2300773659
 20
429.4026856677
 11
119.9161661568
 21
423.3696314654
  0
LINE
  5
241
100
AcDbEntity
  8
0
100
AcDbLine
 62
7
  6
CONTINUOUS
 10
122.2356551388
 20
421.8999959628
 11
121.5641329411
 21
423.4082595134
  0
LINE
  5
242
100
AcDbEntity
  8
0
100
AcDbLine
 62
7
  6
CONTINUOUS
 10
119.5354474043
 20
428.5892445387
 11
121.7961734873
 21
423.5115706207
  0
LINE
  5
243
100
AcDbEntity
  8
0
100
AcDbLine
 62
7
  6
CONTINUOUS
 10
158.3890554952
 20
451.6963455335
 11
158.3890554952
 21
451.1829245242
  0
LINE
  5
244
100
AcDbEntity
  8
0
100
AcDbLine
 62
7
  6
CONTINUOUS
 10
158.3890554952
 20
438.9963455335
 11
158.3890554952
 21
434.5266560227
  0
LINE
  5
245
100
AcDbEntity
  8
0
100
AcDbLine
 62
7
  6
CONTINUOUS
 10
159.0240554952
 20
439.6313455335
 11
159.0240554952
 21
444.7076316747
  0
LINE
  5
246
100
AcDbEntity
  8
0
100
AcDbLine
 62
7
  6
CONTINUOUS
 10
159.0240554952
 20
452.3313455335
 11
159.0240554952
 21
459.9513455335
  0
LINE
  5
247
100
AcDbEntity
  8
0
100
AcDbLine
 62
7
  6
CONTINUOUS
 10
159.5320554952
 20
459.9513455335
 11
159.5320554952
 21
452.3313455335
  0
LINE
  5
248
100
AcDbEntity
  8
0
100
AcDbLine
 62
7
  6
CONTINUOUS
 10
159.5320554952
 20
444.6453879856
 11
159.5320554952
 21
439.6313455335
  0
LINE
  5
249
100
AcDbEntity
  8
0
100
AcDbLine
 62
7
  6
CONTINUOUS
 10
161.3608554952
 20
343.8891189139
 11
161.3608554952
 21
345.133908247
  0
LINE
  5
24A
100
AcDbEntity
  8
0
100
AcDbLine
 62
7
  6
CONTINUOUS
 10
161.3608554952
 20
354.44918282
 11
161.3608554952
 21
355.6939721531
  0
LINE
  5
24B
100
AcDbEntity
  8
0
100
AcDbLine
 62
7
  6
CONTINUOUS
 10
161.8688554952
 20
461.2975455335
 11
161.8688554952
 21
480.8555455335
  0
LINE
  5
24C
100
AcDbEntity
  8
0
100
AcDbLine
 62
7
  6
CONTINUOUS
 10
162.1990554952
 20
439.6313455335
 11
162.1990554952
 21
444.3186086177
  0
LINE
  5
24D
100
AcDbEntity
  8
0
100
AcDbLine
 62
7
  6
CONTINUOUS
 10
162.1990554952
 20
452.3313455335
 11
162.1990554952
 21
459.9513455335
  0
LINE
  5
24E
100
AcDbEntity
  8
0
100
AcDbLine
 62
7
  6
CONTINUOUS
 10
165.5680021512
 20
452.7023681962
 11
164.2165283975
 21
441.6723557328
  0
LINE
  5
24F
100
AcDbEntity
  8
0
100
AcDbLine
 62
7
  6
CONTINUOUS
 10
168.1495156987
 20
441.1904588058
 11
169.5009894525
 21
452.2204712692
  0
LINE
  5
250
100
AcDbEntity
  8
0
100
AcDbLine
 62
7
  6
CONTINUOUS
 10
113.9582736358
 20
429.6142104828
 11
116.568906472
 21
430.7765391083
  0
LINE
  5
251
100
AcDbEntity
  8
0
100
AcDbLine
 62
7
  6
CONTINUOUS
 10
131.1489405888
 20
437.2679885298
 11
133.7595734249
 21
438.4303171553
  0
LINE
  5
252
100
AcDbEntity
  8
0
100
AcDbLine
 62
7
  6
CONTINUOUS
 10
122.3199339593
 20
429.8289778268
 11
124.5806600422
 21
424.7513039088
  0
LINE
  5
253
100
AcDbEntity
  8
0
100
AcDbLine
 62
7
  6
CONTINUOUS
 10
130.7894138971
 20
433.5998332447
 11
133.05013998
 21
428.5221593267
  0
LINE
  5
254
100
AcDbEntity
  8
0
100
AcDbLine
 62
7
  6
CONTINUOUS
 10
131.7275029829
 20
435.8573554155
 11
134.4135917738
 21
429.8243012133
  0
LINE
  5
255
100
AcDbEntity
  8
0
100
AcDbLine
 62
7
  6
CONTINUOUS
 10
135.0193874384
 20
430.0940188206
 11
132.3332986475
 21
436.1270730228
  0
LINE
  5
256
100
AcDbEntity
  8
0
100
AcDbLine
 62
7
  6
CONTINUOUS
 10
136.5671342386
 20
428.2807815609
 11
137.4969342046
 21
426.1924166448
  0
LINE
  5
257
100
AcDbEntity
  8
0
100
AcDbLine
 62
7
  6
CONTINUOUS
 10
136.7381892789
 20
428.3569401716
 11
136.0666670811
 21
429.8652037222
  0
LINE
  5
258
100
AcDbEntity
  8
0
100
AcDbLine
 62
7
  6
CONTINUOUS
 10
134.4207443189
 20
437.0564637147
 11
132.3332986475
 21
436.1270730228
  0
LINE
  5
259
100
AcDbEntity
  8
0
100
AcDbLine
 62
7
  6
CONTINUOUS
 10
117.2300773659
 20
429.4026856677
 11
115.1426316946
 21
428.4732949758
  0
LINE
  5
25A
100
AcDbEntity
  8
0
100
AcDbLine
 62
7
  6
CONTINUOUS
 10
129.8332273221
 20
433.874015333
 11
119.9715041069
 21
429.483293271
  0
LINE
  5
25B
100
AcDbEntity
  8
0
100
AcDbLine
 62
7
  6
CONTINUOUS
 10
130.7894138971
 20
433.5998332447
 11
119.5354474043
 21
428.5892445387
  0
LINE
  5
25C
100
AcDbEntity
  8
0
100
AcDbLine
 62
7
  6
CONTINUOUS
 10
117.2229248208
 20
422.1705231662
 11
117.8287204854
 21
422.4402407735
  0
LINE
  5
25D
100
AcDbEntity
  8
0
100
AcDbLine
 62
7
  6
CONTINUOUS
 10
134.4135917738
 20
429.8243012133
 11
135.0193874384
 21
430.0940188206
  0
LINE
  5
25E
100
AcDbEntity
  8
0
100
AcDbLine
 62
7
  6
CONTINUOUS
 10
136.0666670811
 20
429.8652037222
 11
118.7796463861
 21
422.1685262253
  0
LINE
  5
25F
100
AcDbEntity
  8
0
100
AcDbLine
 62
7
  6
CONTINUOUS
 10
154.7878847345
 20
436.3931823496
 11
101.4014731282
 21
412.6240204968
  0
LINE
  5
260
100
AcDbEntity
  8
0
100
AcDbLine
 62
7
  6
CONTINUOUS
 10
100.0194106173
 20
409.5063480893
 11
158.0295471776
 21
435.3341249247
  0
LINE
  5
261
100
AcDbEntity
  8
0
100
AcDbLine
 62
7
  6
CONTINUOUS
 10
301.8228554952
 20
280.3225455335
 11
60.5228554952
 21
280.3225455335
  0
LINE
  5
262
100
AcDbEntity
  8
0
100
AcDbLine
 62
7
  6
CONTINUOUS
 10
60.5228554952
 20
285.6565455335
 11
301.8228554952
 21
285.6565455335
  0
LINE
  5
263
100
AcDbEntity
  8
0
100
AcDbLine
 62
7
  6
CONTINUOUS
 10
68.4174627527
 20
444.3256906167
 11
69.2055919794
 21
443.590748223
  0
LINE
  5
264
100
AcDbEntity
  8
0
100
AcDbLine
 62
7
  6
CONTINUOUS
 10
137.1068331097
 20
431.0234095125
 11
134.4207443189
 21
437.0564637147
  0
LINE
  5
265
100
AcDbEntity
  8
0
100
AcDbLine
 62
7
  6
CONTINUOUS
 10
147.8500691575
 20
430.8019293087
 11
146.9202691914
 21
432.8902942248
  0
LINE
  5
266
100
AcDbEntity
  8
0
100
AcDbLine
 62
7
  6
CONTINUOUS
 10
146.3939126284
 20
442.1092240854
 11
139.6786906512
 21
457.1918595911
  0
LINE
  5
267
100
AcDbEntity
  8
0
100
AcDbLine
 62
7
  6
CONTINUOUS
 10
263.1394155726
 20
466.7936303521
 11
263.2458440944
 21
466.8446445699
  0
LINE
  5
268
100
AcDbEntity
  8
0
100
AcDbLine
 62
7
  6
CONTINUOUS
 10
272.5829224234
 20
466.0316303521
 11
272.4764939016
 21
465.9806161342
  0
LINE
  5
269
100
AcDbEntity
  8
0
100
AcDbLine
 62
7
  6
CONTINUOUS
 10
161.9966936995
 20
426.423767949
 11
103.9865571392
 21
400.5959911137
  0
LINE
  5
26A
100
AcDbEntity
  8
0
100
AcDbLine
 62
7
  6
CONTINUOUS
 10
164.579471383
 20
420.622754293
 11
106.5693348227
 21
394.7949774576
  0
LINE
  5
26B
100
AcDbEntity
  8
0
100
AcDbLine
 62
7
  6
CONTINUOUS
 10
265.7022340885
 20
470.6291593116
 11
266.4062302923
 21
470.9207640871
  0
LINE
  5
26C
100
AcDbEntity
  8
0
100
AcDbLine
 62
7
  6
CONTINUOUS
 10
270.8192163517
 20
469.9816380718
 11
270.9305451806
 21
470.0208219019
  0
LINE
  5
26D
100
AcDbEntity
  8
0
100
AcDbLine
 62
7
  6
CONTINUOUS
 10
264.9031216443
 20
462.8436226324
 11
264.7917928155
 21
462.8044388023
  0
LINE
  5
26E
100
AcDbEntity
  8
0
100
AcDbLine
 62
7
  6
CONTINUOUS
 10
155.7180277487
 20
434.3049701683
 11
154.7882277827
 21
436.3933350844
  0
LINE
  5
26F
100
AcDbEntity
  8
0
100
AcDbLine
 62
7
  6
CONTINUOUS
 10
190.3659237754
 20
362.7054339512
 11
158.0295471776
 21
435.3341249247
  0
LINE
  5
270
100
AcDbEntity
  8
0
100
AcDbLine
 62
7
  6
CONTINUOUS
 10
219.4739586974
 20
446.1294233506
 11
218.1147622365
 21
435.0363822446
  0
LINE
  5
271
100
AcDbEntity
  8
0
100
AcDbLine
 62
7
  6
CONTINUOUS
 10
223.6390778487
 20
446.7066570171
 11
222.0173093442
 21
433.470642061
  0
LINE
  5
272
100
AcDbEntity
  8
0
100
AcDbLine
 62
7
  6
CONTINUOUS
 10
263.353035263
 20
464.9576916464
 11
263.4318401
 21
465.0455510701
  0
LINE
  5
273
100
AcDbEntity
  8
0
100
AcDbLine
 62
7
  6
CONTINUOUS
 10
272.369302733
 20
467.8675690578
 11
272.290497896
 21
467.779709634
  0
LINE
  5
274
100
AcDbEntity
  8
0
100
AcDbLine
 62
7
  6
CONTINUOUS
 10
264.2529774482
 20
469.4820065346
 11
264.7917928155
 21
470.0208219019
  0
LINE
  5
275
100
AcDbEntity
  8
0
100
AcDbLine
 62
7
  6
CONTINUOUS
 10
271.4693605478
 20
463.3432541695
 11
270.9305451806
 21
462.8044388023
  0
LINE
  5
276
100
AcDbEntity
  8
0
100
AcDbLine
 62
7
  6
CONTINUOUS
 10
269.22824828
 20
470.8419592501
 11
269.3161077037
 21
470.9207640871
  0
LINE
  5
277
100
AcDbEntity
  8
0
100
AcDbLine
 62
7
  6
CONTINUOUS
 10
266.4940897161
 20
461.983301454
 11
266.4062302923
 21
461.9044966171
  0
LINE
  5
278
100
AcDbEntity
  8
0
100
AcDbLine
 62
7
  6
CONTINUOUS
 10
270.0201039075
 20
462.1961013925
 11
269.3161077037
 21
461.9044966171
  0
LINE
  5
279
100
AcDbEntity
  8
0
100
AcDbLine
 62
7
  6
CONTINUOUS
 10
266.5886813048
 20
445.2446323053
 11
267.2926775086
 21
445.5362370808
  0
LINE
  5
27A
100
AcDbEntity
  8
0
100
AcDbLine
 62
7
  6
CONTINUOUS
 10
224.8805434205
 20
433.1198187308
 11
225.9143506301
 21
413.3936020549
  0
LINE
  5
27B
100
AcDbEntity
  8
0
100
AcDbLine
 62
7
  6
CONTINUOUS
 10
226.0295430027
 20
413.3996390313
 11
224.9967986952
 21
433.1055743269
  0
LINE
  5
27C
100
AcDbEntity
  8
0
100
AcDbLine
 62
7
  6
CONTINUOUS
 10
226.2323303654
 20
432.9541884033
 11
227.2537784181
 21
413.4637984908
  0
LINE
  5
27D
100
AcDbEntity
  8
0
100
AcDbLine
 62
7
  6
CONTINUOUS
 10
216.1388897767
 20
457.2359306101
 11
216.5111956509
 21
446.5744852959
  0
LINE
  5
27E
100
AcDbEntity
  8
0
100
AcDbLine
 62
7
  6
CONTINUOUS
 10
222.6034830834
 20
446.7872046126
 11
222.2311752532
 21
457.4487059553
  0
LINE
  5
27F
100
AcDbEntity
  8
0
100
AcDbLine
 62
7
  6
CONTINUOUS
 10
222.9314302318
 20
457.9814690465
 11
223.3266672809
 21
446.6633608013
  0
LINE
  5
280
100
AcDbEntity
  8
0
100
AcDbLine
 62
7
  6
CONTINUOUS
 10
221.5588554952
 20
461.2975455335
 11
221.5588554952
 21
480.7512139851
  0
LINE
  5
281
100
AcDbEntity
  8
0
100
AcDbLine
 62
7
  6
CONTINUOUS
 10
222.4341182612
 20
387.8915455335
 11
222.6404534509
 21
393.8435221597
  0
LINE
  5
282
100
AcDbEntity
  8
0
100
AcDbLine
 62
7
  6
CONTINUOUS
 10
229.3286318913
 20
432.57480803
 11
230.9504003958
 21
445.8108229861
  0
LINE
  5
283
100
AcDbEntity
  8
0
100
AcDbLine
 62
7
  6
CONTINUOUS
 10
233.1912548104
 20
398.5343193428
 11
246.9745978803
 21
432.6742342604
  0
LINE
  5
284
100
AcDbEntity
  8
0
100
AcDbLine
 62
7
  6
CONTINUOUS
 10
263.353035263
 20
467.8675690578
 11
263.6446400385
 21
468.5715652616
  0
LINE
  5
285
100
AcDbEntity
  8
0
100
AcDbLine
 62
7
  6
CONTINUOUS
 10
267.4291547802
 20
471.0279552556
 11
267.480168998
 21
471.1343837774
  0
LINE
  5
286
100
AcDbEntity
  8
0
100
AcDbLine
 62
7
  6
CONTINUOUS
 10
264.2394824793
 20
439.5731646401
 11
264.3182873163
 21
439.6610240638
  0
LINE
  5
287
100
AcDbEntity
  8
0
100
AcDbLine
 62
7
  6
CONTINUOUS
 10
258.4133951339
 20
447.5294046484
 11
257.9234335381
 21
447.0039851639
  0
LINE
  5
288
100
AcDbEntity
  8
0
100
AcDbLine
 62
7
  6
CONTINUOUS
 10
265.1394246645
 20
444.0974795283
 11
265.6782400317
 21
444.6362948956
  0
LINE
  5
289
100
AcDbEntity
  8
0
100
AcDbLine
 62
7
  6
CONTINUOUS
 10
270.1146954962
 20
445.4574322438
 11
270.20255492
 21
445.5362370808
  0
LINE
  5
28A
100
AcDbEntity
  8
0
100
AcDbLine
 62
7
  6
CONTINUOUS
 10
264.0258627889
 20
441.4091033458
 11
264.1322913107
 21
441.4601175637
  0
LINE
  5
28B
100
AcDbEntity
  8
0
100
AcDbLine
 62
7
  6
CONTINUOUS
 10
273.4693696396
 20
440.6471033458
 11
273.3629411179
 21
440.5960891279
  0
LINE
  5
28C
100
AcDbEntity
  8
0
100
AcDbLine
 62
7
  6
CONTINUOUS
 10
271.705663568
 20
444.5971110655
 11
271.8169923968
 21
444.6362948956
  0
LINE
  5
28D
100
AcDbEntity
  8
0
100
AcDbLine
 62
7
  6
CONTINUOUS
 10
164.6796342041
 20
318.2154753556
 11
117.2304575731
 21
313.2283659318
  0
LINE
  5
28E
100
AcDbEntity
  8
0
100
AcDbLine
 62
7
  6
CONTINUOUS
 10
158.2354160724
 20
353.2560952106
 11
155.1876371801
 21
353.7935008606
  0
LINE
  5
28F
100
AcDbEntity
  8
0
100
AcDbLine
 62
7
  6
CONTINUOUS
 10
166.9019381147
 20
347.9258601213
 11
165.7044592583
 21
348.2467236138
  0
LINE
  5
290
100
AcDbEntity
  8
0
100
AcDbLine
 62
7
  6
CONTINUOUS
 10
154.6232387489
 20
445.2468503155
 11
153.9595675231
 21
446.0958665132
  0
LINE
  5
291
100
AcDbEntity
  8
0
100
AcDbLine
 62
7
  6
CONTINUOUS
 10
231.0553634597
 20
431.9238586083
 11
231.6348064065
 21
420.8674285393
  0
LINE
  5
292
100
AcDbEntity
  8
0
100
AcDbLine
 62
7
  6
CONTINUOUS
 10
234.8054551793
 20
421.0335952003
 11
234.2260122326
 21
432.0900252694
  0
LINE
  5
293
100
AcDbEntity
  8
0
100
AcDbLine
 62
7
  6
CONTINUOUS
 10
239.8847539837
 20
415.1134243624
 11
238.9070955396
 21
433.7682587692
  0
LINE
  5
294
100
AcDbEntity
  8
0
100
AcDbLine
 62
7
  6
CONTINUOUS
 10
240.1426272098
 20
433.6168728456
 11
240.9713077754
 21
417.8047057021
  0
LINE
  5
295
100
AcDbEntity
  8
0
100
AcDbLine
 62
7
  6
CONTINUOUS
 10
241.0735452273
 20
418.057937294
 11
240.2588824846
 21
433.6026284417
  0
LINE
  5
296
100
AcDbEntity
  8
0
100
AcDbLine
 62
7
  6
CONTINUOUS
 10
230.3187671188
 20
458.7477190612
 11
230.7619885559
 21
446.055517727
  0
LINE
  5
297
100
AcDbEntity
  8
0
100
AcDbLine
 62
7
  6
CONTINUOUS
 10
231.053708427
 20
459.5358793724
 11
231.5501188681
 21
445.3205442488
  0
LINE
  5
298
100
AcDbEntity
  8
0
100
AcDbLine
 62
7
  6
CONTINUOUS
 10
238.9116296636
 20
445.5776722534
 11
238.4152232951
 21
459.7928907532
  0
LINE
  5
299
100
AcDbEntity
  8
0
100
AcDbLine
 62
7
  6
CONTINUOUS
 10
244.9900144323
 20
446.5524146489
 11
244.5467960164
 21
459.2445294687
  0
LINE
  5
29A
100
AcDbEntity
  8
0
100
AcDbLine
 62
7
  6
CONTINUOUS
 10
246.7048554952
 20
410.216193005
 11
246.7048554952
 21
405.2845197083
  0
LINE
  5
29B
100
AcDbEntity
  8
0
100
AcDbLine
 62
7
  6
CONTINUOUS
 10
264.2529774482
 20
463.3432541695
 11
264.2921612783
 21
463.4545829984
  0
LINE
  5
29C
100
AcDbEntity
  8
0
100
AcDbLine
 62
7
  6
CONTINUOUS
 10
271.4693605478
 20
469.4820065346
 11
271.4301767177
 21
469.3706777057
  0
LINE
  5
29D
100
AcDbEntity
  8
0
100
AcDbLine
 62
7
  6
CONTINUOUS
 10
272.369302733
 20
464.9576916464
 11
272.0776979576
 21
464.2536954426
  0
LINE
  5
29E
100
AcDbEntity
  8
0
100
AcDbLine
 62
7
  6
CONTINUOUS
 10
264.2394824793
 20
442.4830420515
 11
264.5310872547
 21
443.1870382553
  0
LINE
  5
29F
100
AcDbEntity
  8
0
100
AcDbLine
 62
7
  6
CONTINUOUS
 10
268.2931832159
 20
461.7973054485
 11
268.242168998
 21
461.6908769267
  0
LINE
  5
2A0
100
AcDbEntity
  8
0
100
AcDbLine
 62
7
  6
CONTINUOUS
 10
268.3156019964
 20
445.6434282494
 11
268.3666162143
 21
445.7498567712
  0
LINE
  5
2A1
100
AcDbEntity
  8
0
100
AcDbLine
 62
7
  6
CONTINUOUS
 10
273.2557499493
 20
442.4830420515
 11
273.1769451123
 21
442.3951826277
  0
LINE
  5
2A2
100
AcDbEntity
  8
0
100
AcDbLine
 62
7
  6
CONTINUOUS
 10
106.8977554366
 20
342.225267981
 11
114.5550934625
 21
345.6345345232
  0
LINE
  5
2A3
100
AcDbEntity
  8
0
100
AcDbLine
 62
7
  6
CONTINUOUS
 10
101.3397919144
 20
395.2596152581
 11
102.1130202792
 21
395.0524293421
  0
LINE
  5
2A4
100
AcDbEntity
  8
0
100
AcDbLine
 62
7
  6
CONTINUOUS
 10
250.1060064443
 20
459.438689657
 11
250.5492268332
 21
446.7465183413
  0
LINE
  5
2A5
100
AcDbEntity
  8
0
100
AcDbLine
 62
7
  6
CONTINUOUS
 10
257.9234335381
 20
447.0039851639
 11
257.48020993
 21
459.6962486671
  0
LINE
  5
2A6
100
AcDbEntity
  8
0
100
AcDbLine
 62
7
  6
CONTINUOUS
 10
257.7496873277
 20
459.2574675729
 11
257.7651873418
 21
458.8136052416
  0
LINE
  5
2A7
100
AcDbEntity
  8
0
100
AcDbLine
 62
7
  6
CONTINUOUS
 10
257.8476591111
 20
456.4519227673
 11
257.8879809965
 21
455.2972550458
  0
LINE
  5
2A8
100
AcDbEntity
  8
0
100
AcDbLine
 62
7
  6
CONTINUOUS
 10
258.0089004535
 20
451.8345748491
 11
258.0504241964
 21
450.6454904286
  0
LINE
  5
2A9
100
AcDbEntity
  8
0
100
AcDbLine
 62
7
  6
CONTINUOUS
 10
258.1389583631
 20
448.1102036066
 11
258.1573599182
 21
447.5832520139
  0
LINE
  5
2AA
100
AcDbEntity
  8
0
100
AcDbLine
 62
7
  6
CONTINUOUS
 10
258.0273847789
 20
458.5832949442
 11
258.1015043812
 21
456.4607872395
  0
LINE
  5
2AB
100
AcDbEntity
  8
0
100
AcDbLine
 62
7
  6
CONTINUOUS
 10
258.1455275914
 20
455.2001274423
 11
258.2596280203
 21
451.9327186601
  0
LINE
  5
2AC
100
AcDbEntity
  8
0
100
AcDbLine
 62
7
  6
CONTINUOUS
 10
258.3042694665
 20
450.6543549008
 11
258.3846932102
 21
448.3513202061
  0
LINE
  5
2AD
100
AcDbEntity
  8
0
100
AcDbLine
 62
7
  6
CONTINUOUS
 10
258.4112051883
 20
447.592116486
 11
258.4133951339
 21
447.5294046484
  0
LINE
  5
2AE
100
AcDbEntity
  8
0
100
AcDbLine
 62
7
  6
CONTINUOUS
 10
260.1745883631
 20
466.1442090409
 11
260.4118322947
 21
459.3504317237
  0
LINE
  5
2AF
100
AcDbEntity
  8
0
100
AcDbLine
 62
7
  6
CONTINUOUS
 10
260.8237916476
 20
447.5534593531
 11
261.0610355793
 21
440.7596820354
  0
LINE
  5
2B0
100
AcDbEntity
  8
0
100
AcDbLine
 62
7
  6
CONTINUOUS
 10
261.1763157673
 20
440.7637077081
 11
260.9390718356
 21
447.557485026
  0
LINE
  5
2B1
100
AcDbEntity
  8
0
100
AcDbLine
 62
7
  6
CONTINUOUS
 10
260.5271124828
 20
459.3544573966
 11
260.2898685511
 21
466.1482347144
  0
LINE
  5
2B2
100
AcDbEntity
  8
0
100
AcDbLine
 62
7
  6
CONTINUOUS
 10
262.4441426724
 20
439.5849202437
 11
261.3528061463
 21
470.8367094217
  0
LINE
  5
2B3
100
AcDbEntity
  8
0
100
AcDbLine
 62
7
  6
CONTINUOUS
 10
263.1394155726
 20
466.0316303521
 11
263.1394155726
 21
466.7936303521
  0
LINE
  5
2B4
100
AcDbEntity
  8
0
100
AcDbLine
 62
7
  6
CONTINUOUS
 10
264.0258627889
 20
440.6471033458
 11
264.0258627889
 21
441.4091033458
  0
LINE
  5
2B5
100
AcDbEntity
  8
0
100
AcDbLine
 62
7
  6
CONTINUOUS
 10
265.6958315288
 20
470.5113098827
 11
265.7022340885
 21
470.6291593116
  0
LINE
  5
2B6
100
AcDbEntity
  8
0
100
AcDbLine
 62
7
  6
CONTINUOUS
 10
266.5822787451
 20
445.1267828764
 11
266.5886813048
 21
445.2446323053
  0
LINE
  5
2B7
100
AcDbEntity
  8
0
100
AcDbLine
 62
7
  6
CONTINUOUS
 10
272.3558077641
 20
444.0974795283
 11
272.316623934
 21
443.9861506995
  0
LINE
  5
2B8
100
AcDbEntity
  8
0
100
AcDbLine
 62
7
  6
CONTINUOUS
 10
270.8290561313
 20
435.8607343828
 11
271.7608900612
 21
438.1687906302
  0
LINE
  5
2B9
100
AcDbEntity
  8
0
100
AcDbLine
 62
7
  6
CONTINUOUS
 10
155.18763718
 20
345.7895902064
 11
158.2354160724
 21
346.3269958564
  0
LINE
  5
2BA
100
AcDbEntity
  8
0
100
AcDbLine
 62
7
  6
CONTINUOUS
 10
265.7022340885
 20
462.1961013925
 11
265.6958315288
 21
462.3139508215
  0
LINE
  5
2BB
100
AcDbEntity
  8
0
100
AcDbLine
 62
7
  6
CONTINUOUS
 10
270.9065511238
 20
445.2446323053
 11
270.9129536835
 21
445.1267828764
  0
LINE
  5
2BC
100
AcDbEntity
  8
0
100
AcDbLine
 62
7
  6
CONTINUOUS
 10
270.0201039075
 20
470.6291593116
 11
270.0265064672
 21
470.5113098827
  0
LINE
  5
2BD
100
AcDbEntity
  8
0
100
AcDbLine
 62
7
  6
CONTINUOUS
 10
267.8847612578
 20
449.9796134447
 11
267.8495586672
 21
450.9876837447
  0
LINE
  5
2BE
100
AcDbEntity
  8
0
100
AcDbLine
 62
7
  6
CONTINUOUS
 10
267.6467935819
 20
456.7941160834
 11
267.624841692
 21
457.4227359628
  0
LINE
  5
2BF
100
AcDbEntity
  8
0
100
AcDbLine
 62
7
  6
CONTINUOUS
 10
268.7240239545
 20
457.4611202532
 11
268.7459758445
 21
456.8325003738
  0
LINE
  5
2C0
100
AcDbEntity
  8
0
100
AcDbLine
 62
7
  6
CONTINUOUS
 10
268.9487409297
 20
451.0260680351
 11
268.9839435203
 21
450.0179977351
  0
LINE
  5
2C1
100
AcDbEntity
  8
0
100
AcDbLine
 62
7
  6
CONTINUOUS
 10
275.135344828
 20
440.0585368692
 11
274.0450696495
 21
471.2799330298
  0
LINE
  5
2C2
100
AcDbEntity
  8
0
100
AcDbLine
 62
7
  6
CONTINUOUS
 10
275.432469445
 20
466.6770259897
 11
275.6697133767
 21
459.8832486719
  0
LINE
  5
2C3
100
AcDbEntity
  8
0
100
AcDbLine
 62
7
  6
CONTINUOUS
 10
276.0816727295
 20
448.0862763013
 11
276.3189166612
 21
441.2924989834
  0
LINE
  5
2C4
100
AcDbEntity
  8
0
100
AcDbLine
 62
7
  6
CONTINUOUS
 10
276.4341968492
 20
441.2965246568
 11
276.1969529176
 21
448.0903019742
  0
LINE
  5
2C5
100
AcDbEntity
  8
0
100
AcDbLine
 62
7
  6
CONTINUOUS
 10
275.7849935647
 20
459.8872743448
 11
275.547749633
 21
466.6810516625
  0
LINE
  5
2C6
100
AcDbEntity
  8
0
100
AcDbLine
 62
7
  6
CONTINUOUS
 10
272.5829224234
 20
466.7936303521
 11
272.5829224234
 21
466.0316303521
  0
LINE
  5
2C7
100
AcDbEntity
  8
0
100
AcDbLine
 62
7
  6
CONTINUOUS
 10
273.4693696396
 20
441.4091033458
 11
273.4693696396
 21
440.6471033458
  0
LINE
  5
2C8
100
AcDbEntity
  8
0
100
AcDbLine
 62
7
  6
CONTINUOUS
 10
270.0265064672
 20
462.3139508215
 11
270.0201039075
 21
462.1961013925
  0
LINE
  5
2C9
100
AcDbEntity
  8
0
100
AcDbLine
 62
7
  6
CONTINUOUS
 10
165.7044592583
 20
351.3363674532
 11
166.9019381147
 21
351.6572309457
  0
LINE
  5
2CA
100
AcDbEntity
  8
0
100
AcDbLine
 62
7
  6
CONTINUOUS
 10
283.5461736868
 20
448.3469424186
 11
283.134214334
 21
460.1439147892
  0
LINE
  5
2CB
100
AcDbEntity
  8
0
100
AcDbLine
 62
7
  6
CONTINUOUS
 10
293.9488554952
 20
449.4057173291
 11
293.9488554952
 21
439.406335166
  0
LINE
  5
2CC
100
AcDbEntity
  8
0
100
AcDbLine
 62
7
  6
CONTINUOUS
 10
293.9488554952
 20
459.8260651234
 11
293.9488554952
 21
483.5225455335
  0
LINE
  5
2CD
100
AcDbEntity
  8
0
100
AcDbLine
 62
7
  6
CONTINUOUS
 10
337.9726954255
 20
406.787880539
 11
298.9341634274
 21
378.0802376013
  0
LINE
  5
2CE
100
AcDbEntity
  8
0
100
AcDbLine
 62
7
  6
CONTINUOUS
 10
289.1228554952
 20
387.8915455335
 11
179.1523444275
 21
387.8915455335
  0
LINE
  5
2CF
100
AcDbEntity
  8
0
100
AcDbLine
 62
7
  6
CONTINUOUS
 10
119.8417042592
 20
387.8915455335
 11
118.5674111034
 21
387.8915455335
  0
LINE
  5
2D0
100
AcDbEntity
  8
0
100
AcDbLine
 62
7
  6
CONTINUOUS
 10
109.6429407424
 20
387.8915455335
 11
73.2228554952
 21
387.8915455335
  0
LINE
  5
2D1
100
AcDbEntity
  8
0
100
AcDbLine
 62
7
  6
CONTINUOUS
 10
233.0250884499
 20
398.3055455335
 11
174.5157328987
 21
398.3055455335
  0
LINE
  5
2D2
100
AcDbEntity
  8
0
100
AcDbLine
 62
7
  6
CONTINUOUS
 10
225.7922241555
 20
396.7840917347
 11
230.2593081639
 21
396.6292328224
  0
LINE
  5
2D3
100
AcDbEntity
  8
0
100
AcDbLine
 62
7
  6
CONTINUOUS
 10
91.8046541216
 20
407.4059134972
 11
99.6168621907
 21
406.5848173423
  0
LINE
  5
2D4
100
AcDbEntity
  8
0
100
AcDbLine
 62
7
  6
CONTINUOUS
 10
92.1604271991
 20
410.7908682202
 11
99.9726352683
 21
409.9697720654
  0
LINE
  5
2D5
100
AcDbEntity
  8
0
100
AcDbLine
 62
7
  6
CONTINUOUS
 10
130.7894138971
 20
433.5998332447
 11
129.8332273221
 21
433.874015333
  0
LINE
  5
2D6
100
AcDbEntity
  8
0
100
AcDbLine
 62
7
  6
CONTINUOUS
 10
149.9192898049
 20
438.7637660607
 11
155.4040798033
 21
436.6583524406
  0
LINE
  5
2D7
100
AcDbEntity
  8
0
100
AcDbLine
 62
7
  6
CONTINUOUS
 10
289.1228554952
 20
387.8915455335
 11
301.8228554952
 21
375.1915455335
  0
LINE
  5
2D8
100
AcDbEntity
  8
0
100
AcDbLine
 62
7
  6
CONTINUOUS
 10
264.3303421547
 20
439.3538099795
 11
264.2394824793
 21
439.5731646401
  0
LINE
  5
2D9
100
AcDbEntity
  8
0
100
AcDbLine
 62
7
  6
CONTINUOUS
 10
263.6446400385
 20
464.2536954426
 11
263.353035263
 21
464.9576916464
  0
LINE
  5
2DA
100
AcDbEntity
  8
0
100
AcDbLine
 62
7
  6
CONTINUOUS
 10
272.9641451738
 20
443.1870382553
 11
273.2557499493
 21
442.4830420515
  0
LINE
  5
2DB
100
AcDbEntity
  8
0
100
AcDbLine
 62
7
  6
CONTINUOUS
 10
265.1786084946
 20
443.9861506995
 11
265.1394246645
 21
444.0974795283
  0
LINE
  5
2DC
100
AcDbEntity
  8
0
100
AcDbLine
 62
7
  6
CONTINUOUS
 10
264.2921612783
 20
469.3706777057
 11
264.2529774482
 21
469.4820065346
  0
LINE
  5
2DD
100
AcDbEntity
  8
0
100
AcDbLine
 62
7
  6
CONTINUOUS
 10
301.8228554952
 20
280.3225455335
 11
301.8228554952
 21
375.1915455335
  0
LINE
  5
2DE
100
AcDbEntity
  8
0
100
AcDbLine
 62
7
  6
CONTINUOUS
 10
337.4388478678
 20
437.9450840873
 11
338.1470173784
 21
439.6991467061
  0
LINE
  5
2DF
100
AcDbEntity
  8
0
100
AcDbLine
 62
7
  6
CONTINUOUS
 10
225.9143506301
 20
413.393602055
 11
227.2537784181
 21
413.4637984908
  0
LINE
  5
2E0
100
AcDbEntity
  8
0
100
AcDbLine
 62
7
  6
CONTINUOUS
 10
337.9726954255
 20
406.787880539
 11
346.9468385991
 21
405.688306173
  0
LINE
  5
2E1
100
AcDbEntity
  8
0
100
AcDbLine
 62
7
  6
CONTINUOUS
 10
222.0173093442
 20
433.470642061
 11
218.1147622365
 21
435.0363822446
  0
LINE
  5
2E2
100
AcDbEntity
  8
0
100
AcDbLine
 62
7
  6
CONTINUOUS
 10
264.3182873163
 20
442.3951826277
 11
264.2394824793
 21
442.4830420515
  0
LINE
  5
2E3
100
AcDbEntity
  8
0
100
AcDbLine
 62
7
  6
CONTINUOUS
 10
269.1286162143
 20
445.7498567712
 11
269.1796304321
 21
445.6434282494
  0
LINE
  5
2E4
100
AcDbEntity
  8
0
100
AcDbLine
 62
7
  6
CONTINUOUS
 10
267.480168998
 20
461.6908769267
 11
267.4291547802
 21
461.7973054485
  0
LINE
  5
2E5
100
AcDbEntity
  8
0
100
AcDbLine
 62
7
  6
CONTINUOUS
 10
268.242168998
 20
471.1343837774
 11
268.2931832159
 21
471.0279552556
  0
LINE
  5
2E6
100
AcDbEntity
  8
0
100
AcDbLine
 62
7
  6
CONTINUOUS
 10
272.0776979576
 20
468.5715652616
 11
272.369302733
 21
467.8675690578
  0
LINE
  5
2E7
100
AcDbEntity
  8
0
100
AcDbLine
 62
7
  6
CONTINUOUS
 10
271.4301767177
 20
463.4545829984
 11
271.4693605478
 21
463.3432541695
  0
LINE
  5
2E8
100
AcDbEntity
  8
0
100
AcDbLine
 62
7
  6
CONTINUOUS
 10
234.8054551793
 20
421.0335952003
 11
231.6348064065
 21
420.8674285392
  0
LINE
  5
2E9
100
AcDbEntity
  8
0
100
AcDbLine
 62
7
  6
CONTINUOUS
 10
349.167424793
 20
411.0716041283
 11
348.0076977683
 21
411.2137019401
  0
LINE
  5
2EA
100
AcDbEntity
  8
0
100
AcDbLine
 62
7
  6
CONTINUOUS
 10
348.0972811714
 20
411.9448341948
 11
347.7191093155
 21
411.9911704378
  0
LINE
  5
2EB
100
AcDbEntity
  8
0
100
AcDbLine
 62
7
  6
CONTINUOUS
 10
358.8194224936
 20
411.5267313054
 11
349.3651260964
 21
412.6851373801
  0
LINE
  5
2EC
100
AcDbEntity
  8
0
100
AcDbLine
 62
7
  6
CONTINUOUS
 10
348.2030781275
 20
415.9410673658
 11
348.5812499834
 21
415.8947311228
  0
LINE
  5
2ED
100
AcDbEntity
  8
0
100
AcDbLine
 62
7
  6
CONTINUOUS
 10
366.8287332914
 20
414.4478427301
 11
366.0723895796
 21
414.5405152161
  0
LINE
  5
2EE
100
AcDbEntity
  8
0
100
AcDbLine
 62
7
  6
CONTINUOUS
 10
366.0745519376
 20
414.558163236
 11
359.2926699887
 21
415.3891265269
  0
LINE
  5
2EF
100
AcDbEntity
  8
0
100
AcDbLine
 62
7
  6
CONTINUOUS
 10
348.6786465667
 20
416.6896304134
 11
348.3004747108
 21
416.7359666564
  0
LINE
  5
2F0
100
AcDbEntity
  8
0
100
AcDbLine
 62
7
  6
CONTINUOUS
 10
366.8673468272
 20
414.7629859434
 11
392.0788038864
 21
411.6739030776
  0
LINE
  5
2F1
100
AcDbEntity
  8
0
100
AcDbLine
 62
7
  6
CONTINUOUS
 10
392.1084524403
 20
411.9158788602
 11
366.8969953811
 21
415.004961726
  0
LINE
  5
2F2
100
AcDbEntity
  8
0
100
AcDbLine
 62
7
  6
CONTINUOUS
 10
366.9561024228
 20
415.4873620721
 11
392.167559482
 21
412.3982792064
  0
LINE
  5
2F3
100
AcDbEntity
  8
0
100
AcDbLine
 62
7
  6
CONTINUOUS
 10
392.1818781706
 20
412.5151407536
 11
366.9704211114
 21
415.6042236193
  0
LINE
  5
2F4
100
AcDbEntity
  8
0
100
AcDbLine
 62
7
  6
CONTINUOUS
 10
229.3286318913
 20
432.57480803
 11
222.0173093442
 21
433.470642061
  0
LINE
  5
2F5
100
AcDbEntity
  8
0
100
AcDbLine
 62
7
  6
CONTINUOUS
 10
164.2165283975
 20
441.6723557328
 11
168.1495156987
 21
441.1904588058
  0
LINE
  5
2F6
100
AcDbEntity
  8
0
100
AcDbLine
 62
7
  6
CONTINUOUS
 10
392.3722667586
 20
414.0689914983
 11
495.7392407014
 21
401.4037517488
  0
LINE
  5
2F7
100
AcDbEntity
  8
0
100
AcDbLine
 62
7
  6
CONTINUOUS
 10
246.9873378749
 20
432.7782113439
 11
229.6143720564
 21
434.9068678079
  0
LINE
  5
2F8
100
AcDbEntity
  8
0
100
AcDbLine
 62
7
  6
CONTINUOUS
 10
392.5748405321
 20
415.7222912679
 11
367.3633834729
 21
418.8113741336
  0
LINE
  5
2F9
100
AcDbEntity
  8
0
100
AcDbLine
 62
7
  6
CONTINUOUS
 10
154.6232387489
 20
445.2468503155
 11
164.5061299161
 21
444.0359298321
  0
LINE
  5
2FA
100
AcDbEntity
  8
0
100
AcDbLine
 62
7
  6
CONTINUOUS
 10
168.4391172174
 20
443.5540329051
 11
218.4082251087
 21
437.4314706652
  0
LINE
  5
2FB
100
AcDbEntity
  8
0
100
AcDbLine
 62
7
  6
CONTINUOUS
 10
367.5060804946
 20
419.9759915917
 11
392.7175375538
 21
416.886908726
  0
LINE
  5
2FC
100
AcDbEntity
  8
0
100
AcDbLine
 62
7
  6
CONTINUOUS
 10
392.7234685488
 20
416.9353143637
 11
367.5120114896
 21
420.0243972295
  0
LINE
  5
2FD
100
AcDbEntity
  8
0
100
AcDbLine
 62
7
  6
CONTINUOUS
 10
264.1322913107
 20
440.5960891279
 11
264.0258627889
 21
440.6471033458
  0
LINE
  5
2FE
100
AcDbEntity
  8
0
100
AcDbLine
 62
7
  6
CONTINUOUS
 10
267.2926775086
 20
445.5362370808
 11
267.3805369323
 21
445.4574322438
  0
LINE
  5
2FF
100
AcDbEntity
  8
0
100
AcDbLine
 62
7
  6
CONTINUOUS
 10
257.9434876239
 20
459.2642352284
 11
257.48020993
 21
459.6962486671
  0
LINE
  5
300
100
AcDbEntity
  8
0
100
AcDbLine
 62
7
  6
CONTINUOUS
 10
271.8169923968
 20
444.6362948956
 11
272.3558077641
 21
444.0974795283
  0
LINE
  5
301
100
AcDbEntity
  8
0
100
AcDbLine
 62
7
  6
CONTINUOUS
 10
264.7917928155
 20
462.8044388023
 11
264.2529774482
 21
463.3432541695
  0
LINE
  5
302
100
AcDbEntity
  8
0
100
AcDbLine
 62
7
  6
CONTINUOUS
 10
263.4318401
 20
467.779709634
 11
263.353035263
 21
467.8675690578
  0
LINE
  5
303
100
AcDbEntity
  8
0
100
AcDbLine
 62
7
  6
CONTINUOUS
 10
337.4388473832
 20
437.9450801324
 11
337.4331864212
 21
437.8988783606
  0
LINE
  5
304
100
AcDbEntity
  8
0
100
AcDbLine
 62
7
  6
CONTINUOUS
 10
346.6320861826
 20
437.5799831689
 11
342.7869481843
 21
406.1980048459
  0
LINE
  5
305
100
AcDbEntity
  8
0
100
AcDbLine
 62
7
  6
CONTINUOUS
 10
347.0908455684
 20
438.4002112645
 11
346.9897062286
 21
437.574765579
  0
LINE
  5
306
100
AcDbEntity
  8
0
100
AcDbLine
 62
7
  6
CONTINUOUS
 10
348.16098919
 20
437.5269811979
 11
348.2505725931
 21
438.2581134527
  0
LINE
  5
307
100
AcDbEntity
  8
0
100
AcDbLine
 62
7
  6
CONTINUOUS
 10
350.8081921812
 20
437.202627497
 11
346.9468385991
 21
405.688306173
  0
LINE
  5
308
100
AcDbEntity
  8
0
100
AcDbLine
 62
7
  6
CONTINUOUS
 10
351.2759474402
 20
437.8874235088
 11
348.0076977683
 21
411.2137019401
  0
LINE
  5
309
100
AcDbEntity
  8
0
100
AcDbLine
 62
7
  6
CONTINUOUS
 10
349.167424793
 20
411.0716041283
 11
352.435674465
 21
437.745325697
  0
LINE
  5
30A
100
AcDbEntity
  8
0
100
AcDbLine
 62
7
  6
CONTINUOUS
 10
102.1130202792
 20
390.8906617248
 11
101.3397919144
 21
390.6834758089
  0
LINE
  5
30B
100
AcDbEntity
  8
0
100
AcDbLine
 62
7
  6
CONTINUOUS
 10
264.5310872547
 20
443.1870382553
 11
264.6489366837
 21
443.193440815
  0
LINE
  5
30C
100
AcDbEntity
  8
0
100
AcDbLine
 62
7
  6
CONTINUOUS
 10
231.0553634597
 20
431.9238586083
 11
234.2260122326
 21
432.0900252694
  0
LINE
  5
30D
100
AcDbEntity
  8
0
100
AcDbLine
 62
7
  6
CONTINUOUS
 10
261.0610355793
 20
440.7596820353
 11
262.4014844627
 21
440.8064915417
  0
LINE
  5
30E
100
AcDbEntity
  8
0
100
AcDbLine
 62
7
  6
CONTINUOUS
 10
275.0937479658
 20
441.2497151498
 11
276.4341968493
 21
441.2965246563
  0
LINE
  5
30F
100
AcDbEntity
  8
0
100
AcDbLine
 62
7
  6
CONTINUOUS
 10
274.8987295783
 20
446.8343110912
 11
262.2064660751
 21
446.3910874831
  0
LINE
  5
310
100
AcDbEntity
  8
0
100
AcDbLine
 62
7
  6
CONTINUOUS
 10
238.9116316999
 20
445.5776139415
 11
231.5501188681
 21
445.3205442488
  0
LINE
  5
311
100
AcDbEntity
  8
0
100
AcDbLine
 62
7
  6
CONTINUOUS
 10
79.7652503757
 20
440.7207496924
 11
82.7333127432
 21
440.8243967141
  0
LINE
  5
312
100
AcDbEntity
  8
0
100
AcDbLine
 62
7
  6
CONTINUOUS
 10
274.8721361618
 20
447.5958469014
 11
262.1798726587
 21
447.1526232933
  0
LINE
  5
313
100
AcDbEntity
  8
0
100
AcDbLine
 62
7
  6
CONTINUOUS
 10
257.9234335381
 20
447.0039851639
 11
250.5492284428
 21
446.7464722476
  0
LINE
  5
314
100
AcDbEntity
  8
0
100
AcDbLine
 62
7
  6
CONTINUOUS
 10
244.9900170284
 20
446.5523403072
 11
238.8850382834
 21
446.3391497517
  0
LINE
  5
315
100
AcDbEntity
  8
0
100
AcDbLine
 62
7
  6
CONTINUOUS
 10
258.3554469768
 20
447.4672628578
 11
262.164240531
 21
447.6002688596
  0
LINE
  5
316
100
AcDbEntity
  8
0
100
AcDbLine
 62
7
  6
CONTINUOUS
 10
274.8565040342
 20
448.0434924677
 11
283.5461736868
 21
448.3469424186
  0
LINE
  5
317
100
AcDbEntity
  8
0
100
AcDbLine
 62
7
  6
CONTINUOUS
 10
230.7442606971
 20
446.5631771827
 11
226.1262418123
 21
446.4019124097
  0
LINE
  5
318
100
AcDbEntity
  8
0
100
AcDbLine
 62
7
  6
CONTINUOUS
 10
258.4133951339
 20
447.5294046484
 11
262.1621437143
 21
447.6603138334
  0
LINE
  5
319
100
AcDbEntity
  8
0
100
AcDbLine
 62
7
  6
CONTINUOUS
 10
274.8544072175
 20
448.1035374415
 11
283.5440768701
 21
448.4069873924
  0
LINE
  5
31A
100
AcDbEntity
  8
0
100
AcDbLine
 62
7
  6
CONTINUOUS
 10
283.5418869245
 20
448.4696992301
 11
274.8522172718
 21
448.1662492792
  0
LINE
  5
31B
100
AcDbEntity
  8
0
100
AcDbLine
 62
7
  6
CONTINUOUS
 10
262.1599537687
 20
447.7230256711
 11
258.1573599182
 21
447.5832520139
  0
LINE
  5
31C
100
AcDbEntity
  8
0
100
AcDbLine
 62
7
  6
CONTINUOUS
 10
159.0240554952
 20
439.6313455335
 11
162.1990554952
 21
439.6313455335
  0
LINE
  5
31D
100
AcDbEntity
  8
0
100
AcDbLine
 62
7
  6
CONTINUOUS
 10
264.1650977531
 20
440.3296033458
 11
273.3301346754
 21
440.3296033458
  0
LINE
  5
31E
100
AcDbEntity
  8
0
100
AcDbLine
 62
7
  6
CONTINUOUS
 10
273.3301346754
 20
441.7266033458
 11
264.1650977531
 21
441.7266033458
  0
LINE
  5
31F
100
AcDbEntity
  8
0
100
AcDbLine
 62
7
  6
CONTINUOUS
 10
97.0019012338
 20
444.3308436206
 11
92.9862646871
 21
444.3308436206
  0
LINE
  5
320
100
AcDbEntity
  8
0
100
AcDbLine
 62
7
  6
CONTINUOUS
 10
268.3666162143
 20
445.7498567712
 11
269.1286162143
 21
445.7498567712
  0
LINE
  5
321
100
AcDbEntity
  8
0
100
AcDbLine
 62
7
  6
CONTINUOUS
 10
92.9862646871
 20
446.9211455335
 11
100.9982215027
 21
446.9211455335
  0
LINE
  5
322
100
AcDbEntity
  8
0
100
AcDbLine
 62
7
  6
CONTINUOUS
 10
249.9065445269
 20
434.5793207809
 11
267.8971094848
 21
433.9556478623
  0
LINE
  5
323
100
AcDbEntity
  8
0
100
AcDbLine
 62
7
  6
CONTINUOUS
 10
274.6928367077
 20
440.0738771507
 11
346.6320861826
 21
437.5799831689
  0
LINE
  5
324
100
AcDbEntity
  8
0
100
AcDbLine
 62
7
  6
CONTINUOUS
 10
272.8462957449
 20
443.193440815
 11
272.9641451738
 21
443.1870382553
  0
LINE
  5
325
100
AcDbEntity
  8
0
100
AcDbLine
 62
7
  6
CONTINUOUS
 10
359.7698920094
 20
423.3096013001
 11
351.2875036458
 21
424.3489224505
  0
LINE
  5
326
100
AcDbEntity
  8
0
100
AcDbLine
 62
7
  6
CONTINUOUS
 10
165.384845763
 20
447.127007581
 11
168.3326720869
 21
446.7658194209
  0
LINE
  5
327
100
AcDbEntity
  8
0
100
AcDbLine
 62
7
  6
CONTINUOUS
 10
368.0761318842
 20
424.6284488928
 11
393.2875889434
 21
421.5393660271
  0
LINE
  5
328
100
AcDbEntity
  8
0
100
AcDbLine
 62
7
  6
CONTINUOUS
 10
393.2935199385
 20
421.5877716648
 11
368.0820628792
 21
424.6768545306
  0
LINE
  5
329
100
AcDbEntity
  8
0
100
AcDbLine
 62
7
  6
CONTINUOUS
 10
155.3955094653
 20
451.5497145803
 11
165.2784006326
 21
450.3387940969
  0
LINE
  5
32A
100
AcDbEntity
  8
0
100
AcDbLine
 62
7
  6
CONTINUOUS
 10
169.2113879338
 20
449.8568971699
 11
219.1804958252
 21
443.73433493
  0
LINE
  5
32B
100
AcDbEntity
  8
0
100
AcDbLine
 62
7
  6
CONTINUOUS
 10
368.2247599009
 20
425.8414719887
 11
393.4362169602
 21
422.7523891229
  0
LINE
  5
32C
100
AcDbEntity
  8
0
100
AcDbLine
 62
7
  6
CONTINUOUS
 10
271.9440313817
 20
438.4209278822
 11
230.6646602308
 21
443.4787632081
  0
LINE
  5
32D
100
AcDbEntity
  8
0
100
AcDbLine
 62
7
  6
CONTINUOUS
 10
393.6387907336
 20
424.4056888925
 11
497.0057646764
 21
411.7404491431
  0
LINE
  5
32E
100
AcDbEntity
  8
0
100
AcDbLine
 62
7
  6
CONTINUOUS
 10
165.5680021512
 20
452.7023681962
 11
169.5009894524
 21
452.2204712692
  0
LINE
  5
32F
100
AcDbEntity
  8
0
100
AcDbLine
 62
7
  6
CONTINUOUS
 10
230.9504003958
 20
445.8108229861
 11
223.6390778487
 21
446.7066570171
  0
LINE
  5
330
100
AcDbEntity
  8
0
100
AcDbLine
 62
7
  6
CONTINUOUS
 10
368.6177222624
 20
429.048622503
 11
393.8291793216
 21
425.9595396372
  0
LINE
  5
331
100
AcDbEntity
  8
0
100
AcDbLine
 62
7
  6
CONTINUOUS
 10
393.8434980102
 20
426.0764011844
 11
368.632040951
 21
429.1654840502
  0
LINE
  5
332
100
AcDbEntity
  8
0
100
AcDbLine
 62
7
  6
CONTINUOUS
 10
368.6911479927
 20
429.6478843963
 11
393.9026050519
 21
426.5588015306
  0
LINE
  5
333
100
AcDbEntity
  8
0
100
AcDbLine
 62
7
  6
CONTINUOUS
 10
368.7207965466
 20
429.8898601789
 11
393.9322536058
 21
426.8007773132
  0
LINE
  5
334
100
AcDbEntity
  8
0
100
AcDbLine
 62
7
  6
CONTINUOUS
 10
368.0009040127
 20
430.2800278582
 11
361.2190220637
 21
431.110991149
  0
LINE
  5
335
100
AcDbEntity
  8
0
100
AcDbLine
 62
7
  6
CONTINUOUS
 10
350.6049986418
 20
432.4114950355
 11
350.2268267859
 21
432.4578312785
  0
LINE
  5
336
100
AcDbEntity
  8
0
100
AcDbLine
 62
7
  6
CONTINUOUS
 10
368.7594100824
 20
430.2050033921
 11
368.0030663707
 21
430.2976758781
  0
LINE
  5
337
100
AcDbEntity
  8
0
100
AcDbLine
 62
7
  6
CONTINUOUS
 10
350.7023952251
 20
433.2063943261
 11
350.3242233692
 21
433.2527305691
  0
LINE
  5
338
100
AcDbEntity
  8
0
100
AcDbLine
 62
7
  6
CONTINUOUS
 10
352.2379731615
 20
436.1317924452
 11
361.6922695588
 21
434.9733863705
  0
LINE
  5
339
100
AcDbEntity
  8
0
100
AcDbLine
 62
7
  6
CONTINUOUS
 10
348.16098919
 20
437.5269811979
 11
351.1863640371
 21
437.1562912541
  0
LINE
  5
33A
100
AcDbEntity
  8
0
100
AcDbLine
 62
7
  6
CONTINUOUS
 10
352.435674465
 20
437.745325697
 11
351.2759474402
 21
437.8874235088
  0
LINE
  5
33B
100
AcDbEntity
  8
0
100
AcDbLine
 62
7
  6
CONTINUOUS
 10
347.0908455684
 20
438.4002112645
 11
348.2505725931
 21
438.2581134527
  0
LINE
  5
33C
100
AcDbEntity
  8
0
100
AcDbLine
 62
7
  6
CONTINUOUS
 10
338.1470173784
 20
439.6991467061
 11
346.629405742
 21
438.6598255557
  0
LINE
  5
33D
100
AcDbEntity
  8
0
100
AcDbLine
 62
7
  6
CONTINUOUS
 10
265.6782400317
 20
444.6362948956
 11
265.7895688606
 21
444.5971110655
  0
LINE
  5
33E
100
AcDbEntity
  8
0
100
AcDbLine
 62
7
  6
CONTINUOUS
 10
270.20255492
 20
445.5362370808
 11
270.9065511238
 21
445.2446323053
  0
LINE
  5
33F
100
AcDbEntity
  8
0
100
AcDbLine
 62
7
  6
CONTINUOUS
 10
273.3629411179
 20
441.4601175637
 11
273.4693696396
 21
441.4091033458
  0
LINE
  5
340
100
AcDbEntity
  8
0
100
AcDbLine
 62
7
  6
CONTINUOUS
 10
269.3161077037
 20
461.9044966171
 11
269.22824828
 21
461.983301454
  0
LINE
  5
341
100
AcDbEntity
  8
0
100
AcDbLine
 62
7
  6
CONTINUOUS
 10
266.4062302923
 20
470.9207640871
 11
266.4940897161
 21
470.8419592501
  0
LINE
  5
342
100
AcDbEntity
  8
0
100
AcDbLine
 62
7
  6
CONTINUOUS
 10
270.9305451806
 20
470.0208219019
 11
271.4693605478
 21
469.4820065346
  0
LINE
  5
343
100
AcDbEntity
  8
0
100
AcDbLine
 62
7
  6
CONTINUOUS
 10
272.290497896
 20
465.0455510701
 11
272.369302733
 21
464.9576916464
  0
LINE
  5
344
100
AcDbEntity
  8
0
100
AcDbLine
 62
7
  6
CONTINUOUS
 10
346.7353729135
 20
437.5784762405
 11
346.7342442096
 21
437.5899941773
  0
LINE
  5
345
100
AcDbEntity
  8
0
100
AcDbLine
 62
7
  6
CONTINUOUS
 10
346.746949679
 20
437.5776362614
 11
346.7460963874
 21
437.5891366584
  0
LINE
  5
346
100
AcDbEntity
  8
0
100
AcDbLine
 62
7
  6
CONTINUOUS
 10
358.8194224936
 20
411.5267313054
 11
361.6922695588
 21
434.9733863705
  0
LINE
  5
347
100
AcDbEntity
  8
0
100
AcDbLine
 62
7
  6
CONTINUOUS
 10
223.6390778487
 20
446.7066570171
 11
219.4739586974
 21
446.1294233506
  0
LINE
  5
348
100
AcDbEntity
  8
0
100
AcDbLine
 62
7
  6
CONTINUOUS
 10
222.6034830834
 20
446.7872046126
 11
216.5111966292
 21
446.5744572817
  0
LINE
  5
349
100
AcDbEntity
  8
0
100
AcDbLine
 62
7
  6
CONTINUOUS
 10
258.1389583631
 20
448.1102036066
 11
262.1415522136
 21
448.2499772638
  0
LINE
  5
34A
100
AcDbEntity
  8
0
100
AcDbLine
 62
7
  6
CONTINUOUS
 10
274.8338157167
 20
448.693200872
 11
283.5234853694
 21
448.9966508229
  0
LINE
  5
34B
100
AcDbEntity
  8
0
100
AcDbLine
 62
7
  6
CONTINUOUS
 10
382.5215710142
 20
452.498744711
 11
283.5219156897
 21
449.0416005676
  0
LINE
  5
34C
100
AcDbEntity
  8
0
100
AcDbLine
 62
7
  6
CONTINUOUS
 10
250.5075654236
 20
447.9395450169
 11
244.9483540092
 21
447.7454130765
  0
LINE
  5
34D
100
AcDbEntity
  8
0
100
AcDbLine
 62
7
  6
CONTINUOUS
 10
283.5153749464
 20
449.2289029502
 11
274.8257052937
 21
448.9254529993
  0
LINE
  5
34E
100
AcDbEntity
  8
0
100
AcDbLine
 62
7
  6
CONTINUOUS
 10
262.1334417906
 20
448.4822293912
 11
258.3846932102
 21
448.3513202061
  0
LINE
  5
34F
100
AcDbEntity
  8
0
100
AcDbLine
 62
7
  6
CONTINUOUS
 10
216.4757387406
 20
447.5898383619
 11
194.0930844875
 21
446.8082188522
  0
LINE
  5
350
100
AcDbEntity
  8
0
100
AcDbLine
 62
7
  6
CONTINUOUS
 10
92.983113648
 20
444.4210775763
 11
83.1163127788
 21
444.0765212975
  0
LINE
  5
351
100
AcDbEntity
  8
0
100
AcDbLine
 62
7
  6
CONTINUOUS
 10
79.1563265658
 20
443.9382355318
 11
69.2055919794
 21
443.590748223
  0
LINE
  5
352
100
AcDbEntity
  8
0
100
AcDbLine
 62
7
  6
CONTINUOUS
 10
79.6464964071
 20
444.1214184169
 11
82.6145587746
 21
444.2250654387
  0
LINE
  5
353
100
AcDbEntity
  8
0
100
AcDbLine
 62
7
  6
CONTINUOUS
 10
283.4349512027
 20
451.5319376448
 11
274.74528155
 21
451.2284876939
  0
LINE
  5
354
100
AcDbEntity
  8
0
100
AcDbLine
 62
7
  6
CONTINUOUS
 10
262.0530180469
 20
450.7852640858
 11
258.0504241964
 21
450.6454904286
  0
LINE
  5
355
100
AcDbEntity
  8
0
100
AcDbLine
 62
7
  6
CONTINUOUS
 10
258.0089004535
 20
451.8345748491
 11
262.0114943039
 21
451.9743485063
  0
LINE
  5
356
100
AcDbEntity
  8
0
100
AcDbLine
 62
7
  6
CONTINUOUS
 10
274.7037578071
 20
452.4175721145
 11
283.3934274597
 21
452.7210220654
  0
LINE
  5
357
100
AcDbEntity
  8
0
100
AcDbLine
 62
7
  6
CONTINUOUS
 10
283.3903097565
 20
452.8103014041
 11
274.7006401039
 21
452.5068514532
  0
LINE
  5
358
100
AcDbEntity
  8
0
100
AcDbLine
 62
7
  6
CONTINUOUS
 10
262.0083766007
 20
452.0636278451
 11
258.2596280203
 21
451.9327186601
  0
LINE
  5
359
100
AcDbEntity
  8
0
100
AcDbLine
 62
7
  6
CONTINUOUS
 10
258.1455275914
 20
455.2001274423
 11
261.8942761718
 21
455.3310366274
  0
LINE
  5
35A
100
AcDbEntity
  8
0
100
AcDbLine
 62
7
  6
CONTINUOUS
 10
274.5865396749
 20
455.7742602355
 11
283.2762093276
 21
456.0777101864
  0
LINE
  5
35B
100
AcDbEntity
  8
0
100
AcDbLine
 62
7
  6
CONTINUOUS
 10
283.2725080028
 20
456.183702262
 11
274.5828383501
 21
455.8802523111
  0
LINE
  5
35C
100
AcDbEntity
  8
0
100
AcDbLine
 62
7
  6
CONTINUOUS
 10
261.890574847
 20
455.437028703
 11
257.8879809965
 21
455.2972550458
  0
LINE
  5
35D
100
AcDbEntity
  8
0
100
AcDbLine
 62
7
  6
CONTINUOUS
 10
257.8476591111
 20
456.4519227673
 11
261.8502529616
 21
456.5916964245
  0
LINE
  5
35E
100
AcDbEntity
  8
0
100
AcDbLine
 62
7
  6
CONTINUOUS
 10
274.5425164648
 20
457.0349200327
 11
283.2321861174
 21
457.3383699836
  0
LINE
  5
35F
100
AcDbEntity
  8
0
100
AcDbLine
 62
7
  6
CONTINUOUS
 10
92.9862646871
 20
450.7750582193
 11
82.8947009748
 21
450.4226530491
  0
LINE
  5
360
100
AcDbEntity
  8
0
100
AcDbLine
 62
7
  6
CONTINUOUS
 10
78.9347147618
 20
450.2843672833
 11
68.9839801753
 21
449.9368799746
  0
LINE
  5
361
100
AcDbEntity
  8
0
100
AcDbLine
 62
7
  6
CONTINUOUS
 10
79.4227286179
 20
450.5292895041
 11
82.3907909854
 21
450.6329365259
  0
LINE
  5
362
100
AcDbEntity
  8
0
100
AcDbLine
 62
7
  6
CONTINUOUS
 10
216.174346687
 20
456.2205775441
 11
162.2017912252
 21
454.3358143759
  0
LINE
  5
363
100
AcDbEntity
  8
0
100
AcDbLine
 62
7
  6
CONTINUOUS
 10
250.1476678538
 20
458.2456629814
 11
244.5884564395
 21
458.0515310411
  0
LINE
  5
364
100
AcDbEntity
  8
0
100
AcDbLine
 62
7
  6
CONTINUOUS
 10
382.1581276556
 20
462.9064007835
 11
283.1584723311
 21
459.4492566402
  0
LINE
  5
365
100
AcDbEntity
  8
0
100
AcDbLine
 62
7
  6
CONTINUOUS
 10
258.0273847789
 20
458.5832949442
 11
261.7761333593
 21
458.7142041292
  0
LINE
  5
366
100
AcDbEntity
  8
0
100
AcDbLine
 62
7
  6
CONTINUOUS
 10
274.4683968625
 20
459.1574277374
 11
283.1580665151
 21
459.4608776883
  0
LINE
  5
367
100
AcDbEntity
  8
0
100
AcDbLine
 62
7
  6
CONTINUOUS
 10
222.2311752532
 20
457.4487059553
 11
216.1388887984
 21
457.2359586243
  0
LINE
  5
368
100
AcDbEntity
  8
0
100
AcDbLine
 62
7
  6
CONTINUOUS
 10
283.1497143481
 20
459.7000524578
 11
274.4600446955
 21
459.3966025069
  0
LINE
  5
369
100
AcDbEntity
  8
0
100
AcDbLine
 62
7
  6
CONTINUOUS
 10
261.7677811923
 20
458.9533788988
 11
257.7651873418
 21
458.8136052416
  0
LINE
  5
36A
100
AcDbEntity
  8
0
100
AcDbLine
 62
7
  6
CONTINUOUS
 10
230.3364949776
 20
458.2400596056
 11
222.9314302318
 21
457.9814690465
  0
LINE
  5
36B
100
AcDbEntity
  8
0
100
AcDbLine
 62
7
  6
CONTINUOUS
 10
257.7496873277
 20
459.2574675729
 11
261.7522811782
 21
459.3972412302
  0
LINE
  5
36C
100
AcDbEntity
  8
0
100
AcDbLine
 62
7
  6
CONTINUOUS
 10
274.4445446813
 20
459.8404648383
 11
283.134214334
 21
460.1439147892
  0
LINE
  5
36D
100
AcDbEntity
  8
0
100
AcDbLine
 62
7
  6
CONTINUOUS
 10
257.48020993
 20
459.6962486671
 11
250.1060048347
 21
459.4387357507
  0
LINE
  5
36E
100
AcDbEntity
  8
0
100
AcDbLine
 62
7
  6
CONTINUOUS
 10
244.5467934203
 20
459.2446038104
 11
238.4418146753
 21
459.0314132549
  0
LINE
  5
36F
100
AcDbEntity
  8
0
100
AcDbLine
 62
7
  6
CONTINUOUS
 10
261.7366490505
 20
459.8448867964
 11
274.4289125537
 21
460.2881104046
  0
LINE
  5
370
100
AcDbEntity
  8
0
100
AcDbLine
 62
7
  6
CONTINUOUS
 10
79.3177147974
 20
453.5364918667
 11
82.2857771649
 21
453.6401388885
  0
LINE
  5
371
100
AcDbEntity
  8
0
100
AcDbLine
 62
7
  6
CONTINUOUS
 10
238.4152212588
 20
459.7929490651
 11
231.053708427
 21
459.5358793724
  0
LINE
  5
372
100
AcDbEntity
  8
0
100
AcDbLine
 62
7
  6
CONTINUOUS
 10
261.710055634
 20
460.6064226066
 11
274.4023191372
 21
461.0496462147
  0
LINE
  5
373
100
AcDbEntity
  8
0
100
AcDbLine
 62
7
  6
CONTINUOUS
 10
159.0240554952
 20
452.3313455335
 11
162.1990554952
 21
452.3313455335
  0
LINE
  5
374
100
AcDbEntity
  8
0
100
AcDbLine
 62
7
  6
CONTINUOUS
 10
168.2188554952
 20
454.9475455335
 11
179.7194795948
 21
454.9475455335
  0
LINE
  5
375
100
AcDbEntity
  8
0
100
AcDbLine
 62
7
  6
CONTINUOUS
 10
138.5770554952
 20
459.9513455335
 11
162.1990554952
 21
459.9513455335
  0
LINE
  5
376
100
AcDbEntity
  8
0
100
AcDbLine
 62
7
  6
CONTINUOUS
 10
268.242168998
 20
461.6908769267
 11
267.480168998
 21
461.6908769267
  0
LINE
  5
377
100
AcDbEntity
  8
0
100
AcDbLine
 62
7
  6
CONTINUOUS
 10
263.7624894674
 20
464.2472928829
 11
263.6446400385
 21
464.2536954426
  0
LINE
  5
378
100
AcDbEntity
  8
0
100
AcDbLine
 62
7
  6
CONTINUOUS
 10
270.9305451806
 20
462.8044388023
 11
270.8192163517
 21
462.8436226324
  0
LINE
  5
379
100
AcDbEntity
  8
0
100
AcDbLine
 62
7
  6
CONTINUOUS
 10
264.7917928155
 20
470.0208219019
 11
264.9031216443
 21
469.9816380718
  0
LINE
  5
37A
100
AcDbEntity
  8
0
100
AcDbLine
 62
7
  6
CONTINUOUS
 10
266.4062302923
 20
461.9044966171
 11
265.7022340885
 21
462.1961013925
  0
LINE
  5
37B
100
AcDbEntity
  8
0
100
AcDbLine
 62
7
  6
CONTINUOUS
 10
269.3161077037
 20
470.9207640871
 11
270.0201039075
 21
470.6291593116
  0
LINE
  5
37C
100
AcDbEntity
  8
0
100
AcDbLine
 62
7
  6
CONTINUOUS
 10
263.2458440944
 20
465.9806161342
 11
263.1394155726
 21
466.0316303521
  0
LINE
  5
37D
100
AcDbEntity
  8
0
100
AcDbLine
 62
7
  6
CONTINUOUS
 10
272.4764939016
 20
466.8446445699
 11
272.5829224234
 21
466.7936303521
  0
LINE
  5
37E
100
AcDbEntity
  8
0
100
AcDbLine
 62
7
  6
CONTINUOUS
 10
346.7785437211
 20
437.6006043394
 11
346.629405742
 21
438.6598255557
  0
LINE
  5
37F
100
AcDbEntity
  8
0
100
AcDbLine
 62
7
  6
CONTINUOUS
 10
368.0030663707
 20
430.2976758781
 11
366.0723895796
 21
414.5405152161
  0
LINE
  5
380
100
AcDbEntity
  8
0
100
AcDbLine
 62
7
  6
CONTINUOUS
 10
366.8287332914
 20
414.4478427301
 11
368.7594100824
 21
430.2050033921
  0
LINE
  5
381
100
AcDbEntity
  8
0
100
AcDbLine
 62
7
  6
CONTINUOUS
 10
272.0776979576
 20
464.2536954426
 11
271.9598485286
 21
464.2472928829
  0
LINE
  5
382
100
AcDbEntity
  8
0
100
AcDbLine
 62
7
  6
CONTINUOUS
 10
263.6446400385
 20
468.5715652616
 11
263.7624894674
 21
468.5779678213
  0
LINE
  5
383
100
AcDbEntity
  8
0
100
AcDbLine
 62
7
  6
CONTINUOUS
 10
275.547749633
 20
466.6810516625
 11
274.2073007496
 21
466.6342421561
  0
LINE
  5
384
100
AcDbEntity
  8
0
100
AcDbLine
 62
7
  6
CONTINUOUS
 10
261.5150372465
 20
466.191018548
 11
260.174588363
 21
466.1442090415
  0
LINE
  5
385
100
AcDbEntity
  8
0
100
AcDbLine
 62
7
  6
CONTINUOUS
 10
263.2786505369
 20
465.7141303521
 11
272.4436874592
 21
465.7141303521
  0
LINE
  5
386
100
AcDbEntity
  8
0
100
AcDbLine
 62
7
  6
CONTINUOUS
 10
108.0208554952
 20
466.7331455335
 11
99.3362646871
 21
466.7331455335
  0
LINE
  5
387
100
AcDbEntity
  8
0
100
AcDbLine
 62
7
  6
CONTINUOUS
 10
272.4436874592
 20
467.1111303521
 11
263.2786505369
 21
467.1111303521
  0
LINE
  5
388
100
AcDbEntity
  8
0
100
AcDbLine
 62
7
  6
CONTINUOUS
 10
267.480168998
 20
471.1343837774
 11
268.242168998
 21
471.1343837774
  0
LINE
  5
389
100
AcDbEntity
  8
0
100
AcDbLine
 62
7
  6
CONTINUOUS
 10
293.9488554952
 20
479.3315455335
 11
221.5588554952
 21
479.3315455335
  0
LINE
  5
38A
100
AcDbEntity
  8
0
100
AcDbLine
 62
7
  6
CONTINUOUS
 10
161.8688554952
 20
479.3315455335
 11
60.5228554952
 21
479.3315455335
  0
LINE
  5
38B
100
AcDbEntity
  8
0
100
AcDbLine
 62
7
  6
CONTINUOUS
 10
271.9598485286
 20
468.5779678213
 11
272.0776979576
 21
468.5715652616
  0
LINE
  5
38C
100
AcDbEntity
  8
0
100
AcDbLine
 62
7
  6
CONTINUOUS
 10
382.5215671898
 20
452.4988542286
 11
382.15813148
 21
462.9062912658
  0
LINE
  5
38D
100
AcDbEntity
  8
0
100
AcDbLine
 62
7
  6
CONTINUOUS
 10
392.0788038864
 20
411.6739030776
 11
393.9322536058
 21
426.8007773132
  0
LINE
  5
38E
100
AcDbEntity
  8
0
100
AcDbLine
 62
7
  6
CONTINUOUS
 10
60.5228554952
 20
480.8555455335
 11
293.9488554952
 21
480.8555455335
  0
LINE
  5
38F
100
AcDbEntity
  8
0
100
AcDbLine
 62
7
  6
CONTINUOUS
 10
60.5228554952
 20
483.5225455335
 11
293.9488554952
 21
483.5225455335
  0
LINE
  5
390
100
AcDbEntity
  8
0
100
AcDbLine
 62
7
  6
CONTINUOUS
 10
495.7392407014
 20
401.4037517488
 11
497.0057646764
 21
411.7404491431
  0
ARC
  5
391
100
AcDbEntity
  8
0
100
AcDbCircle
 62
7
  6
CONTINUOUS
 10
116.1488554952
 20
349.7915455335
 40
12.7
100
AcDbArc
 50
265.37479279
 51
298.5764254751
  0
ARC
  5
392
100
AcDbEntity
  8
0
100
AcDbCircle
 62
7
  6
CONTINUOUS
 10
116.1488554952
 20
349.7915455335
 40
12.7
100
AcDbArc
 50
65.2103725321
 51
219.2886732327
  0
CIRCLE
  5
393
100
AcDbEntity
  8
0
100
AcDbCircle
 62
7
  6
CONTINUOUS
 10
120.0576382643
 20
331.4021684268
 40
7.9375
  0
ARC
  5
394
100
AcDbEntity
  8
0
100
AcDbCircle
 62
7
  6
CONTINUOUS
 10
116.433950683
 20
320.8066227745
 40
7.62
100
AcDbArc
 50
204.0
 51
275.9999999999
  0
ARC
  5
395
100
AcDbEntity
  8
0
100
AcDbCircle
 62
7
  6
CONTINUOUS
 10
109.9970886568
 20
335.2640515938
 40
7.62
100
AcDbArc
 50
114.0
 51
204.0
  0
ARC
  5
396
100
AcDbEntity
  8
0
100
AcDbCircle
 62
7
  6
CONTINUOUS
 10
108.0208554952
 20
392.9715455335
 40
15.3396454307
100
AcDbArc
 50
167.7397921966
 51
192.1840084459
  0
ARC
  5
397
100
AcDbEntity
  8
0
100
AcDbCircle
 62
7
  6
CONTINUOUS
 10
108.0208554952
 20
392.9715455335
 40
15.1196749782
100
AcDbArc
 50
176.1660797365
 51
189.8114170971
  0
ARC
  5
398
100
AcDbEntity
  8
0
100
AcDbCircle
 62
7
  6
CONTINUOUS
 10
109.3895380955
 20
357.2365618353
 40
12.7
100
AcDbArc
 50
294.0
 51
24.0
  0
ARC
  5
399
100
AcDbEntity
  8
0
100
AcDbCircle
 62
7
  6
CONTINUOUS
 10
108.0208554952
 20
392.9715455335
 40
10.414
100
AcDbArc
 50
119.4797793414
 51
211.742372371
  0
ARC
  5
39A
100
AcDbEntity
  8
0
100
AcDbCircle
 62
7
  6
CONTINUOUS
 10
108.0208554952
 20
392.9715455335
 40
8.2804
100
AcDbArc
 50
207.3894636973
 51
220.3096349686
  0
ARC
  5
39B
100
AcDbEntity
  8
0
100
AcDbCircle
 62
7
  6
CONTINUOUS
 10
108.0208554952
 20
392.9715455335
 40
8.2804
100
AcDbArc
 50
117.6017084707
 51
152.6105363027
  0
ARC
  5
39C
100
AcDbEntity
  8
0
100
AcDbCircle
 62
7
  6
CONTINUOUS
 10
108.0208554952
 20
392.9715455335
 40
6.4135
100
AcDbArc
 50
206.2097940374
 51
226.2575653167
  0
ARC
  5
39D
100
AcDbEntity
  8
0
100
AcDbCircle
 62
7
  6
CONTINUOUS
 10
108.0208554952
 20
392.9715455335
 40
6.4135
100
AcDbArc
 50
233.0891728828
 51
234.6568353524
  0
ARC
  5
39E
100
AcDbEntity
  8
0
100
AcDbCircle
 62
7
  6
CONTINUOUS
 10
108.0208554952
 20
392.9715455335
 40
6.4135
100
AcDbArc
 50
119.3295826809
 51
153.7325234315
  0
ARC
  5
39F
100
AcDbEntity
  8
0
100
AcDbCircle
 62
7
  6
CONTINUOUS
 10
108.0208554952
 20
392.9715455335
 40
6.35
100
AcDbArc
 50
119.4566056309
 51
234.9325862043
  0
ARC
  5
3A0
100
AcDbEntity
  8
0
100
AcDbCircle
 62
7
  6
CONTINUOUS
 10
108.0208554952
 20
392.9715455335
 40
5.588
100
AcDbArc
 50
120.0058728898
 51
247.2402085639
  0
CIRCLE
  5
3A1
100
AcDbEntity
  8
0
100
AcDbCircle
 62
7
  6
CONTINUOUS
 10
119.1967560023
 20
385.7922890529
 40
2.1971
  0
ARC
  5
3A2
100
AcDbEntity
  8
0
100
AcDbCircle
 62
7
  6
CONTINUOUS
 10
101.6159000717
 20
389.6530261374
 40
1.0668
100
AcDbArc
 50
104.9999999997
 51
207.3894636971
  0
ARC
  5
3A3
100
AcDbEntity
  8
0
100
AcDbCircle
 62
7
  6
CONTINUOUS
 10
161.3608554952
 20
349.7915455335
 40
31.75
100
AcDbArc
 50
276.0000000001
 51
24.0
  0
ARC
  5
3A4
100
AcDbEntity
  8
0
100
AcDbCircle
 62
7
  6
CONTINUOUS
 10
161.3608554952
 20
349.7915455335
 40
8.636
100
AcDbArc
 50
219.0200293082
 51
140.9799706918
  0
ARC
  5
3A5
100
AcDbEntity
  8
0
100
AcDbCircle
 62
7
  6
CONTINUOUS
 10
161.3608554952
 20
349.7915455335
 40
6.858
100
AcDbArc
 50
278.5652811076
 51
332.8434205484
  0
ARC
  5
3A6
100
AcDbEntity
  8
0
100
AcDbCircle
 62
7
  6
CONTINUOUS
 10
161.3608554952
 20
349.7915455335
 40
6.858
100
AcDbArc
 50
27.1565794516
 51
81.4347188924
  0
ARC
  5
3A7
100
AcDbEntity
  8
0
100
AcDbCircle
 62
7
  6
CONTINUOUS
 10
161.3608554952
 20
349.7915455335
 40
4.7625
100
AcDbArc
 50
272.3854859497
 51
343.4976951657
  0
ARC
  5
3A8
100
AcDbEntity
  8
0
100
AcDbCircle
 62
7
  6
CONTINUOUS
 10
161.3608554952
 20
349.7915455335
 40
4.7625
100
AcDbArc
 50
19.6954666828
 51
59.7991660565
  0
ARC
  5
3A9
100
AcDbEntity
  8
0
100
AcDbCircle
 62
7
  6
CONTINUOUS
 10
161.3608554952
 20
349.7915455335
 40
4.7625
100
AcDbArc
 50
66.313740271
 51
80.7804368567
  0
ARC
  5
3AA
100
AcDbEntity
  8
0
100
AcDbCircle
 62
7
  6
CONTINUOUS
 10
161.3608554952
 20
349.7915455335
 40
4.7625
100
AcDbArc
 50
85.3316333019
 51
92.3854859497
  0
ARC
  5
3AB
100
AcDbEntity
  8
0
100
AcDbCircle
 62
7
  6
CONTINUOUS
 10
161.3608554952
 20
349.7915455335
 40
4.7625
100
AcDbArc
 50
135.1052846833
 51
225.9188473849
  0
CIRCLE
  5
3AC
100
AcDbEntity
  8
0
100
AcDbCircle
 62
7
  6
CONTINUOUS
 10
161.3608554952
 20
349.7915455335
 40
4.6736
  0
CIRCLE
  5
3AD
100
AcDbEntity
  8
0
100
AcDbCircle
 62
7
  6
CONTINUOUS
 10
161.3608554952
 20
349.7915455335
 40
4.1656
  0
ARC
  5
3AE
100
AcDbEntity
  8
0
100
AcDbCircle
 62
7
  6
CONTINUOUS
 10
155.34201041
 20
354.668994953
 40
0.889
100
AcDbArc
 50
140.9799706918
 51
260.0000000001
  0
ARC
  5
3AF
100
AcDbEntity
  8
0
100
AcDbCircle
 62
7
  6
CONTINUOUS
 10
155.34201041
 20
344.914096114
 40
0.889
100
AcDbArc
 50
100.0000000004
 51
219.0200293082
  0
ARC
  5
3B0
100
AcDbEntity
  8
0
100
AcDbCircle
 62
7
  6
CONTINUOUS
 10
162.2498554952
 20
343.8891189139
 40
0.889
100
AcDbArc
 50
180.0
 51
278.565281108
  0
ARC
  5
3B1
100
AcDbEntity
  8
0
100
AcDbCircle
 62
7
  6
CONTINUOUS
 10
166.6718479836
 20
347.0671520617
 40
0.889
100
AcDbArc
 50
332.8434205486
 51
75.0000000005
  0
ARC
  5
3B2
100
AcDbEntity
  8
0
100
AcDbCircle
 62
7
  6
CONTINUOUS
 10
166.6718479836
 20
352.5159390052
 40
0.889
100
AcDbArc
 50
284.9999999995
 51
27.1565794514
  0
ARC
  5
3B3
100
AcDbEntity
  8
0
100
AcDbCircle
 62
7
  6
CONTINUOUS
 10
162.2498554952
 20
355.6939721531
 40
0.889
100
AcDbArc
 50
81.434718892
 51
180.0
  0
ARC
  5
3B4
100
AcDbEntity
  8
0
100
AcDbCircle
 62
7
  6
CONTINUOUS
 10
108.0208554952
 20
424.7215455335
 40
11.2263019129
100
AcDbArc
 50
51.2930094234
 51
121.497602634
  0
ARC
  5
3B5
100
AcDbEntity
  8
0
100
AcDbCircle
 62
7
  6
CONTINUOUS
 10
108.0208554952
 20
424.7215455335
 40
11.2263019129
100
AcDbArc
 50
146.5330010258
 51
233.7159085773
  0
ARC
  5
3B6
100
AcDbEntity
  8
0
100
AcDbCircle
 62
7
  6
CONTINUOUS
 10
108.0208554952
 20
424.7215455335
 40
8.636
100
AcDbArc
 50
55.2425117354
 51
117.1393171697
  0
ARC
  5
3B7
100
AcDbEntity
  8
0
100
AcDbCircle
 62
7
  6
CONTINUOUS
 10
108.0208554952
 20
424.7215455335
 40
8.636
100
AcDbArc
 50
154.9665094395
 51
233.392128839
  0
ARC
  5
3B8
100
AcDbEntity
  8
0
100
AcDbCircle
 62
7
  6
CONTINUOUS
 10
100.317788254
 20
413.2536833639
 40
6.7056
100
AcDbArc
 50
264.0
 51
278.3602459398
  0
ARC
  5
3B9
100
AcDbEntity
  8
0
100
AcDbCircle
 62
7
  6
CONTINUOUS
 10
96.969276279
 20
420.1039582218
 40
6.35
100
AcDbArc
 50
339.0000000005
 51
24.0
  0
ARC
  5
3BA
100
AcDbEntity
  8
0
100
AcDbCircle
 62
7
  6
CONTINUOUS
 10
106.7203340754
 20
410.0678952641
 40
6.35
100
AcDbArc
 50
158.9999999988
 51
181.0896795897
  0
ARC
  5
3BB
100
AcDbEntity
  8
0
100
AcDbCircle
 62
7
  6
CONTINUOUS
 10
66.8728554952
 20
422.2234281379
 40
6.35
100
AcDbArc
 50
180.0
 51
216.1736290455
  0
ARC
  5
3BC
100
AcDbEntity
  8
0
100
AcDbCircle
 62
7
  6
CONTINUOUS
 10
108.0208554952
 20
424.7215455335
 40
5.6134
100
AcDbArc
 50
77.3902170249
 51
96.2662401646
  0
ARC
  5
3BD
100
AcDbEntity
  8
0
100
AcDbCircle
 62
7
  6
CONTINUOUS
 10
115.7297115026
 20
421.5068669259
 40
4.5821713522
100
AcDbArc
 50
15.9727829476
 51
23.9866903114
  0
ARC
  5
3BE
100
AcDbEntity
  8
0
100
AcDbCircle
 62
7
  6
CONTINUOUS
 10
100.317788254
 20
413.2536833639
 40
3.302
100
AcDbArc
 50
264.0
 51
294.0
  0
ARC
  5
3BF
100
AcDbEntity
  8
0
100
AcDbCircle
 62
7
  6
CONTINUOUS
 10
115.1298531459
 20
421.2495767213
 40
2.2960031384
100
AcDbArc
 50
294.0425481852
 51
310.2369567711
  0
ARC
  5
3C0
100
AcDbEntity
  8
0
100
AcDbCircle
 62
7
  6
CONTINUOUS
 10
115.1345829679
 20
421.2405254614
 40
2.2860555506
100
AcDbArc
 50
310.2929987533
 51
24.0047625944
  0
ARC
  5
3C1
100
AcDbEntity
  8
0
100
AcDbCircle
 62
7
  6
CONTINUOUS
 10
115.7419733535
 20
421.5091874468
 40
2.2841969862
100
AcDbArc
 50
294.0009558587
 51
324.0454513711
  0
ARC
  5
3C2
100
AcDbEntity
  8
0
100
AcDbCircle
 62
7
  6
CONTINUOUS
 10
101.6159000717
 20
396.2900649296
 40
1.0668
100
AcDbArc
 50
152.6105363029
 51
255.0000000003
  0
ARC
  5
3C3
100
AcDbEntity
  8
0
100
AcDbCircle
 62
7
  6
CONTINUOUS
 10
108.0208554952
 20
455.5571455335
 40
11.176
100
AcDbArc
 50
356.7408370039
 51
90.0
  0
ARC
  5
3C4
100
AcDbEntity
  8
0
100
AcDbCircle
 62
7
  6
CONTINUOUS
 10
108.0208554952
 20
455.5571455335
 40
7.9375
100
AcDbArc
 50
339.1053729502
 51
243.3418524504
  0
CIRCLE
  5
3C5
100
AcDbEntity
  8
0
100
AcDbCircle
 62
7
  6
CONTINUOUS
 10
132.0516843002
 20
446.8451572121
 40
7.9375
  0
ARC
  5
3C6
100
AcDbEntity
  8
0
100
AcDbCircle
 62
7
  6
CONTINUOUS
 10
108.0208554952
 20
455.5571455335
 40
7.5565
100
AcDbArc
 50
342.0391260378
 51
245.8074233381
  0
CIRCLE
  5
3C7
100
AcDbEntity
  8
0
100
AcDbCircle
 62
7
  6
CONTINUOUS
 10
132.0516843002
 20
446.8451572121
 40
7.5565
  0
CIRCLE
  5
3C8
100
AcDbEntity
  8
0
100
AcDbCircle
 62
7
  6
CONTINUOUS
 10
108.847629676
 20
436.5140464779
 40
6.4135
  0
ARC
  5
3C9
100
AcDbEntity
  8
0
100
AcDbCircle
 62
7
  6
CONTINUOUS
 10
99.3362646871
 20
460.3831455335
 40
6.35
100
AcDbArc
 50
90.0
 51
180.0
  0
ARC
  5
3CA
100
AcDbEntity
  8
0
100
AcDbCircle
 62
7
  6
CONTINUOUS
 10
133.8776769952
 20
454.6090819076
 40
6.35
100
AcDbArc
 50
24.0
 51
114.0
  0
ARC
  5
3CB
100
AcDbEntity
  8
0
100
AcDbCircle
 62
7
  6
CONTINUOUS
 10
101.8560816139
 20
440.3521490945
 40
6.35
100
AcDbArc
 50
114.0
 51
204.0
  0
ARC
  5
3CC
100
AcDbEntity
  8
0
100
AcDbCircle
 62
7
  6
CONTINUOUS
 10
138.5991805436
 20
431.6890105608
 40
4.5821713522
100
AcDbArc
 50
204.0133096886
 51
212.0272170526
  0
ARC
  5
3CD
100
AcDbEntity
  8
0
100
AcDbCircle
 62
7
  6
CONTINUOUS
 10
139.2049762082
 20
431.9587281681
 40
4.5821713522
100
AcDbArc
 50
204.0133096886
 51
212.0272170526
  0
ARC
  5
3CE
100
AcDbEntity
  8
0
100
AcDbCircle
 62
7
  6
CONTINUOUS
 10
139.1918298189
 20
431.9619318646
 40
2.2953387446
100
AcDbArc
 50
279.4828493309
 51
293.9631328556
  0
ARC
  5
3CF
100
AcDbEntity
  8
0
100
AcDbCircle
 62
7
  6
CONTINUOUS
 10
139.1952780813
 20
431.9529955492
 40
2.2859799139
100
AcDbArc
 50
203.9942855359
 51
279.4345038511
  0
CIRCLE
  5
3D0
100
AcDbEntity
  8
0
100
AcDbCircle
 62
7
  6
CONTINUOUS
 10
66.8728554952
 20
462.8215455335
 40
2.0193
  0
ARC
  5
3D1
100
AcDbEntity
  8
0
100
AcDbCircle
 62
7
  6
CONTINUOUS
 10
141.7520554952
 20
451.6963455335
 40
0.635
100
AcDbArc
 50
0.0
 51
81.3343252733
  0
ARC
  5
3D2
100
AcDbEntity
  8
0
100
AcDbCircle
 62
7
  6
CONTINUOUS
 10
225.6866235907
 20
393.7379215949
 40
3.048
100
AcDbArc
 50
88.0145414155
 51
178.0145414155
  0
CIRCLE
  5
3D3
100
AcDbEntity
  8
0
100
AcDbCircle
 62
7
  6
CONTINUOUS
 10
162.8203786957
 20
405.2147772331
 40
2.1971
  0
ARC
  5
3D4
100
AcDbEntity
  8
0
100
AcDbCircle
 62
7
  6
CONTINUOUS
 10
153.1284433237
 20
430.7301167323
 40
6.35
100
AcDbArc
 50
44.4926261595
 51
69.0000000002
  0
ARC
  5
3D5
100
AcDbEntity
  8
0
100
AcDbCircle
 62
7
  6
CONTINUOUS
 10
152.1949262845
 20
444.692001769
 40
6.35
100
AcDbArc
 50
204.0
 51
249.0000000006
  0
ARC
  5
3D6
100
AcDbEntity
  8
0
100
AcDbCircle
 62
7
  6
CONTINUOUS
 10
168.2188554952
 20
461.2975455335
 40
6.35
100
AcDbArc
 50
180.0
 51
270.0
  0
ARC
  5
3D7
100
AcDbEntity
  8
0
100
AcDbCircle
 62
7
  6
CONTINUOUS
 10
215.2088554952
 20
461.2975455335
 40
6.35
100
AcDbArc
 50
320.2730061379
 51
360.0
  0
ARC
  5
3D8
100
AcDbEntity
  8
0
100
AcDbCircle
 62
7
  6
CONTINUOUS
 10
223.3126014586
 20
447.0661223962
 40
0.762
100
AcDbArc
 50
201.4712206345
 51
217.3363041564
  0
ARC
  5
3D9
100
AcDbEntity
  8
0
100
AcDbCircle
 62
7
  6
CONTINUOUS
 10
222.9580225727
 20
457.2199331987
 40
0.762
100
AcDbArc
 50
92.0
 51
162.5287793655
  0
ARC
  5
3DA
100
AcDbEntity
  8
0
100
AcDbCircle
 62
7
  6
CONTINUOUS
 10
159.0240554952
 20
451.6963455335
 40
0.635
100
AcDbArc
 50
90.0
 51
180.0
  0
ARC
  5
3DB
100
AcDbEntity
  8
0
100
AcDbCircle
 62
7
  6
CONTINUOUS
 10
159.0240554952
 20
438.9963455335
 40
0.635
100
AcDbArc
 50
90.0
 51
180.0
  0
CIRCLE
  5
3DC
100
AcDbEntity
  8
0
100
AcDbCircle
 62
7
  6
CONTINUOUS
 10
251.0228554952
 20
379.0015455335
 40
1.5494
  0
CIRCLE
  5
3DD
100
AcDbEntity
  8
0
100
AcDbCircle
 62
7
  6
CONTINUOUS
 10
282.7728554952
 20
379.0015455335
 40
1.5494
  0
ARC
  5
3DE
100
AcDbEntity
  8
0
100
AcDbCircle
 62
7
  6
CONTINUOUS
 10
233.5950759638
 20
413.7961318129
 40
7.6912659464
100
AcDbArc
 50
182.9999999996
 51
298.4299744246
  0
ARC
  5
3DF
100
AcDbEntity
  8
0
100
AcDbCircle
 62
7
  6
CONTINUOUS
 10
233.5950759638
 20
413.7961318129
 40
7.5759154899
100
AcDbArc
 50
183.0
 51
299.2999648315
  0
ARC
  5
3E0
100
AcDbEntity
  8
0
100
AcDbCircle
 62
7
  6
CONTINUOUS
 10
233.5950759638
 20
413.7961318129
 40
6.35
100
AcDbArc
 50
182.9999999995
 51
306.6103418071
  0
ARC
  5
3E1
100
AcDbEntity
  8
0
100
AcDbCircle
 62
7
  6
CONTINUOUS
 10
249.800943962
 20
431.533150641
 40
3.048
100
AcDbArc
 50
88.0145414155
 51
158.0145414143
  0
ARC
  5
3E2
100
AcDbEntity
  8
0
100
AcDbCircle
 62
7
  6
CONTINUOUS
 10
230.3649087288
 20
399.6754029622
 40
3.048
100
AcDbArc
 50
268.0145414155
 51
338.0145414129
  0
CIRCLE
  5
3E3
100
AcDbEntity
  8
0
100
AcDbCircle
 62
7
  6
CONTINUOUS
 10
246.7586747645
 20
407.7482734579
 40
2.4892
  0
CIRCLE
  5
3E4
100
AcDbEntity
  8
0
100
AcDbCircle
 62
7
  6
CONTINUOUS
 10
233.5950759638
 20
413.7961318129
 40
2.0193
  0
ARC
  5
3E5
100
AcDbEntity
  8
0
100
AcDbCircle
 62
7
  6
CONTINUOUS
 10
232.2657426752
 20
439.1613219957
 40
7.6912659464
100
AcDbArc
 50
24.0667110387
 51
52.2686691349
  0
ARC
  5
3E6
100
AcDbEntity
  8
0
100
AcDbCircle
 62
7
  6
CONTINUOUS
 10
232.2657426752
 20
439.1613219957
 40
7.6912659464
100
AcDbArc
 50
107.3073405307
 51
118.3165623973
  0
ARC
  5
3E7
100
AcDbEntity
  8
0
100
AcDbCircle
 62
7
  6
CONTINUOUS
 10
232.2657426752
 20
439.1613219957
 40
7.5759154899
100
AcDbArc
 50
107.4743803638
 51
116.9796071465
  0
ARC
  5
3E8
100
AcDbEntity
  8
0
100
AcDbCircle
 62
7
  6
CONTINUOUS
 10
232.2657426752
 20
439.1613219957
 40
7.5759154899
100
AcDbArc
 50
24.5121567917
 51
53.1198721277
  0
ARC
  5
3E9
100
AcDbEntity
  8
0
100
AcDbCircle
 62
7
  6
CONTINUOUS
 10
232.2657426752
 20
439.1613219957
 40
6.35
100
AcDbArc
 50
33.1427863799
 51
86.765681689
  0
ARC
  5
3EA
100
AcDbEntity
  8
0
100
AcDbCircle
 62
7
  6
CONTINUOUS
 10
231.5235254516
 20
446.082080059
 40
0.762
100
AcDbArc
 50
217.3056627528
 51
272.0
  0
ARC
  5
3EB
100
AcDbEntity
  8
0
100
AcDbCircle
 62
7
  6
CONTINUOUS
 10
231.5235254516
 20
446.082080059
 40
0.762
100
AcDbArc
 50
182.0000001755
 51
200.3084769697
  0
ARC
  5
3EC
100
AcDbEntity
  8
0
100
AcDbCircle
 62
7
  6
CONTINUOUS
 10
231.0803018435
 20
458.7743435622
 40
0.762
100
AcDbArc
 50
92.0
 51
181.9999998245
  0
ARC
  5
3ED
100
AcDbEntity
  8
0
100
AcDbCircle
 62
7
  6
CONTINUOUS
 10
268.7476162143
 20
441.0281033458
 40
7.6912659464
100
AcDbArc
 50
181.999999999
 51
189.630524427
  0
ARC
  5
3EE
100
AcDbEntity
  8
0
100
AcDbCircle
 62
7
  6
CONTINUOUS
 10
268.7476162143
 20
441.0281033458
 40
7.6912659464
100
AcDbArc
 50
352.7839349557
 51
2.0000000039
  0
ARC
  5
3EF
100
AcDbEntity
  8
0
100
AcDbCircle
 62
7
  6
CONTINUOUS
 10
268.7476162143
 20
441.0281033458
 40
7.5759154899
100
AcDbArc
 50
352.7471739256
 51
2.0
  0
ARC
  5
3F0
100
AcDbEntity
  8
0
100
AcDbCircle
 62
7
  6
CONTINUOUS
 10
268.7476162143
 20
441.0281033458
 40
7.5759154899
100
AcDbArc
 50
182.0
 51
189.810465318
  0
ARC
  5
3F1
100
AcDbEntity
  8
0
100
AcDbCircle
 62
7
  6
CONTINUOUS
 10
268.7476162143
 20
441.0281033458
 40
4.6355
100
AcDbArc
 50
343.7619201123
 51
351.2478932066
  0
ARC
  5
3F2
100
AcDbEntity
  8
0
100
AcDbCircle
 62
7
  6
CONTINUOUS
 10
268.7476162143
 20
441.0281033458
 40
4.6355
100
AcDbArc
 50
188.7521067934
 51
201.6292680852
  0
ARC
  5
3F3
100
AcDbEntity
  8
0
100
AcDbCircle
 62
7
  6
CONTINUOUS
 10
268.7476162143
 20
441.0281033458
 40
4.6355
100
AcDbArc
 50
8.7521067934
 51
171.2478932066
  0
ARC
  5
3F4
100
AcDbEntity
  8
0
100
AcDbCircle
 62
7
  6
CONTINUOUS
 10
268.7476162143
 20
441.0281033458
 40
4.6354479499
100
AcDbArc
 50
171.3332805193
 51
188.6667194807
  0
ARC
  5
3F5
100
AcDbEntity
  8
0
100
AcDbCircle
 62
7
  6
CONTINUOUS
 10
268.7476162143
 20
441.0281033458
 40
4.6354479499
100
AcDbArc
 50
351.3332805193
 51
8.6667194807
  0
ARC
  5
3F6
100
AcDbEntity
  8
0
100
AcDbCircle
 62
7
  6
CONTINUOUS
 10
268.7476162143
 20
441.0281033458
 40
3.0861
100
AcDbArc
 50
13.0815374139
 51
166.9184625861
  0
ARC
  5
3F7
100
AcDbEntity
  8
0
100
AcDbCircle
 62
7
  6
CONTINUOUS
 10
268.7476162143
 20
441.0281033458
 40
3.0861
100
AcDbArc
 50
309.2916679517
 51
346.9184625861
  0
ARC
  5
3F8
100
AcDbEntity
  8
0
100
AcDbCircle
 62
7
  6
CONTINUOUS
 10
268.7476162143
 20
441.0281033458
 40
3.0861
100
AcDbArc
 50
193.0815374139
 51
217.7732763282
  0
ARC
  5
3F9
100
AcDbEntity
  8
0
100
AcDbCircle
 62
7
  6
CONTINUOUS
 10
274.5872361429
 20
437.0277070108
 40
3.048
100
AcDbArc
 50
88.0145414155
 51
158.0145414154
  0
ARC
  5
3FA
100
AcDbEntity
  8
0
100
AcDbCircle
 62
7
  6
CONTINUOUS
 10
268.0027100496
 20
437.0018180021
 40
3.048
100
AcDbArc
 50
268.0145414155
 51
338.0145414156
  0
ARC
  5
3FB
100
AcDbEntity
  8
0
100
AcDbCircle
 62
7
  6
CONTINUOUS
 10
268.0827808021
 20
460.0664986005
 40
12.7
100
AcDbArc
 50
62.0
 51
122.0
  0
ARC
  5
3FC
100
AcDbEntity
  8
0
100
AcDbCircle
 62
7
  6
CONTINUOUS
 10
267.861168998
 20
466.4126303521
 40
7.6912659464
100
AcDbArc
 50
1.9999999991
 51
32.5909060515
  0
ARC
  5
3FD
100
AcDbEntity
  8
0
100
AcDbCircle
 62
7
  6
CONTINUOUS
 10
267.861168998
 20
466.4126303521
 40
7.6912659464
100
AcDbArc
 50
40.7510134473
 51
143.099888565
  0
ARC
  5
3FE
100
AcDbEntity
  8
0
100
AcDbCircle
 62
7
  6
CONTINUOUS
 10
267.861168998
 20
466.4126303521
 40
7.6912659464
100
AcDbArc
 50
151.1201929607
 51
182.0000000047
  0
ARC
  5
3FF
100
AcDbEntity
  8
0
100
AcDbCircle
 62
7
  6
CONTINUOUS
 10
267.861168998
 20
466.4126303521
 40
7.5759154899
100
AcDbArc
 50
42.3121008354
 51
141.528081501
  0
ARC
  5
400
100
AcDbEntity
  8
0
100
AcDbCircle
 62
7
  6
CONTINUOUS
 10
267.861168998
 20
466.4126303521
 40
7.5759154899
100
AcDbArc
 50
2.0
 51
31.5171479323
  0
ARC
  5
401
100
AcDbEntity
  8
0
100
AcDbCircle
 62
7
  6
CONTINUOUS
 10
267.861168998
 20
466.4126303521
 40
7.5759154899
100
AcDbArc
 50
152.1840445436
 51
182.0
  0
ARC
  5
402
100
AcDbEntity
  8
0
100
AcDbCircle
 62
7
  6
CONTINUOUS
 10
267.861168998
 20
466.4126303521
 40
4.6355
100
AcDbArc
 50
188.7521067934
 51
351.2478932066
  0
ARC
  5
403
100
AcDbEntity
  8
0
100
AcDbCircle
 62
7
  6
CONTINUOUS
 10
267.861168998
 20
466.4126303521
 40
4.6355
100
AcDbArc
 50
8.7521067934
 51
171.2478932066
  0
ARC
  5
404
100
AcDbEntity
  8
0
100
AcDbCircle
 62
7
  6
CONTINUOUS
 10
267.861168998
 20
466.4126303521
 40
4.6354479499
100
AcDbArc
 50
171.3332805193
 51
188.6667194807
  0
ARC
  5
405
100
AcDbEntity
  8
0
100
AcDbCircle
 62
7
  6
CONTINUOUS
 10
267.861168998
 20
466.4126303521
 40
4.6354479499
100
AcDbArc
 50
351.3332805193
 51
8.6667194807
  0
ARC
  5
406
100
AcDbEntity
  8
0
100
AcDbCircle
 62
7
  6
CONTINUOUS
 10
267.861168998
 20
466.4126303521
 40
3.0861
100
AcDbArc
 50
13.0815374139
 51
166.9184625861
  0
ARC
  5
407
100
AcDbEntity
  8
0
100
AcDbCircle
 62
7
  6
CONTINUOUS
 10
267.861168998
 20
466.4126303521
 40
3.0861
100
AcDbArc
 50
193.0815374139
 51
346.9184625861
  0
ARC
  5
408
100
AcDbEntity
  8
0
100
AcDbCircle
 62
7
  6
CONTINUOUS
 10
384.960186701
 20
426.1634912612
 40
33.6916386587
100
AcDbArc
 50
169.7566248775
 51
172.9988699701
  0
ARC
  5
409
100
AcDbEntity
  8
0
100
AcDbCircle
 62
7
  6
CONTINUOUS
 10
383.52597214
 20
414.4584608741
 40
33.6916059812
100
AcDbArc
 50
173.0302118803
 51
176.2724599128
  0
SPLINE
  5
40A
100
AcDbEntity
  8
0
100
AcDbSpline
 62
7
  6
CONTINUOUS
 70
0
 71
3
 72
11
 73
7
 74
0
 42
0.0000001
 43
0.0000001
 44
0.0000000001
 40
0.0
 40
0.0
 40
0.0
 40
0.0
 40
0.263540156
 40
0.5168858987
 40
0.7611907096
 40
1.0
 40
1.0
 40
1.0
 40
1.0
 10
82.3907909854
 20
450.6329365259
 30
0.0
 10
82.4604063939
 20
450.7554190741
 30
0.0
 10
82.5875384792
 20
451.0012640187
 30
0.0
 10
82.734615949
 20
451.3817859567
 30
0.0
 10
82.8239266733
 20
451.7667950803
 30
0.0
 10
82.8387013806
 20
452.0262716102
 30
0.0
 10
82.8342459979
 20
452.1538570792
 30
0.0
  0
SPLINE
  5
40B
100
AcDbEntity
  8
0
100
AcDbSpline
 62
7
  6
CONTINUOUS
 70
0
 71
3
 72
11
 73
7
 74
0
 42
0.0000001
 43
0.0000001
 44
0.0000000001
 40
0.0
 40
0.0
 40
0.0
 40
0.0
 40
0.2417366511
 40
0.4875017666
 40
0.7399478109
 40
1.0
 40
1.0
 40
1.0
 40
1.0
 10
79.2099114687
 20
442.4037646826
 30
0.0
 10
79.2149454221
 20
442.2596111181
 30
0.0
 10
79.2487333347
 20
441.969243137
 30
0.0
 10
79.3659537751
 20
441.5421335191
 30
0.0
 10
79.5406521247
 20
441.1237249221
 30
0.0
 10
79.6863577834
 20
440.8543675009
 30
0.0
 10
79.7652503757
 20
440.7207496924
 30
0.0
  0
SPLINE
  5
40C
100
AcDbEntity
  8
0
100
AcDbSpline
 62
7
  6
CONTINUOUS
 70
0
 71
3
 72
10
 73
6
 74
0
 42
0.0000001
 43
0.0000001
 44
0.0000000001
 40
0.0
 40
0.0
 40
0.0
 40
0.0
 40
0.2500439782
 40
0.5000930679
 40
1.0
 40
1.0
 40
1.0
 40
1.0
 10
79.0386505898
 20
447.3080345885
 30
0.0
 10
79.0481147627
 20
447.0370161349
 30
0.0
 10
79.0901977244
 20
446.4954944102
 30
0.0
 10
79.2622531116
 20
445.4237771437
 30
0.0
 10
79.4779513937
 20
444.6367260372
 30
0.0
 10
79.6464964071
 20
444.1214184169
 30
0.0
  0
SPLINE
  5
40D
100
AcDbEntity
  8
0
100
AcDbSpline
 62
7
  6
CONTINUOUS
 70
0
 71
3
 72
11
 73
7
 74
0
 42
0.0000001
 43
0.0000001
 44
0.0000000001
 40
0.0
 40
0.0
 40
0.0
 40
0.0
 40
0.2600522591
 40
0.5124983058
 40
0.758263413
 40
1.0
 40
1.0
 40
1.0
 40
1.0
 10
79.6464964071
 20
444.1214184169
 30
0.0
 10
79.5771166813
 20
443.9826227877
 30
0.0
 10
79.450555176
 20
443.7037576301
 30
0.0
 10
79.3054693515
 20
443.2741817797
 30
0.0
 10
79.2183280533
 20
442.8399357579
 30
0.0
 10
79.2048775166
 20
442.5479182096
 30
0.0
 10
79.2099114687
 20
442.4037646826
 30
0.0
  0
SPLINE
  5
40E
100
AcDbEntity
  8
0
100
AcDbSpline
 62
7
  6
CONTINUOUS
 70
0
 71
3
 72
11
 73
7
 74
0
 42
0.0000001
 43
0.0000001
 44
0.0000000001
 40
0.0
 40
0.0
 40
0.0
 40
0.0
 40
0.2388093556
 40
0.4831141746
 40
0.7364598937
 40
1.0
 40
1.0
 40
1.0
 40
1.0
 10
78.8742597849
 20
452.0155713135
 30
0.0
 10
78.8787151689
 20
451.8879858097
 30
0.0
 10
78.9115540539
 20
451.6301719427
 30
0.0
 10
79.0275041308
 20
451.2523306624
 30
0.0
 10
79.2007672146
 20
450.8829953113
 30
0.0
 10
79.3447388532
 20
450.6466175435
 30
0.0
 10
79.4227286179
 20
450.5292895041
 30
0.0
  0
SPLINE
  5
40F
100
AcDbEntity
  8
0
100
AcDbSpline
 62
7
  6
CONTINUOUS
 70
0
 71
3
 72
10
 73
6
 74
0
 42
0.0000001
 43
0.0000001
 44
0.0000000001
 40
0.0
 40
0.0
 40
0.0
 40
0.0
 40
0.4999069954
 40
0.7499560679
 40
1.0
 40
1.0
 40
1.0
 40
1.0
 10
79.4227286179
 20
450.5292895041
 30
0.0
 10
79.2905401974
 20
450.0034799748
 30
0.0
 10
79.1302698916
 20
449.2032996082
 30
0.0
 10
79.0333916908
 20
448.1221911053
 30
0.0
 10
79.0291864186
 20
447.5790529923
 30
0.0
 10
79.0386505898
 20
447.3080345885
 30
0.0
  0
SPLINE
  5
410
100
AcDbEntity
  8
0
100
AcDbSpline
 62
7
  6
CONTINUOUS
 70
0
 71
3
 72
10
 73
6
 74
0
 42
0.0000001
 43
0.0000001
 44
0.0000000001
 40
0.0
 40
0.0
 40
0.0
 40
0.0
 40
0.2500439875
 40
0.5000930642
 40
1.0
 40
1.0
 40
1.0
 40
1.0
 10
82.9986368027
 20
447.4463203543
 30
0.0
 10
82.9891726294
 20
447.7173388181
 30
0.0
 10
82.9470902017
 20
448.2588605947
 30
0.0
 10
82.7750336239
 20
449.3305776817
 30
0.0
 10
82.5593360001
 20
450.1176289018
 30
0.0
 10
82.3907909854
 20
450.6329365259
 30
0.0
  0
SPLINE
  5
411
100
AcDbEntity
  8
0
100
AcDbSpline
 62
7
  6
CONTINUOUS
 70
0
 71
3
 72
11
 73
7
 74
0
 42
0.0000001
 43
0.0000001
 44
0.0000000001
 40
0.0
 40
0.0
 40
0.0
 40
0.0
 40
0.2401257995
 40
0.4849763496
 40
0.7378163443
 40
1.0
 40
1.0
 40
1.0
 40
1.0
 10
82.8342459979
 20
452.1538570792
 30
0.0
 10
82.8301580221
 20
452.2709213893
 30
0.0
 10
82.8019404308
 20
452.5070818747
 30
0.0
 10
82.7030566122
 20
452.8544320646
 30
0.0
 10
82.5544057982
 20
453.1949610513
 30
0.0
 10
82.4297393953
 20
453.413558941
 30
0.0
 10
82.3619632867
 20
453.5220195748
 30
0.0
  0
SPLINE
  5
412
100
AcDbEntity
  8
0
100
AcDbSpline
 62
7
  6
CONTINUOUS
 70
0
 71
3
 72
11
 73
7
 74
0
 42
0.0000001
 43
0.0000001
 44
0.0000000001
 40
0.0
 40
0.0
 40
0.0
 40
0.0
 40
0.2600522379
 40
0.5124983067
 40
0.7582634148
 40
1.0
 40
1.0
 40
1.0
 40
1.0
 10
82.7333127432
 20
440.8243967141
 30
0.0
 10
82.802692463
 20
440.9631923314
 30
0.0
 10
82.929253801
 20
441.2420575575
 30
0.0
 10
83.0743398622
 20
441.671633324
 30
0.0
 10
83.1614810705
 20
442.105879383
 30
0.0
 10
83.1749316337
 20
442.3978969232
 30
0.0
 10
83.1698976816
 20
442.5420504484
 30
0.0
  0
SPLINE
  5
413
100
AcDbEntity
  8
0
100
AcDbSpline
 62
7
  6
CONTINUOUS
 70
0
 71
3
 72
11
 73
7
 74
0
 42
0.0000001
 43
0.0000001
 44
0.0000000001
 40
0.0
 40
0.0
 40
0.0
 40
0.0
 40
0.2621837126
 40
0.5150237289
 40
0.7598742624
 40
1.0
 40
1.0
 40
1.0
 40
1.0
 10
79.2499538397
 20
453.4133458114
 30
0.0
 10
79.1899086389
 20
453.3004215411
 30
0.0
 10
79.080794546
 20
453.0736598085
 30
0.0
 10
78.9562599345
 20
452.7235909481
 30
0.0
 10
78.8818469523
 20
452.3701891221
 30
0.0
 10
78.8701718102
 20
452.132635593
 30
0.0
 10
78.8742597849
 20
452.0155713135
 30
0.0
  0
SPLINE
  5
414
100
AcDbEntity
  8
0
100
AcDbSpline
 62
7
  6
CONTINUOUS
 70
0
 71
3
 72
10
 73
6
 74
0
 42
0.0000001
 43
0.0000001
 44
0.0000000001
 40
0.0
 40
0.0
 40
0.0
 40
0.0
 40
0.4999069999
 40
0.7499560846
 40
1.0
 40
1.0
 40
1.0
 40
1.0
 10
82.6145587746
 20
444.2250654387
 30
0.0
 10
82.7467471962
 20
444.7508749725
 30
0.0
 10
82.9070181577
 20
445.5510552814
 30
0.0
 10
83.0038951646
 20
446.6321638793
 30
0.0
 10
83.0081009733
 20
447.1753019689
 30
0.0
 10
82.9986368027
 20
447.4463203543
 30
0.0
  0
SPLINE
  5
415
100
AcDbEntity
  8
0
100
AcDbSpline
 62
7
  6
CONTINUOUS
 70
0
 71
3
 72
11
 73
7
 74
0
 42
0.0000001
 43
0.0000001
 44
0.0000000001
 40
0.0
 40
0.0
 40
0.0
 40
0.0
 40
0.2417366528
 40
0.4875017673
 40
0.7399477896
 40
1.0
 40
1.0
 40
1.0
 40
1.0
 10
83.1698976816
 20
442.5420504484
 30
0.0
 10
83.1648637282
 20
442.6862040146
 30
0.0
 10
83.1310758412
 20
442.9765720055
 30
0.0
 10
83.0138553137
 20
443.4036815799
 30
0.0
 10
82.8391571937
 20
443.8220902768
 30
0.0
 10
82.6934513737
 20
444.0914476186
 30
0.0
 10
82.6145587746
 20
444.2250654387
 30
0.0
  0
SPLINE
  5
416
100
AcDbEntity
  8
0
100
AcDbSpline
 62
7
  6
CONTINUOUS
 70
0
 71
3
 72
10
 73
6
 74
0
 42
0.0000001
 43
0.0000001
 44
0.0000000001
 40
0.0
 40
0.0
 40
0.0
 40
0.0
 40
0.2489237658
 40
0.4983974221
 40
1.0
 40
1.0
 40
1.0
 40
1.0
 10
165.2301337128
 20
449.9448650803
 30
0.0
 10
165.2015453138
 20
449.7115417202
 30
0.0
 10
165.1673140576
 20
449.2412289662
 30
0.0
 10
165.1875441421
 20
448.2960679233
 30
0.0
 10
165.2908178845
 20
447.59126389
 30
0.0
 10
165.384845763
 20
447.127007581
 30
0.0
  0
SPLINE
  5
417
100
AcDbEntity
  8
0
100
AcDbSpline
 62
7
  6
CONTINUOUS
 70
0
 71
3
 72
10
 73
6
 74
0
 42
0.0000001
 43
0.0000001
 44
0.0000000001
 40
0.0
 40
0.0
 40
0.0
 40
0.0
 40
0.501602649
 40
0.7510762986
 40
1.0
 40
1.0
 40
1.0
 40
1.0
 10
165.384845763
 20
447.127007581
 30
0.0
 10
165.1815142517
 20
446.6991857464
 30
0.0
 10
164.9111351393
 20
446.0401641892
 30
0.0
 10
164.6633138705
 20
445.1278466624
 30
0.0
 10
164.5829852275
 20
444.6631821482
 30
0.0
 10
164.5543968359
 20
444.4298588487
 30
0.0
  0
SPLINE
  5
418
100
AcDbEntity
  8
0
100
AcDbSpline
 62
7
  6
CONTINUOUS
 70
0
 71
3
 72
10
 73
6
 74
0
 42
0.0000001
 43
0.0000001
 44
0.0000000001
 40
0.0
 40
0.0
 40
0.0
 40
0.0
 40
0.5016026513
 40
0.7510763019
 40
1.0
 40
1.0
 40
1.0
 40
1.0
 10
168.3326720869
 20
446.7658194209
 30
0.0
 10
168.5360035992
 20
447.1936412576
 30
0.0
 10
168.8063827408
 20
447.852662809
 30
0.0
 10
169.0542039665
 20
448.7649803476
 30
0.0
 10
169.1345326228
 20
449.2296448569
 30
0.0
 10
169.163121014
 20
449.4629681533
 30
0.0
  0
SPLINE
  5
419
100
AcDbEntity
  8
0
100
AcDbSpline
 62
7
  6
CONTINUOUS
 70
0
 71
3
 72
10
 73
6
 74
0
 42
0.0000001
 43
0.0000001
 44
0.0000000001
 40
0.0
 40
0.0
 40
0.0
 40
0.0
 40
0.5016026513
 40
0.7510763019
 40
1.0
 40
1.0
 40
1.0
 40
1.0
 10
167.65693521
 20
441.2508131892
 30
0.0
 10
167.8602667223
 20
441.6786350259
 30
0.0
 10
168.1306458639
 20
442.3376565773
 30
0.0
 10
168.3784670896
 20
443.2499741159
 30
0.0
 10
168.4587957459
 20
443.7146386252
 30
0.0
 10
168.4873841371
 20
443.9479619216
 30
0.0
  0
SPLINE
  5
41A
100
AcDbEntity
  8
0
100
AcDbSpline
 62
7
  6
CONTINUOUS
 70
0
 71
3
 72
10
 73
6
 74
0
 42
0.0000001
 43
0.0000001
 44
0.0000000001
 40
0.0
 40
0.0
 40
0.0
 40
0.0
 40
0.501602649
 40
0.7510762986
 40
1.0
 40
1.0
 40
1.0
 40
1.0
 10
166.0605826399
 20
452.6420138127
 30
0.0
 10
165.8572511286
 20
452.2141919781
 30
0.0
 10
165.5868720161
 20
451.5551704208
 30
0.0
 10
165.3390507473
 20
450.6428528941
 30
0.0
 10
165.2587221043
 20
450.1781883797
 30
0.0
 10
165.2301337128
 20
449.9448650803
 30
0.0
  0
SPLINE
  5
41B
100
AcDbEntity
  8
0
100
AcDbSpline
 62
7
  6
CONTINUOUS
 70
0
 71
3
 72
10
 73
6
 74
0
 42
0.0000001
 43
0.0000001
 44
0.0000000001
 40
0.0
 40
0.0
 40
0.0
 40
0.0
 40
0.2489237689
 40
0.4983974242
 40
1.0
 40
1.0
 40
1.0
 40
1.0
 10
169.163121014
 20
449.4629681533
 30
0.0
 10
169.1917094134
 20
449.6962915162
 30
0.0
 10
169.2259406835
 20
450.1666042718
 30
0.0
 10
169.2057105539
 20
451.1117653134
 30
0.0
 10
169.1024368418
 20
451.8165693458
 30
0.0
 10
169.0084089638
 20
452.2808256526
 30
0.0
  0
SPLINE
  5
41C
100
AcDbEntity
  8
0
100
AcDbSpline
 62
7
  6
CONTINUOUS
 70
0
 71
3
 72
10
 73
6
 74
0
 42
0.0000001
 43
0.0000001
 44
0.0000000001
 40
0.0
 40
0.0
 40
0.0
 40
0.0
 40
0.2489237658
 40
0.4983974221
 40
1.0
 40
1.0
 40
1.0
 40
1.0
 10
164.5543968359
 20
444.4298588487
 30
0.0
 10
164.5258084369
 20
444.1965354886
 30
0.0
 10
164.4915771807
 20
443.7262227346
 30
0.0
 10
164.5118072652
 20
442.7810616917
 30
0.0
 10
164.6150810077
 20
442.0762576583
 30
0.0
 10
164.7091088861
 20
441.6120013493
 30
0.0
  0
SPLINE
  5
41D
100
AcDbEntity
  8
0
100
AcDbSpline
 62
7
  6
CONTINUOUS
 70
0
 71
3
 72
10
 73
6
 74
0
 42
0.0000001
 43
0.0000001
 44
0.0000000001
 40
0.0
 40
0.0
 40
0.0
 40
0.0
 40
0.2489237689
 40
0.4983974242
 40
1.0
 40
1.0
 40
1.0
 40
1.0
 10
168.4873841371
 20
443.9479619216
 30
0.0
 10
168.5159725365
 20
444.1812852845
 30
0.0
 10
168.5502038067
 20
444.6515980401
 30
0.0
 10
168.5299736771
 20
445.5967590817
 30
0.0
 10
168.4266999649
 20
446.3015631141
 30
0.0
 10
168.3326720869
 20
446.7658194209
 30
0.0
  0
SPLINE
  5
41E
100
AcDbEntity
  8
0
100
AcDbSpline
 62
7
  6
CONTINUOUS
 70
0
 71
3
 72
9
 73
5
 74
0
 42
0.0000001
 43
0.0000001
 44
0.0000000001
 40
0.0
 40
0.0
 40
0.0
 40
0.0
 40
0.4995810958
 40
1.0
 40
1.0
 40
1.0
 40
1.0
 10
359.5376342602
 20
417.3883950743
 30
0.0
 10
359.6577368428
 20
418.3686086969
 30
0.0
 10
359.8081496678
 20
420.3425615892
 30
0.0
 10
359.8011105339
 20
422.3208937947
 30
0.0
 10
359.7698920094
 20
423.3096013001
 30
0.0
  0
SPLINE
  5
41F
100
AcDbEntity
  8
0
100
AcDbSpline
 62
7
  6
CONTINUOUS
 70
0
 71
3
 72
9
 73
5
 74
0
 42
0.0000001
 43
0.0000001
 44
0.0000000001
 40
0.0
 40
0.0
 40
0.0
 40
0.0
 40
0.5004189056
 40
1.0
 40
1.0
 40
1.0
 40
1.0
 10
359.7698920094
 20
423.3096013001
 30
0.0
 10
360.0388900521
 20
424.2615241891
 30
0.0
 10
360.5233483532
 20
426.1796347217
 30
0.0
 10
360.8539552103
 20
428.1315089857
 30
0.0
 10
360.9740577927
 20
429.1117226058
 30
0.0
  0
SPLINE
  5
420
100
AcDbEntity
  8
0
100
AcDbSpline
 62
7
  6
CONTINUOUS
 70
0
 71
3
 72
9
 73
5
 74
0
 42
0.0000001
 43
0.0000001
 44
0.0000000001
 40
0.0
 40
0.0
 40
0.0
 40
0.0
 40
0.500418906
 40
1.0
 40
1.0
 40
1.0
 40
1.0
 10
351.2875036458
 20
424.3489224505
 30
0.0
 10
351.0185056029
 20
423.3969995609
 30
0.0
 10
350.5340472311
 20
421.4788890448
 30
0.0
 10
350.2034404454
 20
419.5270147679
 30
0.0
 10
350.083337863
 20
418.546801149
 30
0.0
  0
SPLINE
  5
421
100
AcDbEntity
  8
0
100
AcDbSpline
 62
7
  6
CONTINUOUS
 70
0
 71
3
 72
9
 73
5
 74
0
 42
0.0000001
 43
0.0000001
 44
0.0000000001
 40
0.0
 40
0.0
 40
0.0
 40
0.0
 40
0.2502925918
 40
1.0
 40
1.0
 40
1.0
 40
1.0
 10
352.7239271784
 20
436.072249983
 30
0.0
 10
352.6326220375
 20
435.749141857
 30
0.0
 10
352.2801155515
 20
434.4548508547
 30
0.0
 10
351.9841363571
 20
433.1445976284
 30
0.0
 10
351.8055501104
 20
432.1548674015
 30
0.0
  0
SPLINE
  5
422
100
AcDbEntity
  8
0
100
AcDbSpline
 62
7
  6
CONTINUOUS
 70
0
 71
3
 72
9
 73
5
 74
0
 42
0.0000001
 43
0.0000001
 44
0.0000000001
 40
0.0
 40
0.0
 40
0.0
 40
0.0
 40
0.5004189056
 40
1.0
 40
1.0
 40
1.0
 40
1.0
 10
358.3334684768
 20
411.5862737676
 30
0.0
 10
358.6024665196
 20
412.5381966568
 30
0.0
 10
359.0869248208
 20
414.4563071897
 30
0.0
 10
359.4175316779
 20
416.408181454
 30
0.0
 10
359.5376342602
 20
417.3883950743
 30
0.0
  0
SPLINE
  5
423
100
AcDbEntity
  8
0
100
AcDbSpline
 62
7
  6
CONTINUOUS
 70
0
 71
3
 72
9
 73
5
 74
0
 42
0.0000001
 43
0.0000001
 44
0.0000000001
 40
0.0
 40
0.0
 40
0.0
 40
0.0
 40
0.2498004845
 40
1.0
 40
1.0
 40
1.0
 40
1.0
 10
349.9056412715
 20
416.6488183522
 30
0.0
 10
349.8837673734
 20
416.3144219372
 30
0.0
 10
349.8154660047
 20
414.9745038094
 30
0.0
 10
349.8193186549
 20
413.631497432
 30
0.0
 10
349.8510801132
 20
412.625594918
 30
0.0
  0
SPLINE
  5
424
100
AcDbEntity
  8
0
100
AcDbSpline
 62
7
  6
CONTINUOUS
 70
0
 71
3
 72
9
 73
5
 74
0
 42
0.0000001
 43
0.0000001
 44
0.0000000001
 40
0.0
 40
0.0
 40
0.0
 40
0.0
 40
0.4995810958
 40
1.0
 40
1.0
 40
1.0
 40
1.0
 10
360.9740577927
 20
429.1117226058
 30
0.0
 10
361.0941603753
 20
430.0919362286
 30
0.0
 10
361.2445732004
 20
432.0658891212
 30
0.0
 10
361.2375340665
 20
434.044221327
 30
0.0
 10
361.2063155419
 20
435.0329288326
 30
0.0
  0
SPLINE
  5
425
100
AcDbEntity
  8
0
100
AcDbSpline
 62
7
  6
CONTINUOUS
 70
0
 71
3
 72
9
 73
5
 74
0
 42
0.0000001
 43
0.0000001
 44
0.0000000001
 40
0.0
 40
0.0
 40
0.0
 40
0.0
 40
0.4995810963
 40
1.0
 40
1.0
 40
1.0
 40
1.0
 10
351.5197613955
 20
430.2701286804
 30
0.0
 10
351.3996588126
 20
429.2899150568
 30
0.0
 10
351.2492460601
 20
427.3159621598
 30
0.0
 10
351.2562851213
 20
425.3376299554
 30
0.0
 10
351.2875036458
 20
424.3489224505
 30
0.0
  0
SPLINE
  5
426
100
AcDbEntity
  8
0
100
AcDbSpline
 62
7
  6
CONTINUOUS
 70
0
 71
3
 72
13
 73
9
 74
0
 42
0.0000001
 43
0.0000001
 44
0.0000000001
 40
0.0
 40
0.0
 40
0.0
 40
0.0
 40
0.234945492
 40
0.3631995895
 40
0.5000665228
 40
0.6368884014
 40
0.7650840623
 40
1.0
 40
1.0
 40
1.0
 40
1.0
 10
267.8847612578
 20
449.9796134447
 30
0.0
 10
267.9318081618
 20
449.8772539292
 30
0.0
 10
268.0395476311
 20
449.7288407992
 30
0.0
 10
268.253969906
 20
449.6128392284
 30
0.0
 10
268.4489259877
 20
449.583597664
 30
0.0
 10
268.6413383566
 20
449.6263946026
 30
0.0
 10
268.8470316208
 20
449.7571190894
 30
0.0
 10
268.9441564646
 20
449.9126189936
 30
0.0
 10
268.9839435203
 20
450.0179977351
 30
0.0
  0
SPLINE
  5
427
100
AcDbEntity
  8
0
100
AcDbSpline
 62
7
  6
CONTINUOUS
 70
0
 71
3
 72
13
 73
9
 74
0
 42
0.0000001
 43
0.0000001
 44
0.0000000001
 40
0.0
 40
0.0
 40
0.0
 40
0.0
 40
0.2349535612
 40
0.3632207297
 40
0.5001093454
 40
0.636928666
 40
0.7651096294
 40
1.0
 40
1.0
 40
1.0
 40
1.0
 10
267.624841692
 20
457.4227359628
 30
0.0
 10
267.664635364
 20
457.5281322278
 30
0.0
 10
267.7617543228
 20
457.6837189762
 30
0.0
 10
267.967597776
 20
457.8143899335
 30
0.0
 10
268.1600608048
 20
457.857131286
 30
0.0
 10
268.3549919162
 20
457.8278618234
 30
0.0
 10
268.5692776385
 20
457.711792664
 30
0.0
 10
268.6769877999
 20
457.5634563813
 30
0.0
 10
268.7240239545
 20
457.4611202532
 30
0.0
  0
SPLINE
  5
428
100
AcDbEntity
  8
0
100
AcDbSpline
 62
7
  6
CONTINUOUS
 70
0
 71
3
 72
9
 73
5
 74
0
 42
0.0000001
 43
0.0000001
 44
0.0000000001
 40
0.0
 40
0.0
 40
0.0
 40
0.0
 40
0.251908355
 40
1.0
 40
1.0
 40
1.0
 40
1.0
 10
338.1470173784
 20
439.6991467061
 30
0.0
 10
338.0871776274
 20
439.5509298333
 30
0.0
 10
337.8571268024
 20
438.959615067
 30
0.0
 10
337.6607393182
 20
438.3547326215
 30
0.0
 10
337.5401806591
 20
437.8956190991
 30
0.0
  0
SPLINE
  5
429
100
AcDbEntity
  8
0
100
AcDbSpline
 62
7
  6
CONTINUOUS
 70
0
 71
3
 72
9
 73
5
 74
0
 42
0.0000001
 43
0.0000001
 44
0.0000000001
 40
0.0
 40
0.0
 40
0.0
 40
0.0
 40
0.2489590089
 40
1.0
 40
1.0
 40
1.0
 40
1.0
 10
346.7460963874
 20
437.5891366584
 30
0.0
 10
346.7394470261
 20
437.6782770143
 30
0.0
 10
346.7094493494
 20
438.0360816787
 30
0.0
 10
346.6670028065
 20
438.3928002911
 30
0.0
 10
346.629405742
 20
438.6598255557
 30
0.0
  0
LINE
  5
42A
100
AcDbEntity
  8
0
100
AcDbLine
 62
7
  6
CONTINUOUS
 10
258.3846932102
 20
448.3513202061
 11
258.1389583631
 21
448.1102036066
  0
LINE
  5
42B
100
AcDbEntity
  8
0
100
AcDbLine
 62
7
  6
CONTINUOUS
 10
258.2596280203
 20
451.9327186601
 11
258.0089004535
 21
451.8345748491
  0
LINE
  5
42C
100
AcDbEntity
  8
0
100
AcDbLine
 62
7
  6
CONTINUOUS
 10
257.7651873418
 20
458.8136052416
 11
258.0273847789
 21
458.5832949442
  0
LINE
  5
42D
100
AcDbEntity
  8
0
100
AcDbLine
 62
7
  6
CONTINUOUS
 10
257.8879809965
 20
455.2972550458
 11
258.1455275914
 21
455.2001274423
  0
SPLINE
  5
42E
100
AcDbEntity
  8
0
100
AcDbSpline
 62
7
  6
CONTINUOUS
 70
0
 71
3
 72
18
 73
14
 74
0
 42
0.0000001
 43
0.0000001
 44
0.0000000001
 40
0.0
 40
0.0
 40
0.0
 40
0.0
 40
0.1946037796
 40
0.3821029556
 40
0.5546853762
 40
0.7059632788
 40
0.8302269189
 40
0.8806407825
 40
0.9226208975
 40
0.9557499456
 40
0.9797028337
 40
0.9943699755
 40
1.0
 40
1.0
 40
1.0
 40
1.0
 10
117.2300773659
 20
429.4026856677
 30
0.0
 10
117.1898007375
 20
429.4931484561
 30
0.0
 10
117.1102043439
 20
429.6705443674
 30
0.0
 10
116.993139521
 20
429.9273711431
 30
0.0
 10
116.8836359865
 20
430.1634295362
 30
0.0
 10
116.7859949468
 20
430.3694527226
 30
0.0
 10
116.7133311656
 20
430.5186660874
 30
0.0
 10
116.6637093954
 20
430.616942641
 30
0.0
 10
116.6340987825
 20
430.673916522
 30
0.0
 10
116.6103071411
 20
430.7173615088
 30
0.0
 10
116.5911667433
 20
430.7508080778
 30
0.0
 10
116.5799451628
 20
430.7660667949
 30
0.0
 10
116.5715236242
 20
430.7777043395
 30
0.0
 10
116.568906472
 20
430.7765391083
 30
0.0
  0
SPLINE
  5
42F
100
AcDbEntity
  8
0
100
AcDbSpline
 62
7
  6
CONTINUOUS
 70
0
 71
3
 72
18
 73
14
 74
0
 42
0.0000001
 43
0.0000001
 44
0.0000000001
 40
0.0
 40
0.0
 40
0.0
 40
0.0
 40
0.1946037796
 40
0.3821029556
 40
0.5546853762
 40
0.7059632788
 40
0.8302269189
 40
0.8806407825
 40
0.9226208975
 40
0.9557499456
 40
0.9797028337
 40
0.9943699755
 40
1.0
 40
1.0
 40
1.0
 40
1.0
 10
114.53683603
 20
428.2035773685
 30
0.0
 10
114.4965594016
 20
428.2940401569
 30
0.0
 10
114.4179889312
 20
428.4718928386
 30
0.0
 10
114.3054610977
 20
428.7307396122
 30
0.0
 10
114.2033076908
 20
428.9700704929
 30
0.0
 10
114.115537234
 20
429.180488346
 30
0.0
 10
114.0532716541
 20
429.3343312882
 30
0.0
 10
114.013441387
 20
429.4369672999
 30
0.0
 10
113.9909149094
 20
429.4970952412
 30
0.0
 10
113.9745487078
 20
429.5438462467
 30
0.0
 10
113.9625004891
 20
429.5804504573
 30
0.0
 10
113.9586697554
 20
429.5989997914
 30
0.0
 10
113.9556564836
 20
429.6130452515
 30
0.0
 10
113.9582736358
 20
429.6142104828
 30
0.0
  0
SPLINE
  5
430
100
AcDbEntity
  8
0
100
AcDbSpline
 62
7
  6
CONTINUOUS
 70
0
 71
3
 72
18
 73
14
 74
0
 42
0.0000001
 43
0.0000001
 44
0.0000000001
 40
0.0
 40
0.0
 40
0.0
 40
0.0
 40
0.0056300422
 40
0.0202972268
 40
0.0442501551
 40
0.077379246
 40
0.1193594356
 40
0.1697733584
 40
0.2940370685
 40
0.4453150328
 40
0.6178973956
 40
0.8053963319
 40
1.0
 40
1.0
 40
1.0
 40
1.0
 10
114.4814608007
 20
429.8471484164
 30
0.0
 10
114.4840779611
 20
429.8483136513
 30
0.0
 10
114.492499507
 20
429.8366760456
 30
0.0
 10
114.5037211165
 20
429.8214173088
 30
0.0
 10
114.5228615433
 20
429.7879706729
 30
0.0
 10
114.5466532255
 20
429.7445256212
 30
0.0
 10
114.5762638728
 20
429.6875516554
 30
0.0
 10
114.6258856861
 20
429.5892750083
 30
0.0
 10
114.6985495041
 20
429.4400615536
 30
0.0
 10
114.7961905557
 20
429.234038332
 30
0.0
 10
114.9056940342
 20
428.997980046
 30
0.0
 10
115.0227587727
 20
428.7411534614
 30
0.0
 10
115.1023550894
 20
428.5637577121
 30
0.0
 10
115.1426316946
 20
428.4732949758
 30
0.0
  0
SPLINE
  5
431
100
AcDbEntity
  8
0
100
AcDbSpline
 62
7
  6
CONTINUOUS
 70
0
 71
3
 72
9
 73
5
 74
0
 42
0.0000001
 43
0.0000001
 44
0.0000000001
 40
0.0
 40
0.0
 40
0.0
 40
0.0
 40
0.499947593
 40
1.0
 40
1.0
 40
1.0
 40
1.0
 10
117.5909920185
 20
420.1680365051
 30
0.0
 10
117.82238507
 20
420.4870996963
 30
0.0
 10
118.1223213019
 20
421.2609400069
 30
0.0
 10
117.9890641009
 20
422.0801031167
 30
0.0
 10
117.8287204854
 20
422.4402407735
 30
0.0
  0
SPLINE
  5
432
100
AcDbEntity
  8
0
100
AcDbSpline
 62
7
  6
CONTINUOUS
 70
0
 71
3
 72
18
 73
14
 74
0
 42
0.0000001
 43
0.0000001
 44
0.0000000001
 40
0.0
 40
0.0
 40
0.0
 40
0.0
 40
0.1946037796
 40
0.3821029556
 40
0.5546853762
 40
0.7059632788
 40
0.8302269189
 40
0.8806407825
 40
0.9226208975
 40
0.9557499456
 40
0.9797028337
 40
0.9943699755
 40
1.0
 40
1.0
 40
1.0
 40
1.0
 10
131.7275029829
 20
435.8573554155
 30
0.0
 10
131.6872263546
 20
435.9478182039
 30
0.0
 10
131.6086558841
 20
436.1256708857
 30
0.0
 10
131.4961280507
 20
436.3845176592
 30
0.0
 10
131.3939746438
 20
436.62384854
 30
0.0
 10
131.3062041869
 20
436.834266393
 30
0.0
 10
131.2439386071
 20
436.9881093353
 30
0.0
 10
131.2041083399
 20
437.0907453469
 30
0.0
 10
131.1815818624
 20
437.1508732882
 30
0.0
 10
131.1652156607
 20
437.1976242938
 30
0.0
 10
131.153167442
 20
437.2342285044
 30
0.0
 10
131.1493367084
 20
437.2527778385
 30
0.0
 10
131.1463234365
 20
437.2668232986
 30
0.0
 10
131.1489405888
 20
437.2679885298
 30
0.0
  0
SPLINE
  5
433
100
AcDbEntity
  8
0
100
AcDbSpline
 62
7
  6
CONTINUOUS
 70
0
 71
3
 72
18
 73
14
 74
0
 42
0.0000001
 43
0.0000001
 44
0.0000000001
 40
0.0
 40
0.0
 40
0.0
 40
0.0
 40
0.1946037796
 40
0.3821029556
 40
0.5546853762
 40
0.7059632788
 40
0.8302269189
 40
0.8806407825
 40
0.9226208975
 40
0.9557499456
 40
0.9797028337
 40
0.9943699755
 40
1.0
 40
1.0
 40
1.0
 40
1.0
 10
134.4207443189
 20
437.0564637147
 30
0.0
 10
134.3804676905
 20
437.1469265031
 30
0.0
 10
134.3008712969
 20
437.3243224145
 30
0.0
 10
134.183806474
 20
437.5811491902
 30
0.0
 10
134.0743029395
 20
437.8172075833
 30
0.0
 10
133.9766618998
 20
438.0232307697
 30
0.0
 10
133.9039981185
 20
438.1724441344
 30
0.0
 10
133.8543763484
 20
438.2707206881
 30
0.0
 10
133.8247657355
 20
438.3276945691
 30
0.0
 10
133.8009740941
 20
438.3711395559
 30
0.0
 10
133.7818336963
 20
438.4045861249
 30
0.0
 10
133.7706121158
 20
438.4198448419
 30
0.0
 10
133.7621905772
 20
438.4314823866
 30
0.0
 10
133.7595734249
 20
438.4303171553
 30
0.0
  0
SPLINE
  5
434
100
AcDbEntity
  8
0
100
AcDbSpline
 62
7
  6
CONTINUOUS
 70
0
 71
3
 72
18
 73
14
 74
0
 42
0.0000001
 43
0.0000001
 44
0.0000000001
 40
0.0
 40
0.0
 40
0.0
 40
0.0
 40
0.0056300422
 40
0.0202972268
 40
0.0442501551
 40
0.077379246
 40
0.1193594356
 40
0.1697733584
 40
0.2940370685
 40
0.4453150328
 40
0.6178973956
 40
0.8053963319
 40
1.0
 40
1.0
 40
1.0
 40
1.0
 10
131.6721277536
 20
437.5009264634
 30
0.0
 10
131.6747449141
 20
437.5020916983
 30
0.0
 10
131.68316646
 20
437.4904540926
 30
0.0
 10
131.6943880694
 20
437.4751953559
 30
0.0
 10
131.7135284962
 20
437.44174872
 30
0.0
 10
131.7373201785
 20
437.3983036683
 30
0.0
 10
131.7669308258
 20
437.3413297025
 30
0.0
 10
131.8165526391
 20
437.2430530554
 30
0.0
 10
131.8892164571
 20
437.0938396006
 30
0.0
 10
131.9868575087
 20
436.8878163791
 30
0.0
 10
132.0963609872
 20
436.651758093
 30
0.0
 10
132.2134257257
 20
436.3949315085
 30
0.0
 10
132.2930220424
 20
436.2175357591
 30
0.0
 10
132.3332986475
 20
436.1270730228
 30
0.0
  0
SPLINE
  5
435
100
AcDbEntity
  8
0
100
AcDbSpline
 62
7
  6
CONTINUOUS
 70
0
 71
3
 72
18
 73
14
 74
0
 42
0.0000001
 43
0.0000001
 44
0.0000000001
 40
0.0
 40
0.0
 40
0.0
 40
0.0
 40
0.0050681201
 40
0.0195431508
 40
0.0434126514
 40
0.0765228188
 40
0.1185295469
 40
0.1690061195
 40
0.2934808762
 40
0.4450203859
 40
0.6178337833
 40
0.8054349355
 40
1.0
 40
1.0
 40
1.0
 40
1.0
 10
348.16098919
 20
437.5269811979
 30
0.0
 10
348.1606746841
 20
437.524414367
 30
0.0
 10
348.1456359754
 20
437.5271211764
 30
0.0
 10
348.1282397268
 20
437.5251318959
 30
0.0
 10
348.0891979372
 20
437.529150173
 30
0.0
 10
348.0399929542
 20
437.5322494261
 30
0.0
 10
347.9756603273
 20
437.5374883032
 30
0.0
 10
347.8654818312
 20
437.5457991643
 30
0.0
 10
347.6991691398
 20
437.5575769115
 30
0.0
 10
347.4705696005
 20
437.5706126459
 30
0.0
 10
347.2095107338
 20
437.5809300829
 30
0.0
 10
346.9263464594
 20
437.585581935
 30
0.0
 10
346.7313137935
 20
437.5831312661
 30
0.0
 10
346.6320861826
 20
437.5799831689
 30
0.0
  0
SPLINE
  5
436
100
AcDbEntity
  8
0
100
AcDbSpline
 62
7
  6
CONTINUOUS
 70
0
 71
3
 72
9
 73
5
 74
0
 42
0.0000001
 43
0.0000001
 44
0.0000000001
 40
0.0
 40
0.0
 40
0.0
 40
0.0
 40
0.2555626327
 40
1.0
 40
1.0
 40
1.0
 40
1.0
 10
346.6320861826
 20
437.5799831689
 30
0.0
 10
346.7649807568
 20
437.5712437123
 30
0.0
 10
347.2848679394
 20
437.5352140734
 30
0.0
 10
347.8043166592
 20
437.4930262343
 30
0.0
 10
348.1907832028
 20
437.4591384969
 30
0.0
  0
SPLINE
  5
437
100
AcDbEntity
  8
0
100
AcDbSpline
 62
7
  6
CONTINUOUS
 70
0
 71
3
 72
21
 73
17
 74
0
 42
0.0000001
 43
0.0000001
 44
0.0000000001
 40
0.0
 40
0.0
 40
0.0
 40
0.0
 40
0.212416907
 40
0.4071102175
 40
0.5797187434
 40
0.7264522844
 40
0.7890840815
 40
0.8440883188
 40
0.8911407906
 40
0.9300060151
 40
0.9604682326
 40
0.9823378321
 40
0.9900202608
 40
0.9955238209
 40
0.9988436536
 40
1.0
 40
1.0
 40
1.0
 40
1.0
 10
348.1907832028
 20
437.4591384969
 30
0.0
 10
348.3763002014
 20
437.442871238
 30
0.0
 10
348.7317584771
 20
437.4105847022
 30
0.0
 10
349.2376736852
 20
437.3619286589
 30
0.0
 10
349.6860761375
 20
437.316856885
 30
0.0
 10
350.0191688021
 20
437.2822564811
 30
0.0
 10
350.2496614869
 20
437.2579396675
 30
0.0
 10
350.3932510465
 20
437.242702172
 30
0.0
 10
350.516079887
 20
437.2296986388
 30
0.0
 10
350.6176411557
 20
437.2189899889
 30
0.0
 10
350.6969554209
 20
437.2110063731
 30
0.0
 10
350.7497991984
 20
437.2056603032
 30
0.0
 10
350.7797917831
 20
437.203496134
 30
0.0
 10
350.7952797307
 20
437.2018624112
 30
0.0
 10
350.80215291
 20
437.2026851853
 30
0.0
 10
350.8080688873
 20
437.2016212375
 30
0.0
 10
350.8081921812
 20
437.202627497
 30
0.0
  0
ELLIPSE
  5
438
100
AcDbEntity
  8
0
100
AcDbEllipse
 62
7
  6
CONTINUOUS
 10
270.7225935837
 20
453.8048122878
 30
0.0
 11
-0.2216118041
 21
6.3461317516
 31
0.0
 40
0.5773502692
 41
0.9441521152
 42
2.1974405384
  0
ELLIPSE
  5
439
100
AcDbEntity
  8
0
100
AcDbEllipse
 62
7
  6
CONTINUOUS
 10
265.8861916286
 20
453.63592141
 30
0.0
 11
-0.2216118041
 21
6.3461317516
 31
0.0
 40
0.5773502692
 41
4.0857447687
 42
5.339033192
  0
ENDSEC
  0
SECTION
  2
OBJECTS
  0
DICTIONARY
  5
C
100
AcDbDictionary
280
0
281
1
  3
ACAD_GROUP
350
D
  3
ACAD_MLINESTYLE
350
17
  3
ACAD_LAYOUT
350
1A
  3
ACAD_PLOTSETTINGS
350
19
  3
ACAD_PLOTSTYLENAME
350
E
  0
DICTIONARY
  5
D
102
{ACAD_REACTORS
330
C
102
}
100
AcDbDictionary
280
0
281
1
  0
ACDBDICTIONARYWDFLT
  5
E
102
{ACAD_REACTORS
330
C
102
}
100
AcDbDictionary
281
1
  3
Normal
350
F
100
AcDbDictionaryWithDefault
340
F
  0
DICTIONARY
  5
17
102
{ACAD_REACTORS
330
C
102
}
100
AcDbDictionary
280
0
281
1
  3
Standard
350
18
  0
DICTIONARY
  5
19
102
{ACAD_REACTORS
330
C
102
}
100
AcDbDictionary
281
1
  0
DICTIONARY
  5
1A
102
{ACAD_REACTORS
330
C
102
}
100
AcDbDictionary
281
1
  3
Model
350
43A
  3
Layout1
350
43B
  0
ACDBPLACEHOLDER
  5
F
102
{ACAD_REACTORS
330
E
102
}
  0
MLINESTYLE
  5
18
102
{ACAD_REACTORS
330
17
102
}
100
AcDbMlineStyle
  2
STANDARD
 70
0
  3

 62
256
 51
90.0
 52
90.0
 71
2
 49
0.5
 62
256
  6
BYLAYER
 49
-0.5
 62
256
  6
BYLAYER
  0
LAYOUT
  5
43A
102
{ACAD_REACTORS
330
1A
102
}
100
AcDbPlotSettings
  1

  2
none_device
  4

  6

 40
0.0
 41
0.0
 42
0.0
 43
0.0
 44
210.0
 45
297.0
 46
0.0
 47
0.0
 48
0.0
 49
0.0
140
0.0
141
0.0
142
1.0
143
1.0
 70
1024
 72
1
 73
0
 74
0
  7

 75
0
147
1.0
148
0.0
149
0.0
100
AcDbLayout
  1
Model
 70
0
 71
0
 10
0.0
 20
0.0
 11
210.0
 21
297.0
 12
0.0
 22
0.0
 32
0.0
 14
0.0
 24
0.0
 34
0.0
 15
0.0
 25
0.0
 35
0.0
146
0.0
 13
0.0
 23
0.0
 33
0.0
 16
1.0
 26
0.0
 36
0.0
 17
0.0
 27
1.0
 37
0.0
 76
0
330
210
345
0
346
0
  0
LAYOUT
  5
43B
102
{ACAD_REACTORS
330
1A
102
}
100
AcDbPlotSettings
  1

  2
none_device
  4

  6

 40
0.0
 41
0.0
 42
0.0
 43
0.0
 44
210.0
 45
297.0
 46
0.0
 47
0.0
 48
0.0
 49
0.0
140
0.0
141
0.0
142
1.0
143
1.0
 70
0
 72
1
 73
0
 74
0
  7

 75
0
147
1.0
148
0.0
149
0.0
100
AcDbLayout
  1
Layout1
 70
0
 71
1
 10
0.0
 20
0.0
 11
210.0
 21
297.0
 12
0.0
 22
0.0
 32
0.0
 14
0.0
 24
0.0
 34
0.0
 15
0.0
 25
0.0
 35
0.0
146
0.0
 13
0.0
 23
0.0
 33
0.0
 16
1.0
 26
0.0
 36
0.0
 17
0.0
 27
1.0
 37
0.0
 76
0
330
211
345
0
346
0
  0
ENDSEC
  0
EOF
