999
DXF file: C:\Users\sesa63760\Dev\_Creo\CAD\MCADID0004083_3D-CAD\drw0001_2.dxf
999
Pro/ENGINEER 2019471 by Parametric Technology Corporation
  0
SECTION
  2
HEADER
  9
$ACADVER
  1
AC1024
  9
$DWGCODEPAGE
  3
ANSI_1252
  9
$EXTMAX
 10
52.0318790744
 20
73.5879432624
 30
0.0
  9
$EXTMIN
 10
0.0
 20
0.0
 30
0.0
  9
$LIMMIN
 10
0.0
 20
0.0
  9
$LIMMAX
 10
52.0318790744
 20
73.5879432624
  9
$VIEWCTR
 10
26.0159395372
 20
36.7939716312
  9
$VIEWSIZE
 40
73.5879432624
  9
$CLAYER
  8
0
  9
$LTSCALE
 40
4.796843709
  9
$CELTYPE
  6
BYLAYER
  9
$DIMSCALE
 40
1.0
  9
$DIMASZ
 40
0.6194271318
  9
$DIMEXO
 40
1.0
  9
$DIMDLI
 40
3.3141829262
  9
$DIMEXE
 40
1.0
  9
$DIMCEN
 40
0.7849380615
  9
$DIMLFAC
 40
1.0
  9
$DIMBLK
  1
_FILLED
  9
$DIMALT
 70
0
  9
$DIMALTF
 40
0.0393700787
  9
$DIMTXT
 40
0.8671979846
  9
$DIMTOL
 70
1
  9
$DIMLIM
 70
0
  9
$DIMTFAC
 40
1.0
  9
$DIMTP
 40
0.01
  9
$DIMTM
 40
0.01
  9
$DIMGAP
 40
0.625
  9
$DIMDSEP
 70
46
  9
$AUNITS
 70
0
  9
$PDMODE
 70
3
  9
$PDSIZE
 40
0.3125
  9
$HANDSEED
  5
269
  9
$TILEMODE
 70
1
  9
$MEASUREMENT
 70
1
  9
$INSUNITS
 70
4
  0
ENDSEC
  0
SECTION
  2
CLASSES
  0
CLASS
  1
ACDBDICTIONARYWDFLT
  2
AcDbDictionaryWithDefault
  3
AutoCAD 2000
 90
0
 91
1
280
0
281
0
  0
CLASS
  1
ACDBPLACEHOLDER
  2
AcDbPlaceHolder
  3
AutoCAD 2000
 90
0
 91
1
280
0
281
0
  0
CLASS
  1
LAYOUT
  2
AcDbLayout
  3
AutoCAD 2000
 90
0
 91
0
280
0
281
0
  0
ENDSEC
  0
SECTION
  2
TABLES
  0
TABLE
  2
VPORT
  5
8
100
AcDbSymbolTable
 70
2
  0
VPORT
  5
1F4
100
AcDbSymbolTableRecord
100
AcDbViewportTableRecord
  2
*ACTIVE
 70
0
 10
0.0
 20
0.0
 11
1.0
 21
1.0
 12
26.0159395372
 22
36.7939716312
 13
0.0
 23
0.0
 14
1.0
 24
1.0
 15
0.0
 25
0.0
 16
0.0
 26
0.0
 36
1.0
 17
0.0
 27
0.0
 37
0.0
 40
73.5879432624
 41
0.7070707071
 42
50.0
 43
0.0
 44
0.0
 50
0.0
 51
0.0
 71
0
 72
100
 73
1
 74
1
 75
0
 76
0
 77
0
 78
0
  0
ENDTAB
  0
TABLE
  2
LTYPE
  5
5
100
AcDbSymbolTable
 70
6
  0
LTYPE
  5
14
100
AcDbSymbolTableRecord
100
AcDbLinetypeTableRecord
  2
BYBLOCK
 70
0
  3

 72
65
 73
0
 40
0.0
  0
LTYPE
  5
15
100
AcDbSymbolTableRecord
100
AcDbLinetypeTableRecord
  2
BYLAYER
 70
0
  3

 72
65
 73
0
 40
0.0
  0
LTYPE
  5
16
100
AcDbSymbolTableRecord
100
AcDbLinetypeTableRecord
  2
CONTINUOUS
 70
64
  3
Solid line
 72
65
 73
0
 40
0.0
  0
LTYPE
  5
1F5
100
AcDbSymbolTableRecord
100
AcDbLinetypeTableRecord
  2
CENTER
 70
64
  3
____ _ ____ _ ____ _ ____ _ ____ _ ____ _ ____
 72
65
 73
4
 40
0.6
 49
0.375
 74
0
 49
-0.075
 74
0
 49
0.075
 74
0
 49
-0.075
 74
0
  0
LTYPE
  5
1F6
100
AcDbSymbolTableRecord
100
AcDbLinetypeTableRecord
  2
HIDDEN
 70
64
  3
- - - - - - - - - - - - - - - - - - - -
 72
65
 73
2
 40
0.2
 49
0.1
 74
0
 49
-0.1
 74
0
  0
LTYPE
  5
1F7
100
AcDbSymbolTableRecord
100
AcDbLinetypeTableRecord
  2
PHANTOM
 70
64
  3
_____ _ _ _____ _ _ _____ _ _ _____
 72
65
 73
6
 40
0.8
 49
0.45
 74
0
 49
-0.05
 74
0
 49
0.1
 74
0
 49
-0.05
 74
0
 49
0.1
 74
0
 49
-0.05
 74
0
  0
LTYPE
  5
1F8
100
AcDbSymbolTableRecord
100
AcDbLinetypeTableRecord
  2
DOT
 70
64
  3
. . . . . . . . . . . . . . . . . . . .
 72
65
 73
2
 40
0.2
 49
0.1
 74
0
 49
-0.1
 74
0
  0
LTYPE
  5
1F9
100
AcDbSymbolTableRecord
100
AcDbLinetypeTableRecord
  2
DASHED
 70
64
  3
- - - - - - - - - - - - - - - - - - - -
 72
65
 73
2
 40
0.2
 49
0.1
 74
0
 49
-0.1
 74
0
  0
ENDTAB
  0
TABLE
  2
LAYER
  5
2
100
AcDbSymbolTable
 70
36
  0
LAYER
  5
10
100
AcDbSymbolTableRecord
100
AcDbLayerTableRecord
  2
0
 70
0
 62
7
  6
CONTINUOUS
370
-3
390
F
  0
LAYER
  5
1FA
100
AcDbSymbolTableRecord
100
AcDbLayerTableRecord
  2
DEFAULT_1
 70
0
 62
7
  6
CENTER
370
-3
390
F
  0
LAYER
  5
1FB
100
AcDbSymbolTableRecord
100
AcDbLayerTableRecord
  2
DEFAULT_2
 70
0
 62
7
  6
HIDDEN
370
-3
390
F
  0
LAYER
  5
1FC
100
AcDbSymbolTableRecord
100
AcDbLayerTableRecord
  2
DEFAULT_3
 70
0
 62
7
  6
PHANTOM
370
-3
390
F
  0
LAYER
  5
1FD
100
AcDbSymbolTableRecord
100
AcDbLayerTableRecord
  2
00_COMPONENTS
 70
0
 62
7
  6
CONTINUOUS
370
-3
390
F
  0
LAYER
  5
1FE
100
AcDbSymbolTableRecord
100
AcDbLayerTableRecord
  2
01_1_DEFAULT_DATUMS
 70
0
 62
7
  6
CONTINUOUS
370
-3
390
F
  0
LAYER
  5
1FF
100
AcDbSymbolTableRecord
100
AcDbLayerTableRecord
  2
01_PLANES
 70
0
 62
7
  6
CONTINUOUS
370
-3
390
F
  0
LAYER
  5
200
100
AcDbSymbolTableRecord
100
AcDbLayerTableRecord
  2
02_COORD_SYS
 70
0
 62
7
  6
CONTINUOUS
370
-3
390
F
  0
LAYER
  5
201
100
AcDbSymbolTableRecord
100
AcDbLayerTableRecord
  2
03_AXES
 70
0
 62
7
  6
CONTINUOUS
370
-3
390
F
  0
LAYER
  5
202
100
AcDbSymbolTableRecord
100
AcDbLayerTableRecord
  2
04_POINTS
 70
0
 62
7
  6
CONTINUOUS
370
-3
390
F
  0
LAYER
  5
203
100
AcDbSymbolTableRecord
100
AcDbLayerTableRecord
  2
05_CURVES
 70
0
 62
7
  6
CONTINUOUS
370
-3
390
F
  0
LAYER
  5
204
100
AcDbSymbolTableRecord
100
AcDbLayerTableRecord
  2
06_SURFS
 70
0
 62
7
  6
CONTINUOUS
370
-3
390
F
  0
LAYER
  5
205
100
AcDbSymbolTableRecord
100
AcDbLayerTableRecord
  2
07_COSMETICS
 70
0
 62
7
  6
CONTINUOUS
370
-3
390
F
  0
LAYER
  5
206
100
AcDbSymbolTableRecord
100
AcDbLayerTableRecord
  2
10_NOTES
 70
0
 62
7
  6
CONTINUOUS
370
-3
390
F
  0
LAYER
  5
207
100
AcDbSymbolTableRecord
100
AcDbLayerTableRecord
  2
11_NOTES_PUB
 70
0
 62
7
  6
CONTINUOUS
370
-3
390
F
  0
LAYER
  5
208
100
AcDbSymbolTableRecord
100
AcDbLayerTableRecord
  2
13_REF_GTOL
 70
0
 62
7
  6
CONTINUOUS
370
-3
390
F
  0
LAYER
  5
209
100
AcDbSymbolTableRecord
100
AcDbLayerTableRecord
  2
16_MISC
 70
0
 62
7
  6
CONTINUOUS
370
-3
390
F
  0
LAYER
  5
20A
100
AcDbSymbolTableRecord
100
AcDbLayerTableRecord
  2
17_NO_PRINT
 70
0
 62
7
  6
CONTINUOUS
370
-3
390
F
  0
LAYER
  5
20B
100
AcDbSymbolTableRecord
100
AcDbLayerTableRecord
  2
18_DATUM_CAMS_JOINTS
 70
0
 62
7
  6
CONTINUOUS
370
-3
390
F
  0
LAYER
  5
20C
100
AcDbSymbolTableRecord
100
AcDbLayerTableRecord
  2
19_DATUM_FUNCTIONAL
 70
0
 62
7
  6
CONTINUOUS
370
-3
390
F
  0
LAYER
  5
20D
100
AcDbSymbolTableRecord
100
AcDbLayerTableRecord
  2
20_DATUM_KINEMATIC_SCHEME
 70
0
 62
7
  6
CONTINUOUS
370
-3
390
F
  0
ENDTAB
  0
TABLE
  2
STYLE
  5
3
100
AcDbSymbolTable
 70
1
  0
STYLE
  5
11
100
AcDbSymbolTableRecord
100
AcDbTextStyleTableRecord
  2
STANDARD
 70
0
 40
0.0
 41
1.0
 50
0.0
 71
0
 42
0.2
  3
ARIAL.TTF
  4

  0
STYLE
  5
20E
100
AcDbSymbolTableRecord
100
AcDbTextStyleTableRecord
  2
TEXTSTYLE_1
 70
0
 40
0.0
 41
0.8
 50
0.0
 71
0
 42
0.2
  3
gdt
  4

  0
ENDTAB
  0
TABLE
  2
VIEW
  5
6
100
AcDbSymbolTable
 70
0
  0
ENDTAB
  0
TABLE
  2
UCS
  5
7
100
AcDbSymbolTable
 70
0
  0
ENDTAB
  0
TABLE
  2
APPID
  5
9
100
AcDbSymbolTable
 70
1
  0
APPID
  5
20F
100
AcDbSymbolTableRecord
100
AcDbRegAppTableRecord
  2
ACAD
 70
0
  0
ENDTAB
  0
TABLE
  2
BLOCK_RECORD
  5
1
100
AcDbSymbolTable
 70
0
  0
BLOCK_RECORD
  5
210
100
AcDbSymbolTableRecord
100
AcDbBlockTableRecord
  2
*Model_Space
  0
BLOCK_RECORD
  5
211
100
AcDbSymbolTableRecord
100
AcDbBlockTableRecord
  2
*Paper_Space
  0
BLOCK_RECORD
  5
212
100
AcDbSymbolTableRecord
100
AcDbBlockTableRecord
  2
_FILLED
  0
ENDTAB
  0
TABLE
  2
DIMSTYLE
  5
A
100
AcDbSymbolTable
 70
1
100
AcDbDimStyleTable
 71
0
  0
DIMSTYLE
105
213
100
AcDbSymbolTableRecord
100
AcDbDimStyleTableRecord
  2
STANDARD
 70
0
  3

  4

 40
1.0
 41
0.6194271318
 42
1.0
 43
0.38
 44
1.0
 45
0.0
 46
0.0
 47
0.01
 48
0.01
140
0.8671979846
141
0.09
142
0.0
143
25.4
144
1.0
145
0.0
146
1.0
147
0.625
 71
1
 72
0
 73
0
 74
0
 75
0
 76
0
 77
1
 78
8
 79
2
170
0
171
1
172
0
173
0
174
0
175
0
176
0
177
0
178
0
270
2
179
2
271
2
272
2
273
2
274
2
275
0
280
0
281
0
282
0
283
1
284
8
285
0
286
0
287
3
288
0
340
11
278
46
341
212
342
212
343
212
344
212
  0
ENDTAB
  0
ENDSEC
  0
SECTION
  2
BLOCKS
  0
BLOCK
  5
20
100
AcDbEntity
  8
0
100
AcDbBlockBegin
  2
*Model_Space
 70
0
 10
0.0
 20
0.0
 30
0.0
  3
*Model_Space
  1

  0
ENDBLK
  5
21
100
AcDbEntity
  8
0
100
AcDbBlockEnd
  0
BLOCK
  5
1C
100
AcDbEntity
  8
0
100
AcDbBlockBegin
  2
*Paper_Space
 70
0
 10
0.0
 20
0.0
 30
0.0
  3
*Paper_Space
  1

  0
ENDBLK
  5
1D
100
AcDbEntity
  8
0
100
AcDbBlockEnd
  0
BLOCK
  5
214
100
AcDbEntity
  8
0
100
AcDbBlockBegin
  2
_FILLED
 70
64
 10
0.0
 20
0.0
  3
_FILLED
  1

  0
SOLID
  5
215
100
AcDbEntity
  8
0
  6
BYBLOCK
 62
0
100
AcDbTrace
 10
0.0
 20
0.0
 11
-1.0
 21
0.25
 12
-1.0
 22
-0.25
 13
-1.0
 23
-0.25
  0
ENDBLK
  5
216
100
AcDbEntity
  8
0
  6
BYBLOCK
 62
0
100
AcDbBlockEnd
  0
ENDSEC
  0
SECTION
  2
ENTITIES
  0
LINE
  5
217
100
AcDbEntity
  8
0
100
AcDbLine
 62
7
  6
BYLAYER
 10
31.8762232252
 20
4.9088652482
 11
20.8762232252
 21
4.9088652482
  0
LINE
  5
218
100
AcDbEntity
  8
0
100
AcDbLine
 62
7
  6
BYLAYER
 10
32.3762232252
 20
5.9088652482
 11
20.3762232252
 21
5.9088652482
  0
LINE
  5
219
100
AcDbEntity
  8
0
100
AcDbLine
 62
7
  6
BYLAYER
 10
14.3762232252
 20
61.4088652482
 11
12.5198167646
 21
60.3370684785
  0
LINE
  5
21A
100
AcDbEntity
  8
0
100
AcDbLine
 62
7
  6
BYLAYER
 10
14.3762232252
 20
57.4088652482
 11
12.5198167646
 21
56.3370684785
  0
LINE
  5
21B
100
AcDbEntity
  8
0
100
AcDbLine
 62
7
  6
BYLAYER
 10
20.3762232252
 20
11.9088652482
 11
32.3762232252
 21
11.9088652482
  0
LINE
  5
21C
100
AcDbEntity
  8
0
100
AcDbLine
 62
7
  6
BYLAYER
 10
31.8762232252
 20
12.9088652482
 11
20.8762232252
 21
12.9088652482
  0
LINE
  5
21D
100
AcDbEntity
  8
0
100
AcDbLine
 62
7
  6
BYLAYER
 10
33.5762232252
 20
17.9088652482
 11
19.1762232252
 21
17.9088652482
  0
LINE
  5
21E
100
AcDbEntity
  8
0
100
AcDbLine
 62
7
  6
BYLAYER
 10
34.5762232252
 20
18.4088652482
 11
18.1762232252
 21
18.4088652482
  0
LINE
  5
21F
100
AcDbEntity
  8
0
100
AcDbLine
 62
7
  6
BYLAYER
 10
19.1762232252
 20
17.9088652482
 11
18.1762232252
 21
18.4088652482
  0
LINE
  5
220
100
AcDbEntity
  8
0
100
AcDbLine
 62
7
  6
BYLAYER
 10
20.8762232252
 20
4.9088652482
 11
20.3762232252
 21
5.9088652482
  0
LINE
  5
221
100
AcDbEntity
  8
0
100
AcDbLine
 62
7
  6
BYLAYER
 10
12.5198167646
 20
60.3370684785
 11
12.5198167646
 21
58.480662018
  0
LINE
  5
222
100
AcDbEntity
  8
0
100
AcDbLine
 62
7
  6
BYLAYER
 10
12.5198167646
 20
56.3370684785
 11
12.5198167646
 21
54.480662018
  0
LINE
  5
223
100
AcDbEntity
  8
0
100
AcDbLine
 62
7
  6
BYLAYER
 10
38.3762232252
 20
57.4088652482
 11
40.2326296857
 21
58.480662018
  0
LINE
  5
224
100
AcDbEntity
  8
0
100
AcDbLine
 62
7
  6
BYLAYER
 10
18.1762232252
 20
26.4088652482
 11
17.3762232252
 21
27.4088652482
  0
LINE
  5
225
100
AcDbEntity
  8
0
100
AcDbLine
 62
7
  6
BYLAYER
 10
17.3762232252
 20
27.4088652482
 11
17.3762232252
 21
53.4088652482
  0
LINE
  5
226
100
AcDbEntity
  8
0
100
AcDbLine
 62
7
  6
BYLAYER
 10
18.1762232252
 20
26.4088652482
 11
34.5762232252
 21
26.4088652482
  0
LINE
  5
227
100
AcDbEntity
  8
0
100
AcDbLine
 62
7
  6
BYLAYER
 10
35.3762232252
 20
27.4088652482
 11
17.3762232252
 21
27.4088652482
  0
LINE
  5
228
100
AcDbEntity
  8
0
100
AcDbLine
 62
7
  6
BYLAYER
 10
18.1762232252
 20
18.4088652482
 11
18.1762232252
 21
26.4088652482
  0
LINE
  5
229
100
AcDbEntity
  8
0
100
AcDbLine
 62
7
  6
BYLAYER
 10
18.1762232252
 20
61.4088652482
 11
18.1762232252
 21
68.4088652482
  0
LINE
  5
22A
100
AcDbEntity
  8
0
100
AcDbLine
 62
7
  6
BYLAYER
 10
19.4480199949
 20
60.3370684785
 11
19.4480199949
 21
58.480662018
  0
LINE
  5
22B
100
AcDbEntity
  8
0
100
AcDbLine
 62
7
  6
BYLAYER
 10
19.4480199949
 20
56.3370684785
 11
19.4480199949
 21
54.480662018
  0
LINE
  5
22C
100
AcDbEntity
  8
0
100
AcDbLine
 62
7
  6
BYLAYER
 10
38.3762232252
 20
53.4088652482
 11
40.2326296857
 21
54.480662018
  0
LINE
  5
22D
100
AcDbEntity
  8
0
100
AcDbLine
 62
7
  6
BYLAYER
 10
20.3762232252
 20
5.9088652482
 11
20.3762232252
 21
11.9088652482
  0
LINE
  5
22E
100
AcDbEntity
  8
0
100
AcDbLine
 62
7
  6
BYLAYER
 10
20.8762232252
 20
12.9088652482
 11
20.8762232252
 21
17.9088652482
  0
LINE
  5
22F
100
AcDbEntity
  8
0
100
AcDbLine
 62
7
  6
BYLAYER
 10
31.8762232252
 20
12.9088652482
 11
32.3762232252
 21
11.9088652482
  0
LINE
  5
230
100
AcDbEntity
  8
0
100
AcDbLine
 62
7
  6
BYLAYER
 10
31.8762232252
 20
17.9088652482
 11
31.8762232252
 21
12.9088652482
  0
LINE
  5
231
100
AcDbEntity
  8
0
100
AcDbLine
 62
7
  6
BYLAYER
 10
32.3762232252
 20
11.9088652482
 11
32.3762232252
 21
5.9088652482
  0
LINE
  5
232
100
AcDbEntity
  8
0
100
AcDbLine
 62
7
  6
BYLAYER
 10
33.3044264554
 20
60.3370684785
 11
33.3044264554
 21
58.480662018
  0
LINE
  5
233
100
AcDbEntity
  8
0
100
AcDbLine
 62
7
  6
BYLAYER
 10
33.3044264554
 20
56.3370684785
 11
33.3044264554
 21
54.480662018
  0
LINE
  5
234
100
AcDbEntity
  8
0
100
AcDbLine
 62
7
  6
BYLAYER
 10
20.3762232252
 20
11.9088652482
 11
20.8762232252
 21
12.9088652482
  0
LINE
  5
235
100
AcDbEntity
  8
0
100
AcDbLine
 62
7
  6
BYLAYER
 10
34.5762232252
 20
68.4088652482
 11
34.5762232252
 21
61.4088652482
  0
LINE
  5
236
100
AcDbEntity
  8
0
100
AcDbLine
 62
7
  6
BYLAYER
 10
34.5762232252
 20
26.4088652482
 11
34.5762232252
 21
18.4088652482
  0
LINE
  5
237
100
AcDbEntity
  8
0
100
AcDbLine
 62
7
  6
BYLAYER
 10
35.3762232252
 20
53.4088652482
 11
35.3762232252
 21
27.4088652482
  0
LINE
  5
238
100
AcDbEntity
  8
0
100
AcDbLine
 62
7
  6
BYLAYER
 10
12.5198167646
 20
54.480662018
 11
14.3762232252
 21
53.4088652482
  0
LINE
  5
239
100
AcDbEntity
  8
0
100
AcDbLine
 62
7
  6
BYLAYER
 10
40.2326296857
 20
60.3370684785
 11
40.2326296857
 21
58.480662018
  0
LINE
  5
23A
100
AcDbEntity
  8
0
100
AcDbLine
 62
7
  6
BYLAYER
 10
40.2326296857
 20
56.3370684785
 11
40.2326296857
 21
54.480662018
  0
LINE
  5
23B
100
AcDbEntity
  8
0
100
AcDbLine
 62
7
  6
BYLAYER
 10
35.3762232252
 20
27.4088652482
 11
34.5762232252
 21
26.4088652482
  0
LINE
  5
23C
100
AcDbEntity
  8
0
100
AcDbLine
 62
7
  6
BYLAYER
 10
12.5198167646
 20
58.480662018
 11
14.3762232252
 21
57.4088652482
  0
LINE
  5
23D
100
AcDbEntity
  8
0
100
AcDbLine
 62
7
  6
BYLAYER
 10
38.3762232252
 20
53.4088652482
 11
14.3762232252
 21
53.4088652482
  0
LINE
  5
23E
100
AcDbEntity
  8
0
100
AcDbLine
 62
7
  6
BYLAYER
 10
32.3762232252
 20
5.9088652482
 11
31.8762232252
 21
4.9088652482
  0
LINE
  5
23F
100
AcDbEntity
  8
0
100
AcDbLine
 62
7
  6
BYLAYER
 10
34.5762232252
 20
18.4088652482
 11
33.5762232252
 21
17.9088652482
  0
LINE
  5
240
100
AcDbEntity
  8
0
100
AcDbLine
 62
7
  6
BYLAYER
 10
38.3762232252
 20
57.4088652482
 11
14.3762232252
 21
57.4088652482
  0
LINE
  5
241
100
AcDbEntity
  8
0
100
AcDbLine
 62
7
  6
BYLAYER
 10
14.3762232252
 20
61.4088652482
 11
38.3762232252
 21
61.4088652482
  0
LINE
  5
242
100
AcDbEntity
  8
0
100
AcDbLine
 62
7
  6
BYLAYER
 10
40.2326296857
 20
56.3370684785
 11
38.3762232252
 21
57.4088652482
  0
LINE
  5
243
100
AcDbEntity
  8
0
100
AcDbLine
 62
7
  6
BYLAYER
 10
40.2326296857
 20
60.3370684785
 11
38.3762232252
 21
61.4088652482
  0
LINE
  5
244
100
AcDbEntity
  8
0
100
AcDbLine
 62
7
  6
BYLAYER
 10
18.1762232252
 20
68.4088652482
 11
34.5762232252
 21
68.4088652482
  0
ARC
  5
245
100
AcDbEntity
  8
0
100
AcDbCircle
 62
7
  6
BYLAYER
 10
22.8406893192
 20
15.9088652482
 40
0.5
100
AcDbArc
 50
111.3703802996
 51
248.0729064008
  0
ARC
  5
246
100
AcDbEntity
  8
0
100
AcDbCircle
 62
7
  6
BYLAYER
 10
29.9117571311
 20
15.9088652482
 40
0.5
100
AcDbArc
 50
291.3703802996
 51
68.0729064008
  0
SPLINE
  5
247
100
AcDbEntity
  8
0
100
AcDbSpline
 62
7
  6
BYLAYER
 70
0
 71
3
 72
14
 73
10
 74
0
 42
0.0000001
 43
0.0000001
 44
0.0000000001
 40
0.0
 40
0.0
 40
0.0
 40
0.0
 40
0.1199286093
 40
0.2404930608
 40
0.3622461737
 40
0.485641672
 40
0.610991295
 40
0.7384771918
 40
1.0
 40
1.0
 40
1.0
 40
1.0
 10
15.9839183797
 20
53.4088652482
 30
0.0
 10
15.8372813023
 20
53.4088652482
 30
0.0
 10
15.5430808475
 20
53.4213277393
 30
0.0
 10
15.1031999466
 20
53.4770195987
 30
0.0
 10
14.6650406338
 20
53.5685126417
 30
0.0
 10
14.229290577
 20
53.6937083398
 30
0.0
 10
13.796313398
 20
53.8500320162
 30
0.0
 10
13.218259495
 20
54.0984826709
 30
0.0
 10
12.7967411506
 20
54.3207796492
 30
0.0
 10
12.5198167646
 20
54.480662018
 30
0.0
  0
SPLINE
  5
248
100
AcDbEntity
  8
0
100
AcDbSpline
 62
7
  6
BYLAYER
 70
0
 71
3
 72
14
 73
10
 74
0
 42
0.0000001
 43
0.0000001
 44
0.0000000001
 40
0.0
 40
0.0
 40
0.0
 40
0.0
 40
0.2615228632
 40
0.3890087986
 40
0.5143584456
 40
0.6377539801
 40
0.7595070544
 40
0.8800714271
 40
1.0
 40
1.0
 40
1.0
 40
1.0
 10
33.3044264554
 20
56.3370684785
 30
0.0
 10
33.5813508983
 20
56.4969508801
 30
0.0
 10
34.0028695093
 20
56.7192475919
 30
0.0
 10
34.5809235482
 20
56.9676982854
 30
0.0
 10
35.0139007978
 20
57.1240220599
 30
0.0
 10
35.4496506724
 20
57.249218556
 30
0.0
 10
35.8878100566
 20
57.3407107798
 30
0.0
 10
36.3276907046
 20
57.3964030182
 30
0.0
 10
36.6218910383
 20
57.4088652482
 30
0.0
 10
36.7685280706
 20
57.4088652482
 30
0.0
  0
SPLINE
  5
249
100
AcDbEntity
  8
0
100
AcDbSpline
 62
7
  6
BYLAYER
 70
0
 71
3
 72
13
 73
9
 74
0
 42
0.0000001
 43
0.0000001
 44
0.0000000001
 40
0.0
 40
0.0
 40
0.0
 40
0.0
 40
0.1250057515
 40
0.2500202242
 40
0.3750288535
 40
0.5000355765
 40
0.7500130495
 40
1.0
 40
1.0
 40
1.0
 40
1.0
 10
26.3762232252
 20
53.4088652482
 30
0.0
 10
26.0831441591
 20
53.4088652482
 30
0.0
 10
25.4968903701
 20
53.421250831
 30
0.0
 10
24.6191355668
 20
53.4766702424
 30
0.0
 10
23.7443610573
 20
53.567791587
 30
0.0
 10
22.5837392661
 20
53.7341904403
 30
0.0
 10
21.1454482954
 20
54.0201298933
 30
0.0
 10
20.0111272063
 20
54.3181069679
 30
0.0
 10
19.4480199949
 20
54.480662018
 30
0.0
  0
SPLINE
  5
24A
100
AcDbEntity
  8
0
100
AcDbSpline
 62
7
  6
BYLAYER
 70
0
 71
3
 72
14
 73
10
 74
0
 42
0.0000001
 43
0.0000001
 44
0.0000000001
 40
0.0
 40
0.0
 40
0.0
 40
0.0
 40
0.2615228632
 40
0.3890087986
 40
0.5143584456
 40
0.6377539801
 40
0.7595070544
 40
0.8800714271
 40
1.0
 40
1.0
 40
1.0
 40
1.0
 10
19.4480199949
 20
54.480662018
 30
0.0
 10
19.171095552
 20
54.3207796163
 30
0.0
 10
18.749576941
 20
54.0984829046
 30
0.0
 10
18.1715229021
 20
53.850032211
 30
0.0
 10
17.7385456525
 20
53.6937084365
 30
0.0
 10
17.3027957779
 20
53.5685119405
 30
0.0
 10
16.8646363937
 20
53.4770197167
 30
0.0
 10
16.4247557457
 20
53.4213274783
 30
0.0
 10
16.130555412
 20
53.4088652482
 30
0.0
 10
15.9839183797
 20
53.4088652482
 30
0.0
  0
SPLINE
  5
24B
100
AcDbEntity
  8
0
100
AcDbSpline
 62
7
  6
BYLAYER
 70
0
 71
3
 72
14
 73
10
 74
0
 42
0.0000001
 43
0.0000001
 44
0.0000000001
 40
0.0
 40
0.0
 40
0.0
 40
0.0
 40
0.1199286093
 40
0.2404930608
 40
0.3622461737
 40
0.485641672
 40
0.610991295
 40
0.7384771918
 40
1.0
 40
1.0
 40
1.0
 40
1.0
 10
36.7685280706
 20
53.4088652482
 30
0.0
 10
36.6218909931
 20
53.4088652482
 30
0.0
 10
36.3276905383
 20
53.4213277393
 30
0.0
 10
35.8878096375
 20
53.4770195987
 30
0.0
 10
35.4496503246
 20
53.5685126417
 30
0.0
 10
35.0139002678
 20
53.6937083398
 30
0.0
 10
34.5809230889
 20
53.8500320162
 30
0.0
 10
34.0028691859
 20
54.0984826709
 30
0.0
 10
33.5813508414
 20
54.3207796492
 30
0.0
 10
33.3044264554
 20
54.480662018
 30
0.0
  0
SPLINE
  5
24C
100
AcDbEntity
  8
0
100
AcDbSpline
 62
7
  6
BYLAYER
 70
0
 71
3
 72
13
 73
9
 74
0
 42
0.0000001
 43
0.0000001
 44
0.0000000001
 40
0.0
 40
0.0
 40
0.0
 40
0.0
 40
0.2499870333
 40
0.499964558
 40
0.6249712931
 40
0.7499798971
 40
0.8749942858
 40
1.0
 40
1.0
 40
1.0
 40
1.0
 10
33.3044264554
 20
54.480662018
 30
0.0
 10
32.7413190581
 20
54.3181069142
 30
0.0
 10
31.6069975399
 20
54.0201301862
 30
0.0
 10
30.168706256
 20
53.7341907888
 30
0.0
 10
29.0080845134
 20
53.5677908715
 30
0.0
 10
28.133310144
 20
53.4766703699
 30
0.0
 10
27.2555557181
 20
53.421250567
 30
0.0
 10
26.6693022034
 20
53.4088652482
 30
0.0
 10
26.3762232252
 20
53.4088652482
 30
0.0
  0
SPLINE
  5
24D
100
AcDbEntity
  8
0
100
AcDbSpline
 62
7
  6
BYLAYER
 70
0
 71
3
 72
14
 73
10
 74
0
 42
0.0000001
 43
0.0000001
 44
0.0000000001
 40
0.0
 40
0.0
 40
0.0
 40
0.0
 40
0.2615228632
 40
0.3890087986
 40
0.5143584456
 40
0.6377539801
 40
0.7595070544
 40
0.8800714271
 40
1.0
 40
1.0
 40
1.0
 40
1.0
 10
12.5198167646
 20
56.3370684785
 30
0.0
 10
12.7967412074
 20
56.4969508801
 30
0.0
 10
13.2182598185
 20
56.7192475919
 30
0.0
 10
13.7963138573
 20
56.9676982854
 30
0.0
 10
14.2292911069
 20
57.1240220599
 30
0.0
 10
14.6650409816
 20
57.249218556
 30
0.0
 10
15.1032003658
 20
57.3407107798
 30
0.0
 10
15.5430810138
 20
57.3964030182
 30
0.0
 10
15.8372813475
 20
57.4088652482
 30
0.0
 10
15.9839183797
 20
57.4088652482
 30
0.0
  0
SPLINE
  5
24E
100
AcDbEntity
  8
0
100
AcDbSpline
 62
7
  6
BYLAYER
 70
0
 71
3
 72
14
 73
10
 74
0
 42
0.0000001
 43
0.0000001
 44
0.0000000001
 40
0.0
 40
0.0
 40
0.0
 40
0.0
 40
0.2615228632
 40
0.3890087986
 40
0.5143584456
 40
0.6377539801
 40
0.7595070544
 40
0.8800714271
 40
1.0
 40
1.0
 40
1.0
 40
1.0
 10
40.2326296857
 20
54.480662018
 30
0.0
 10
39.9557052429
 20
54.3207796163
 30
0.0
 10
39.5341866318
 20
54.0984829046
 30
0.0
 10
38.956132593
 20
53.850032211
 30
0.0
 10
38.5231553434
 20
53.6937084365
 30
0.0
 10
38.0874054688
 20
53.5685119405
 30
0.0
 10
37.6492460845
 20
53.4770197167
 30
0.0
 10
37.2093654366
 20
53.4213274783
 30
0.0
 10
36.9151651028
 20
53.4088652482
 30
0.0
 10
36.7685280706
 20
53.4088652482
 30
0.0
  0
SPLINE
  5
24F
100
AcDbEntity
  8
0
100
AcDbSpline
 62
7
  6
BYLAYER
 70
0
 71
3
 72
13
 73
9
 74
0
 42
0.0000001
 43
0.0000001
 44
0.0000000001
 40
0.0
 40
0.0
 40
0.0
 40
0.0
 40
0.1250057515
 40
0.2500202242
 40
0.3750288535
 40
0.5000355765
 40
0.7500130495
 40
1.0
 40
1.0
 40
1.0
 40
1.0
 10
26.3762232252
 20
57.4088652482
 30
0.0
 10
26.6693022912
 20
57.4088652482
 30
0.0
 10
27.2555560802
 20
57.3964796654
 30
0.0
 10
28.1333108835
 20
57.3410602541
 30
0.0
 10
29.008085393
 20
57.2499389095
 30
0.0
 10
30.1687071842
 20
57.0835400562
 30
0.0
 10
31.6069981549
 20
56.7976006031
 30
0.0
 10
32.741319244
 20
56.4996235285
 30
0.0
 10
33.3044264554
 20
56.3370684785
 30
0.0
  0
SPLINE
  5
250
100
AcDbEntity
  8
0
100
AcDbSpline
 62
7
  6
BYLAYER
 70
0
 71
3
 72
13
 73
9
 74
0
 42
0.0000001
 43
0.0000001
 44
0.0000000001
 40
0.0
 40
0.0
 40
0.0
 40
0.0
 40
0.2499870333
 40
0.499964558
 40
0.6249712931
 40
0.7499798971
 40
0.8749942858
 40
1.0
 40
1.0
 40
1.0
 40
1.0
 10
19.4480199949
 20
56.3370684785
 30
0.0
 10
20.0111273922
 20
56.4996235822
 30
0.0
 10
21.1454489104
 20
56.7976003102
 30
0.0
 10
22.5837401943
 20
57.0835397076
 30
0.0
 10
23.744361937
 20
57.2499396249
 30
0.0
 10
24.6191363063
 20
57.3410601266
 30
0.0
 10
25.4968907322
 20
57.3964799295
 30
0.0
 10
26.0831442469
 20
57.4088652482
 30
0.0
 10
26.3762232252
 20
57.4088652482
 30
0.0
  0
SPLINE
  5
251
100
AcDbEntity
  8
0
100
AcDbSpline
 62
7
  6
BYLAYER
 70
0
 71
3
 72
14
 73
10
 74
0
 42
0.0000001
 43
0.0000001
 44
0.0000000001
 40
0.0
 40
0.0
 40
0.0
 40
0.0
 40
0.1199286093
 40
0.2404930608
 40
0.3622461737
 40
0.485641672
 40
0.610991295
 40
0.7384771918
 40
1.0
 40
1.0
 40
1.0
 40
1.0
 10
36.7685280706
 20
57.4088652482
 30
0.0
 10
36.9151651481
 20
57.4088652482
 30
0.0
 10
37.2093656029
 20
57.3964027572
 30
0.0
 10
37.6492465037
 20
57.3407108977
 30
0.0
 10
38.0874058165
 20
57.2492178547
 30
0.0
 10
38.5231558734
 20
57.1240221567
 30
0.0
 10
38.9561330523
 20
56.9676984803
 30
0.0
 10
39.5341869553
 20
56.7192478255
 30
0.0
 10
39.9557052998
 20
56.4969508473
 30
0.0
 10
40.2326296857
 20
56.3370684785
 30
0.0
  0
SPLINE
  5
252
100
AcDbEntity
  8
0
100
AcDbSpline
 62
7
  6
BYLAYER
 70
0
 71
3
 72
14
 73
10
 74
0
 42
0.0000001
 43
0.0000001
 44
0.0000000001
 40
0.0
 40
0.0
 40
0.0
 40
0.0
 40
0.1199286093
 40
0.2404930608
 40
0.3622461737
 40
0.485641672
 40
0.610991295
 40
0.7384771918
 40
1.0
 40
1.0
 40
1.0
 40
1.0
 10
15.9839183797
 20
57.4088652482
 30
0.0
 10
16.1305554572
 20
57.4088652482
 30
0.0
 10
16.424755912
 20
57.3964027572
 30
0.0
 10
16.8646368129
 20
57.3407108977
 30
0.0
 10
17.3027961257
 20
57.2492178547
 30
0.0
 10
17.7385461825
 20
57.1240221567
 30
0.0
 10
18.1715233615
 20
56.9676984803
 30
0.0
 10
18.7495772645
 20
56.7192478255
 30
0.0
 10
19.1710956089
 20
56.4969508473
 30
0.0
 10
19.4480199949
 20
56.3370684785
 30
0.0
  0
SPLINE
  5
253
100
AcDbEntity
  8
0
100
AcDbSpline
 62
7
  6
BYLAYER
 70
0
 71
3
 72
14
 73
10
 74
0
 42
0.0000001
 43
0.0000001
 44
0.0000000001
 40
0.0
 40
0.0
 40
0.0
 40
0.0
 40
0.1199286093
 40
0.2404930608
 40
0.3622461737
 40
0.485641672
 40
0.610991295
 40
0.7384771918
 40
1.0
 40
1.0
 40
1.0
 40
1.0
 10
15.9839183797
 20
57.4088652482
 30
0.0
 10
15.8372813023
 20
57.4088652482
 30
0.0
 10
15.5430808475
 20
57.4213277393
 30
0.0
 10
15.1031999466
 20
57.4770195987
 30
0.0
 10
14.6650406338
 20
57.5685126417
 30
0.0
 10
14.229290577
 20
57.6937083398
 30
0.0
 10
13.796313398
 20
57.8500320162
 30
0.0
 10
13.218259495
 20
58.0984826709
 30
0.0
 10
12.7967411506
 20
58.3207796492
 30
0.0
 10
12.5198167646
 20
58.480662018
 30
0.0
  0
SPLINE
  5
254
100
AcDbEntity
  8
0
100
AcDbSpline
 62
7
  6
BYLAYER
 70
0
 71
3
 72
14
 73
10
 74
0
 42
0.0000001
 43
0.0000001
 44
0.0000000001
 40
0.0
 40
0.0
 40
0.0
 40
0.0
 40
0.2615228632
 40
0.3890087986
 40
0.5143584456
 40
0.6377539801
 40
0.7595070544
 40
0.8800714271
 40
1.0
 40
1.0
 40
1.0
 40
1.0
 10
33.3044264554
 20
60.3370684785
 30
0.0
 10
33.5813508983
 20
60.4969508801
 30
0.0
 10
34.0028695093
 20
60.7192475919
 30
0.0
 10
34.5809235482
 20
60.9676982854
 30
0.0
 10
35.0139007978
 20
61.1240220599
 30
0.0
 10
35.4496506724
 20
61.249218556
 30
0.0
 10
35.8878100566
 20
61.3407107798
 30
0.0
 10
36.3276907046
 20
61.3964030182
 30
0.0
 10
36.6218910383
 20
61.4088652482
 30
0.0
 10
36.7685280706
 20
61.4088652482
 30
0.0
  0
SPLINE
  5
255
100
AcDbEntity
  8
0
100
AcDbSpline
 62
7
  6
BYLAYER
 70
0
 71
3
 72
13
 73
9
 74
0
 42
0.0000001
 43
0.0000001
 44
0.0000000001
 40
0.0
 40
0.0
 40
0.0
 40
0.0
 40
0.1250057515
 40
0.2500202242
 40
0.3750288535
 40
0.5000355765
 40
0.7500130495
 40
1.0
 40
1.0
 40
1.0
 40
1.0
 10
26.3762232252
 20
57.4088652482
 30
0.0
 10
26.0831441591
 20
57.4088652482
 30
0.0
 10
25.4968903701
 20
57.421250831
 30
0.0
 10
24.6191355668
 20
57.4766702424
 30
0.0
 10
23.7443610573
 20
57.567791587
 30
0.0
 10
22.5837392661
 20
57.7341904403
 30
0.0
 10
21.1454482954
 20
58.0201298933
 30
0.0
 10
20.0111272063
 20
58.3181069679
 30
0.0
 10
19.4480199949
 20
58.480662018
 30
0.0
  0
SPLINE
  5
256
100
AcDbEntity
  8
0
100
AcDbSpline
 62
7
  6
BYLAYER
 70
0
 71
3
 72
14
 73
10
 74
0
 42
0.0000001
 43
0.0000001
 44
0.0000000001
 40
0.0
 40
0.0
 40
0.0
 40
0.0
 40
0.2615228632
 40
0.3890087986
 40
0.5143584456
 40
0.6377539801
 40
0.7595070544
 40
0.8800714271
 40
1.0
 40
1.0
 40
1.0
 40
1.0
 10
19.4480199949
 20
58.480662018
 30
0.0
 10
19.171095552
 20
58.3207796163
 30
0.0
 10
18.749576941
 20
58.0984829046
 30
0.0
 10
18.1715229021
 20
57.850032211
 30
0.0
 10
17.7385456525
 20
57.6937084365
 30
0.0
 10
17.3027957779
 20
57.5685119405
 30
0.0
 10
16.8646363937
 20
57.4770197167
 30
0.0
 10
16.4247557457
 20
57.4213274783
 30
0.0
 10
16.130555412
 20
57.4088652482
 30
0.0
 10
15.9839183797
 20
57.4088652482
 30
0.0
  0
SPLINE
  5
257
100
AcDbEntity
  8
0
100
AcDbSpline
 62
7
  6
BYLAYER
 70
0
 71
3
 72
14
 73
10
 74
0
 42
0.0000001
 43
0.0000001
 44
0.0000000001
 40
0.0
 40
0.0
 40
0.0
 40
0.0
 40
0.1199286093
 40
0.2404930608
 40
0.3622461737
 40
0.485641672
 40
0.610991295
 40
0.7384771918
 40
1.0
 40
1.0
 40
1.0
 40
1.0
 10
36.7685280706
 20
57.4088652482
 30
0.0
 10
36.6218909931
 20
57.4088652482
 30
0.0
 10
36.3276905383
 20
57.4213277393
 30
0.0
 10
35.8878096375
 20
57.4770195987
 30
0.0
 10
35.4496503246
 20
57.5685126417
 30
0.0
 10
35.0139002678
 20
57.6937083398
 30
0.0
 10
34.5809230889
 20
57.8500320162
 30
0.0
 10
34.0028691859
 20
58.0984826709
 30
0.0
 10
33.5813508414
 20
58.3207796492
 30
0.0
 10
33.3044264554
 20
58.480662018
 30
0.0
  0
SPLINE
  5
258
100
AcDbEntity
  8
0
100
AcDbSpline
 62
7
  6
BYLAYER
 70
0
 71
3
 72
13
 73
9
 74
0
 42
0.0000001
 43
0.0000001
 44
0.0000000001
 40
0.0
 40
0.0
 40
0.0
 40
0.0
 40
0.2499870333
 40
0.499964558
 40
0.6249712931
 40
0.7499798971
 40
0.8749942858
 40
1.0
 40
1.0
 40
1.0
 40
1.0
 10
33.3044264554
 20
58.480662018
 30
0.0
 10
32.7413190581
 20
58.3181069142
 30
0.0
 10
31.6069975399
 20
58.0201301862
 30
0.0
 10
30.168706256
 20
57.7341907888
 30
0.0
 10
29.0080845134
 20
57.5677908715
 30
0.0
 10
28.133310144
 20
57.4766703699
 30
0.0
 10
27.2555557181
 20
57.421250567
 30
0.0
 10
26.6693022034
 20
57.4088652482
 30
0.0
 10
26.3762232252
 20
57.4088652482
 30
0.0
  0
SPLINE
  5
259
100
AcDbEntity
  8
0
100
AcDbSpline
 62
7
  6
BYLAYER
 70
0
 71
3
 72
14
 73
10
 74
0
 42
0.0000001
 43
0.0000001
 44
0.0000000001
 40
0.0
 40
0.0
 40
0.0
 40
0.0
 40
0.2615228632
 40
0.3890087986
 40
0.5143584456
 40
0.6377539801
 40
0.7595070544
 40
0.8800714271
 40
1.0
 40
1.0
 40
1.0
 40
1.0
 10
12.5198167646
 20
60.3370684785
 30
0.0
 10
12.7967412074
 20
60.4969508801
 30
0.0
 10
13.2182598185
 20
60.7192475919
 30
0.0
 10
13.7963138573
 20
60.9676982854
 30
0.0
 10
14.2292911069
 20
61.1240220599
 30
0.0
 10
14.6650409816
 20
61.249218556
 30
0.0
 10
15.1032003658
 20
61.3407107798
 30
0.0
 10
15.5430810138
 20
61.3964030182
 30
0.0
 10
15.8372813475
 20
61.4088652482
 30
0.0
 10
15.9839183797
 20
61.4088652482
 30
0.0
  0
SPLINE
  5
25A
100
AcDbEntity
  8
0
100
AcDbSpline
 62
7
  6
BYLAYER
 70
0
 71
3
 72
14
 73
10
 74
0
 42
0.0000001
 43
0.0000001
 44
0.0000000001
 40
0.0
 40
0.0
 40
0.0
 40
0.0
 40
0.2615228632
 40
0.3890087986
 40
0.5143584456
 40
0.6377539801
 40
0.7595070544
 40
0.8800714271
 40
1.0
 40
1.0
 40
1.0
 40
1.0
 10
40.2326296857
 20
58.480662018
 30
0.0
 10
39.9557052429
 20
58.3207796163
 30
0.0
 10
39.5341866318
 20
58.0984829046
 30
0.0
 10
38.956132593
 20
57.850032211
 30
0.0
 10
38.5231553434
 20
57.6937084365
 30
0.0
 10
38.0874054688
 20
57.5685119405
 30
0.0
 10
37.6492460845
 20
57.4770197167
 30
0.0
 10
37.2093654366
 20
57.4213274783
 30
0.0
 10
36.9151651028
 20
57.4088652482
 30
0.0
 10
36.7685280706
 20
57.4088652482
 30
0.0
  0
SPLINE
  5
25B
100
AcDbEntity
  8
0
100
AcDbSpline
 62
7
  6
BYLAYER
 70
0
 71
3
 72
13
 73
9
 74
0
 42
0.0000001
 43
0.0000001
 44
0.0000000001
 40
0.0
 40
0.0
 40
0.0
 40
0.0
 40
0.1250057515
 40
0.2500202242
 40
0.3750288535
 40
0.5000355765
 40
0.7500130495
 40
1.0
 40
1.0
 40
1.0
 40
1.0
 10
26.3762232252
 20
61.4088652482
 30
0.0
 10
26.6693022912
 20
61.4088652482
 30
0.0
 10
27.2555560802
 20
61.3964796654
 30
0.0
 10
28.1333108835
 20
61.3410602541
 30
0.0
 10
29.008085393
 20
61.2499389095
 30
0.0
 10
30.1687071842
 20
61.0835400562
 30
0.0
 10
31.6069981549
 20
60.7976006031
 30
0.0
 10
32.741319244
 20
60.4996235285
 30
0.0
 10
33.3044264554
 20
60.3370684785
 30
0.0
  0
SPLINE
  5
25C
100
AcDbEntity
  8
0
100
AcDbSpline
 62
7
  6
BYLAYER
 70
0
 71
3
 72
13
 73
9
 74
0
 42
0.0000001
 43
0.0000001
 44
0.0000000001
 40
0.0
 40
0.0
 40
0.0
 40
0.0
 40
0.2499870333
 40
0.499964558
 40
0.6249712931
 40
0.7499798971
 40
0.8749942858
 40
1.0
 40
1.0
 40
1.0
 40
1.0
 10
19.4480199949
 20
60.3370684785
 30
0.0
 10
20.0111273922
 20
60.4996235822
 30
0.0
 10
21.1454489104
 20
60.7976003102
 30
0.0
 10
22.5837401943
 20
61.0835397076
 30
0.0
 10
23.744361937
 20
61.2499396249
 30
0.0
 10
24.6191363063
 20
61.3410601266
 30
0.0
 10
25.4968907322
 20
61.3964799295
 30
0.0
 10
26.0831442469
 20
61.4088652482
 30
0.0
 10
26.3762232252
 20
61.4088652482
 30
0.0
  0
SPLINE
  5
25D
100
AcDbEntity
  8
0
100
AcDbSpline
 62
7
  6
BYLAYER
 70
0
 71
3
 72
14
 73
10
 74
0
 42
0.0000001
 43
0.0000001
 44
0.0000000001
 40
0.0
 40
0.0
 40
0.0
 40
0.0
 40
0.1199286093
 40
0.2404930608
 40
0.3622461737
 40
0.485641672
 40
0.610991295
 40
0.7384771918
 40
1.0
 40
1.0
 40
1.0
 40
1.0
 10
36.7685280706
 20
61.4088652482
 30
0.0
 10
36.9151651481
 20
61.4088652482
 30
0.0
 10
37.2093656029
 20
61.3964027572
 30
0.0
 10
37.6492465037
 20
61.3407108977
 30
0.0
 10
38.0874058165
 20
61.2492178547
 30
0.0
 10
38.5231558734
 20
61.1240221567
 30
0.0
 10
38.9561330523
 20
60.9676984803
 30
0.0
 10
39.5341869553
 20
60.7192478255
 30
0.0
 10
39.9557052998
 20
60.4969508473
 30
0.0
 10
40.2326296857
 20
60.3370684785
 30
0.0
  0
SPLINE
  5
25E
100
AcDbEntity
  8
0
100
AcDbSpline
 62
7
  6
BYLAYER
 70
0
 71
3
 72
14
 73
10
 74
0
 42
0.0000001
 43
0.0000001
 44
0.0000000001
 40
0.0
 40
0.0
 40
0.0
 40
0.0
 40
0.1199286093
 40
0.2404930608
 40
0.3622461737
 40
0.485641672
 40
0.610991295
 40
0.7384771918
 40
1.0
 40
1.0
 40
1.0
 40
1.0
 10
15.9839183797
 20
61.4088652482
 30
0.0
 10
16.1305554572
 20
61.4088652482
 30
0.0
 10
16.424755912
 20
61.3964027572
 30
0.0
 10
16.8646368129
 20
61.3407108977
 30
0.0
 10
17.3027961257
 20
61.2492178547
 30
0.0
 10
17.7385461825
 20
61.1240221567
 30
0.0
 10
18.1715233615
 20
60.9676984803
 30
0.0
 10
18.7495772645
 20
60.7192478255
 30
0.0
 10
19.1710956089
 20
60.4969508473
 30
0.0
 10
19.4480199949
 20
60.3370684785
 30
0.0
  0
SPLINE
  5
25F
100
AcDbEntity
  8
0
100
AcDbSpline
 62
7
  6
BYLAYER
 70
0
 71
3
 72
13
 73
9
 74
0
 42
0.0000001
 43
0.0000001
 44
0.0000000001
 40
0.0
 40
0.0
 40
0.0
 40
0.0
 40
0.2838903964
 40
0.5503474105
 40
0.6735549262
 40
0.7888764528
 40
0.8970167443
 40
1.0
 40
1.0
 40
1.0
 40
1.0
 10
29.8956531808
 20
15.9088652482
 30
0.0
 10
29.8956531808
 20
15.8442977838
 30
0.0
 10
29.9143322371
 20
15.7183517711
 30
0.0
 10
29.983401493
 20
15.5781562132
 30
0.0
 10
30.0606908969
 20
15.4923182905
 30
0.0
 10
30.1247128912
 20
15.4452279467
 30
0.0
 10
30.1936295395
 20
15.4157426473
 30
0.0
 10
30.2418667748
 20
15.4088881435
 30
0.0
 10
30.2652890807
 20
15.4088877278
 30
0.0
  0
SPLINE
  5
260
100
AcDbEntity
  8
0
100
AcDbSpline
 62
7
  6
BYLAYER
 70
0
 71
3
 72
13
 73
9
 74
0
 42
0.0000001
 43
0.0000001
 44
0.0000000001
 40
0.0
 40
0.0
 40
0.0
 40
0.0
 40
0.2838903964
 40
0.5503474105
 40
0.6735549262
 40
0.7888764528
 40
0.8970167443
 40
1.0
 40
1.0
 40
1.0
 40
1.0
 10
22.8567932695
 20
15.9088652482
 30
0.0
 10
22.8567932695
 20
15.9734327127
 30
0.0
 10
22.8381142132
 20
16.0993787253
 30
0.0
 10
22.7690449573
 20
16.2395742833
 30
0.0
 10
22.6917555534
 20
16.3254122059
 30
0.0
 10
22.6277335591
 20
16.3725025497
 30
0.0
 10
22.5588169109
 20
16.4019878491
 30
0.0
 10
22.5105796755
 20
16.4088423529
 30
0.0
 10
22.4871573696
 20
16.4088427687
 30
0.0
  0
SPLINE
  5
261
100
AcDbEntity
  8
0
100
AcDbSpline
 62
7
  6
BYLAYER
 70
0
 71
3
 72
13
 73
9
 74
0
 42
0.0000001
 43
0.0000001
 44
0.0000000001
 40
0.0
 40
0.0
 40
0.0
 40
0.0
 40
0.1029768226
 40
0.2111068914
 40
0.326428223
 40
0.4496484971
 40
0.7161432417
 40
1.0
 40
1.0
 40
1.0
 40
1.0
 10
30.2652890777
 20
16.4088427687
 30
0.0
 10
30.2418682594
 20
16.4088431844
 30
0.0
 10
30.1936353676
 20
16.4019872139
 30
0.0
 10
30.1247196863
 20
16.3725097106
 30
0.0
 10
30.0606999471
 20
16.3254152262
 30
0.0
 10
29.983396394
 20
16.2395752007
 30
0.0
 10
29.9143333505
 20
16.0993699623
 30
0.0
 10
29.8956531808
 20
15.9734249947
 30
0.0
 10
29.8956531808
 20
15.9088652482
 30
0.0
  0
SPLINE
  5
262
100
AcDbEntity
  8
0
100
AcDbSpline
 62
7
  6
BYLAYER
 70
0
 71
3
 72
13
 73
9
 74
0
 42
0.0000001
 43
0.0000001
 44
0.0000000001
 40
0.0
 40
0.0
 40
0.0
 40
0.0
 40
0.1029768226
 40
0.2111068914
 40
0.326428223
 40
0.4496484971
 40
0.7161432417
 40
1.0
 40
1.0
 40
1.0
 40
1.0
 10
22.4871573726
 20
15.4088877278
 30
0.0
 10
22.5105781909
 20
15.4088873121
 30
0.0
 10
22.5588110827
 20
15.4157432826
 30
0.0
 10
22.627726764
 20
15.4452207859
 30
0.0
 10
22.6917465032
 20
15.4923152703
 30
0.0
 10
22.7690500564
 20
15.5781552957
 30
0.0
 10
22.8381130998
 20
15.7183605342
 30
0.0
 10
22.8567932695
 20
15.8443055018
 30
0.0
 10
22.8567932695
 20
15.9088652482
 30
0.0
  0
SPLINE
  5
263
100
AcDbEntity
  8
0
100
AcDbSpline
 62
7
  6
BYLAYER
 70
0
 71
3
 72
14
 73
10
 74
0
 42
0.0000001
 43
0.0000001
 44
0.0000000001
 40
0.0
 40
0.0
 40
0.0
 40
0.0
 40
0.2903742092
 40
0.4280179183
 40
0.5573938826
 40
0.6778063649
 40
0.7899274367
 40
0.8961045046
 40
1.0
 40
1.0
 40
1.0
 40
1.0
 10
30.602759962
 20
15.9088652482
 30
0.0
 10
30.602759962
 20
15.9732124332
 30
0.0
 10
30.5911868224
 20
16.0688115021
 30
0.0
 10
30.5510121067
 20
16.1859839881
 30
0.0
 10
30.5104943832
 20
16.2621668809
 30
0.0
 10
30.4601319372
 20
16.3252722224
 30
0.0
 10
30.4010466306
 20
16.3727170742
 30
0.0
 10
30.3351422397
 20
16.4022924033
 30
0.0
 10
30.2883124126
 20
16.40884236
 30
0.0
 10
30.2652890777
 20
16.4088427687
 30
0.0
  0
SPLINE
  5
264
100
AcDbEntity
  8
0
100
AcDbSpline
 62
7
  6
BYLAYER
 70
0
 71
3
 72
14
 73
10
 74
0
 42
0.0000001
 43
0.0000001
 44
0.0000000001
 40
0.0
 40
0.0
 40
0.0
 40
0.0
 40
0.2903742092
 40
0.4280179183
 40
0.5573938826
 40
0.6778063649
 40
0.7899274367
 40
0.8961045046
 40
1.0
 40
1.0
 40
1.0
 40
1.0
 10
22.1496864884
 20
15.9088652482
 30
0.0
 10
22.1496864884
 20
15.8445180632
 30
0.0
 10
22.1612596279
 20
15.7489189944
 30
0.0
 10
22.2014343436
 20
15.6317465084
 30
0.0
 10
22.2419520672
 20
15.5555636156
 30
0.0
 10
22.2923145131
 20
15.4924582741
 30
0.0
 10
22.3513998197
 20
15.4450134223
 30
0.0
 10
22.4173042106
 20
15.4154380932
 30
0.0
 10
22.4641340377
 20
15.4088881365
 30
0.0
 10
22.4871573726
 20
15.4088877278
 30
0.0
  0
SPLINE
  5
265
100
AcDbEntity
  8
0
100
AcDbSpline
 62
7
  6
BYLAYER
 70
0
 71
3
 72
14
 73
10
 74
0
 42
0.0000001
 43
0.0000001
 44
0.0000000001
 40
0.0
 40
0.0
 40
0.0
 40
0.0
 40
0.1038899562
 40
0.210058906
 40
0.322178616
 40
0.4426021821
 40
0.5720014094
 40
0.709660758
 40
1.0
 40
1.0
 40
1.0
 40
1.0
 10
22.4871573696
 20
16.4088427687
 30
0.0
 10
22.4641352528
 20
16.4088431773
 30
0.0
 10
22.4173090956
 20
16.4022915054
 30
0.0
 10
22.3514043553
 20
16.3727248877
 30
0.0
 10
22.292322104
 20
16.3252751473
 30
0.0
 10
22.2419501438
 20
16.2621684089
 30
0.0
 10
22.2014313043
 20
16.1859728754
 30
0.0
 10
22.161255989
 20
16.0687999281
 30
0.0
 10
22.1496864884
 20
15.9732047106
 30
0.0
 10
22.1496864884
 20
15.9088652482
 30
0.0
  0
SPLINE
  5
266
100
AcDbEntity
  8
0
100
AcDbSpline
 62
7
  6
BYLAYER
 70
0
 71
3
 72
14
 73
10
 74
0
 42
0.0000001
 43
0.0000001
 44
0.0000000001
 40
0.0
 40
0.0
 40
0.0
 40
0.0
 40
0.1038899562
 40
0.210058906
 40
0.322178616
 40
0.4426021821
 40
0.5720014094
 40
0.709660758
 40
1.0
 40
1.0
 40
1.0
 40
1.0
 10
30.2652890807
 20
15.4088877278
 30
0.0
 10
30.2883111975
 20
15.4088873192
 30
0.0
 10
30.3351373547
 20
15.415438991
 30
0.0
 10
30.401042095
 20
15.4450056088
 30
0.0
 10
30.4601243463
 20
15.4924553491
 30
0.0
 10
30.5104963066
 20
15.5555620875
 30
0.0
 10
30.551015146
 20
15.6317576211
 30
0.0
 10
30.5911904613
 20
15.7489305683
 30
0.0
 10
30.602759962
 20
15.8445257858
 30
0.0
 10
30.602759962
 20
15.9088652482
 30
0.0
  0
ENDSEC
  0
SECTION
  2
OBJECTS
  0
DICTIONARY
  5
C
100
AcDbDictionary
280
0
281
1
  3
ACAD_GROUP
350
D
  3
ACAD_MLINESTYLE
350
17
  3
ACAD_LAYOUT
350
1A
  3
ACAD_PLOTSETTINGS
350
19
  3
ACAD_PLOTSTYLENAME
350
E
  0
DICTIONARY
  5
D
102
{ACAD_REACTORS
330
C
102
}
100
AcDbDictionary
280
0
281
1
  0
ACDBDICTIONARYWDFLT
  5
E
102
{ACAD_REACTORS
330
C
102
}
100
AcDbDictionary
281
1
  3
Normal
350
F
100
AcDbDictionaryWithDefault
340
F
  0
DICTIONARY
  5
17
102
{ACAD_REACTORS
330
C
102
}
100
AcDbDictionary
280
0
281
1
  3
Standard
350
18
  0
DICTIONARY
  5
19
102
{ACAD_REACTORS
330
C
102
}
100
AcDbDictionary
281
1
  0
DICTIONARY
  5
1A
102
{ACAD_REACTORS
330
C
102
}
100
AcDbDictionary
281
1
  3
Model
350
267
  3
Layout1
350
268
  0
ACDBPLACEHOLDER
  5
F
102
{ACAD_REACTORS
330
E
102
}
  0
MLINESTYLE
  5
18
102
{ACAD_REACTORS
330
17
102
}
100
AcDbMlineStyle
  2
STANDARD
 70
0
  3

 62
256
 51
90.0
 52
90.0
 71
2
 49
0.5
 62
256
  6
BYLAYER
 49
-0.5
 62
256
  6
BYLAYER
  0
LAYOUT
  5
267
102
{ACAD_REACTORS
330
1A
102
}
100
AcDbPlotSettings
  1

  2
none_device
  4

  6

 40
0.0
 41
0.0
 42
0.0
 43
0.0
 44
210.0
 45
297.0
 46
0.0
 47
0.0
 48
0.0
 49
0.0
140
0.0
141
0.0
142
1.0
143
1.0
 70
1024
 72
1
 73
0
 74
0
  7

 75
0
147
1.0
148
0.0
149
0.0
100
AcDbLayout
  1
Model
 70
0
 71
0
 10
0.0
 20
0.0
 11
210.0
 21
297.0
 12
0.0
 22
0.0
 32
0.0
 14
0.0
 24
0.0
 34
0.0
 15
0.0
 25
0.0
 35
0.0
146
0.0
 13
0.0
 23
0.0
 33
0.0
 16
1.0
 26
0.0
 36
0.0
 17
0.0
 27
1.0
 37
0.0
 76
0
330
210
345
0
346
0
  0
LAYOUT
  5
268
102
{ACAD_REACTORS
330
1A
102
}
100
AcDbPlotSettings
  1

  2
none_device
  4

  6

 40
0.0
 41
0.0
 42
0.0
 43
0.0
 44
210.0
 45
297.0
 46
0.0
 47
0.0
 48
0.0
 49
0.0
140
0.0
141
0.0
142
1.0
143
1.0
 70
0
 72
1
 73
0
 74
0
  7

 75
0
147
1.0
148
0.0
149
0.0
100
AcDbLayout
  1
Layout1
 70
0
 71
1
 10
0.0
 20
0.0
 11
210.0
 21
297.0
 12
0.0
 22
0.0
 32
0.0
 14
0.0
 24
0.0
 34
0.0
 15
0.0
 25
0.0
 35
0.0
146
0.0
 13
0.0
 23
0.0
 33
0.0
 16
1.0
 26
0.0
 36
0.0
 17
0.0
 27
1.0
 37
0.0
 76
0
330
211
345
0
346
0
  0
ENDSEC
  0
EOF
