999
DXF file: C:\Users\sesa63760\Dev\_Creo\CAD\MCADUE0002560_3D-CAD\drw0001_7.dxf
999
Pro/ENGINEER 2019471 by Parametric Technology Corporation
  0
SECTION
  2
HEADER
  9
$ACADVER
  1
AC1024
  9
$DWGCODEPAGE
  3
ANSI_1252
  9
$EXTMAX
 10
252.8125897929
 20
357.5492341357
 30
0.0
  9
$EXTMIN
 10
0.0
 20
0.0
 30
0.0
  9
$LIMMIN
 10
0.0
 20
0.0
  9
$LIMMAX
 10
252.8125897929
 20
357.5492341357
  9
$VIEWCTR
 10
126.4062948964
 20
178.7746170678
  9
$VIEWSIZE
 40
357.5492341357
  9
$CLAYER
  8
0
  9
$LTSCALE
 40
23.30691304
  9
$CELTYPE
  6
BYLAYER
  9
$DIMSCALE
 40
1.0
  9
$DIMASZ
 40
3.009673688
  9
$DIMEXO
 40
1.0
  9
$DIMDLI
 40
16.1029581003
  9
$DIMEXE
 40
1.0
  9
$DIMCEN
 40
3.8138584974
  9
$DIMLFAC
 40
1.0
  9
$DIMBLK
  1
_FILLED
  9
$DIMALT
 70
0
  9
$DIMALTF
 40
0.0393700787
  9
$DIMTXT
 40
4.2135431632
  9
$DIMTOL
 70
1
  9
$DIMLIM
 70
0
  9
$DIMTFAC
 40
1.0
  9
$DIMTP
 40
0.01
  9
$DIMTM
 40
0.01
  9
$DIMGAP
 40
0.625
  9
$DIMDSEP
 70
46
  9
$AUNITS
 70
0
  9
$PDMODE
 70
3
  9
$PDSIZE
 40
0.3125
  9
$HANDSEED
  5
3E6
  9
$TILEMODE
 70
1
  9
$MEASUREMENT
 70
1
  9
$INSUNITS
 70
4
  0
ENDSEC
  0
SECTION
  2
CLASSES
  0
CLASS
  1
ACDBDICTIONARYWDFLT
  2
AcDbDictionaryWithDefault
  3
AutoCAD 2000
 90
0
 91
1
280
0
281
0
  0
CLASS
  1
ACDBPLACEHOLDER
  2
AcDbPlaceHolder
  3
AutoCAD 2000
 90
0
 91
1
280
0
281
0
  0
CLASS
  1
LAYOUT
  2
AcDbLayout
  3
AutoCAD 2000
 90
0
 91
0
280
0
281
0
  0
ENDSEC
  0
SECTION
  2
TABLES
  0
TABLE
  2
VPORT
  5
8
100
AcDbSymbolTable
 70
2
  0
VPORT
  5
1F4
100
AcDbSymbolTableRecord
100
AcDbViewportTableRecord
  2
*ACTIVE
 70
0
 10
0.0
 20
0.0
 11
1.0
 21
1.0
 12
126.4062948964
 22
178.7746170678
 13
0.0
 23
0.0
 14
1.0
 24
1.0
 15
0.0
 25
0.0
 16
0.0
 26
0.0
 36
1.0
 17
0.0
 27
0.0
 37
0.0
 40
357.5492341357
 41
0.7070707071
 42
50.0
 43
0.0
 44
0.0
 50
0.0
 51
0.0
 71
0
 72
100
 73
1
 74
1
 75
0
 76
0
 77
0
 78
0
  0
ENDTAB
  0
TABLE
  2
LTYPE
  5
5
100
AcDbSymbolTable
 70
6
  0
LTYPE
  5
14
100
AcDbSymbolTableRecord
100
AcDbLinetypeTableRecord
  2
BYBLOCK
 70
0
  3

 72
65
 73
0
 40
0.0
  0
LTYPE
  5
15
100
AcDbSymbolTableRecord
100
AcDbLinetypeTableRecord
  2
BYLAYER
 70
0
  3

 72
65
 73
0
 40
0.0
  0
LTYPE
  5
16
100
AcDbSymbolTableRecord
100
AcDbLinetypeTableRecord
  2
CONTINUOUS
 70
64
  3
Solid line
 72
65
 73
0
 40
0.0
  0
LTYPE
  5
1F5
100
AcDbSymbolTableRecord
100
AcDbLinetypeTableRecord
  2
CENTER
 70
64
  3
____ _ ____ _ ____ _ ____ _ ____ _ ____ _ ____
 72
65
 73
4
 40
0.6
 49
0.375
 74
0
 49
-0.075
 74
0
 49
0.075
 74
0
 49
-0.075
 74
0
  0
LTYPE
  5
1F6
100
AcDbSymbolTableRecord
100
AcDbLinetypeTableRecord
  2
HIDDEN
 70
64
  3
- - - - - - - - - - - - - - - - - - - -
 72
65
 73
2
 40
0.2
 49
0.1
 74
0
 49
-0.1
 74
0
  0
LTYPE
  5
1F7
100
AcDbSymbolTableRecord
100
AcDbLinetypeTableRecord
  2
PHANTOM
 70
64
  3
_____ _ _ _____ _ _ _____ _ _ _____
 72
65
 73
6
 40
0.8
 49
0.45
 74
0
 49
-0.05
 74
0
 49
0.1
 74
0
 49
-0.05
 74
0
 49
0.1
 74
0
 49
-0.05
 74
0
  0
LTYPE
  5
1F8
100
AcDbSymbolTableRecord
100
AcDbLinetypeTableRecord
  2
DOT
 70
64
  3
. . . . . . . . . . . . . . . . . . . .
 72
65
 73
2
 40
0.2
 49
0.1
 74
0
 49
-0.1
 74
0
  0
LTYPE
  5
1F9
100
AcDbSymbolTableRecord
100
AcDbLinetypeTableRecord
  2
DASHED
 70
64
  3
- - - - - - - - - - - - - - - - - - - -
 72
65
 73
2
 40
0.2
 49
0.1
 74
0
 49
-0.1
 74
0
  0
ENDTAB
  0
TABLE
  2
LAYER
  5
2
100
AcDbSymbolTable
 70
36
  0
LAYER
  5
10
100
AcDbSymbolTableRecord
100
AcDbLayerTableRecord
  2
0
 70
0
 62
7
  6
CONTINUOUS
370
-3
390
F
  0
LAYER
  5
1FA
100
AcDbSymbolTableRecord
100
AcDbLayerTableRecord
  2
DEFAULT_1
 70
0
 62
7
  6
CENTER
370
-3
390
F
  0
LAYER
  5
1FB
100
AcDbSymbolTableRecord
100
AcDbLayerTableRecord
  2
DEFAULT_2
 70
0
 62
8
  6
HIDDEN
370
-3
390
F
  0
LAYER
  5
1FC
100
AcDbSymbolTableRecord
100
AcDbLayerTableRecord
  2
DEFAULT_3
 70
0
 62
7
  6
PHANTOM
370
-3
390
F
  0
LAYER
  5
1FD
100
AcDbSymbolTableRecord
100
AcDbLayerTableRecord
  2
00_COMPONENTS
 70
0
 62
7
  6
CONTINUOUS
370
-3
390
F
  0
LAYER
  5
1FE
100
AcDbSymbolTableRecord
100
AcDbLayerTableRecord
  2
01_1_DEFAULT_DATUMS
 70
0
 62
7
  6
CONTINUOUS
370
-3
390
F
  0
LAYER
  5
1FF
100
AcDbSymbolTableRecord
100
AcDbLayerTableRecord
  2
01_PLANES
 70
0
 62
7
  6
CONTINUOUS
370
-3
390
F
  0
LAYER
  5
200
100
AcDbSymbolTableRecord
100
AcDbLayerTableRecord
  2
02_COORD_SYS
 70
0
 62
7
  6
CONTINUOUS
370
-3
390
F
  0
LAYER
  5
201
100
AcDbSymbolTableRecord
100
AcDbLayerTableRecord
  2
03_AXES
 70
0
 62
7
  6
CONTINUOUS
370
-3
390
F
  0
LAYER
  5
202
100
AcDbSymbolTableRecord
100
AcDbLayerTableRecord
  2
04_POINTS
 70
0
 62
7
  6
CONTINUOUS
370
-3
390
F
  0
LAYER
  5
203
100
AcDbSymbolTableRecord
100
AcDbLayerTableRecord
  2
05_CURVES
 70
0
 62
7
  6
CONTINUOUS
370
-3
390
F
  0
LAYER
  5
204
100
AcDbSymbolTableRecord
100
AcDbLayerTableRecord
  2
06_SURFS
 70
0
 62
7
  6
CONTINUOUS
370
-3
390
F
  0
LAYER
  5
205
100
AcDbSymbolTableRecord
100
AcDbLayerTableRecord
  2
07_COSMETICS
 70
0
 62
7
  6
CONTINUOUS
370
-3
390
F
  0
LAYER
  5
206
100
AcDbSymbolTableRecord
100
AcDbLayerTableRecord
  2
10_NOTES
 70
0
 62
7
  6
CONTINUOUS
370
-3
390
F
  0
LAYER
  5
207
100
AcDbSymbolTableRecord
100
AcDbLayerTableRecord
  2
11_NOTES_PUB
 70
0
 62
7
  6
CONTINUOUS
370
-3
390
F
  0
LAYER
  5
208
100
AcDbSymbolTableRecord
100
AcDbLayerTableRecord
  2
13_REF_GTOL
 70
0
 62
7
  6
CONTINUOUS
370
-3
390
F
  0
LAYER
  5
209
100
AcDbSymbolTableRecord
100
AcDbLayerTableRecord
  2
16_MISC
 70
0
 62
7
  6
CONTINUOUS
370
-3
390
F
  0
LAYER
  5
20A
100
AcDbSymbolTableRecord
100
AcDbLayerTableRecord
  2
17_NO_PRINT
 70
0
 62
7
  6
CONTINUOUS
370
-3
390
F
  0
LAYER
  5
20B
100
AcDbSymbolTableRecord
100
AcDbLayerTableRecord
  2
18_DATUM_CAMS_JOINTS
 70
0
 62
7
  6
CONTINUOUS
370
-3
390
F
  0
LAYER
  5
20C
100
AcDbSymbolTableRecord
100
AcDbLayerTableRecord
  2
19_DATUM_FUNCTIONAL
 70
0
 62
7
  6
CONTINUOUS
370
-3
390
F
  0
LAYER
  5
20D
100
AcDbSymbolTableRecord
100
AcDbLayerTableRecord
  2
20_DATUM_KINEMATIC_SCHEME
 70
0
 62
7
  6
CONTINUOUS
370
-3
390
F
  0
ENDTAB
  0
TABLE
  2
STYLE
  5
3
100
AcDbSymbolTable
 70
1
  0
STYLE
  5
11
100
AcDbSymbolTableRecord
100
AcDbTextStyleTableRecord
  2
STANDARD
 70
0
 40
0.0
 41
0.8
 50
0.0
 71
0
 42
0.2
  3
txt
  4

  0
STYLE
  5
20E
100
AcDbSymbolTableRecord
100
AcDbTextStyleTableRecord
  2
TEXTSTYLE_1
 70
0
 40
0.0
 41
0.8
 50
0.0
 71
0
 42
0.2
  3
gdt
  4

  0
ENDTAB
  0
TABLE
  2
VIEW
  5
6
100
AcDbSymbolTable
 70
0
  0
ENDTAB
  0
TABLE
  2
UCS
  5
7
100
AcDbSymbolTable
 70
0
  0
ENDTAB
  0
TABLE
  2
APPID
  5
9
100
AcDbSymbolTable
 70
1
  0
APPID
  5
20F
100
AcDbSymbolTableRecord
100
AcDbRegAppTableRecord
  2
ACAD
 70
0
  0
ENDTAB
  0
TABLE
  2
BLOCK_RECORD
  5
1
100
AcDbSymbolTable
 70
0
  0
BLOCK_RECORD
  5
210
100
AcDbSymbolTableRecord
100
AcDbBlockTableRecord
  2
*Model_Space
  0
BLOCK_RECORD
  5
211
100
AcDbSymbolTableRecord
100
AcDbBlockTableRecord
  2
*Paper_Space
  0
BLOCK_RECORD
  5
212
100
AcDbSymbolTableRecord
100
AcDbBlockTableRecord
  2
_FILLED
  0
ENDTAB
  0
TABLE
  2
DIMSTYLE
  5
A
100
AcDbSymbolTable
 70
1
100
AcDbDimStyleTable
 71
0
  0
DIMSTYLE
105
213
100
AcDbSymbolTableRecord
100
AcDbDimStyleTableRecord
  2
STANDARD
 70
0
  3

  4

 40
1.0
 41
3.009673688
 42
1.0
 43
0.38
 44
1.0
 45
0.0
 46
0.0
 47
0.01
 48
0.01
140
4.2135431632
141
0.09
142
0.0
143
25.4
144
1.0
145
0.0
146
1.0
147
0.625
 71
1
 72
0
 73
0
 74
0
 75
0
 76
0
 77
1
 78
8
 79
2
170
0
171
1
172
0
173
0
174
0
175
0
176
0
177
0
178
0
270
2
179
2
271
2
272
2
273
2
274
2
275
0
280
0
281
0
282
0
283
1
284
8
285
0
286
0
287
3
288
0
340
11
278
46
341
212
342
212
343
212
344
212
  0
ENDTAB
  0
ENDSEC
  0
SECTION
  2
BLOCKS
  0
BLOCK
  5
20
100
AcDbEntity
  8
0
100
AcDbBlockBegin
  2
*Model_Space
 70
0
 10
0.0
 20
0.0
 30
0.0
  3
*Model_Space
  1

  0
ENDBLK
  5
21
100
AcDbEntity
  8
0
100
AcDbBlockEnd
  0
BLOCK
  5
1C
100
AcDbEntity
  8
0
100
AcDbBlockBegin
  2
*Paper_Space
 70
0
 10
0.0
 20
0.0
 30
0.0
  3
*Paper_Space
  1

  0
ENDBLK
  5
1D
100
AcDbEntity
  8
0
100
AcDbBlockEnd
  0
BLOCK
  5
214
100
AcDbEntity
  8
0
100
AcDbBlockBegin
  2
_FILLED
 70
64
 10
0.0
 20
0.0
  3
_FILLED
  1

  0
SOLID
  5
215
100
AcDbEntity
  8
0
  6
BYBLOCK
 62
0
100
AcDbTrace
 10
0.0
 20
0.0
 11
-1.0
 21
0.25
 12
-1.0
 22
-0.25
 13
-1.0
 23
-0.25
  0
ENDBLK
  5
216
100
AcDbEntity
  8
0
  6
BYBLOCK
 62
0
100
AcDbBlockEnd
  0
ENDSEC
  0
SECTION
  2
ENTITIES
  0
LINE
  5
217
100
AcDbEntity
  8
0
100
AcDbLine
 62
7
  6
CONTINUOUS
 10
26.8439316579
 20
253.6498905908
 11
26.8439316579
 21
105.6498905908
  0
LINE
  5
218
100
AcDbEntity
  8
0
100
AcDbLine
 62
7
  6
CONTINUOUS
 10
27.8439316579
 20
254.6498905908
 11
27.8439316579
 21
253.6498905908
  0
LINE
  5
219
100
AcDbEntity
  8
0
100
AcDbLine
 62
7
  6
CONTINUOUS
 10
27.8439316579
 20
252.6498905908
 11
27.8439316579
 21
106.6498905908
  0
LINE
  5
21A
100
AcDbEntity
  8
0
100
AcDbLine
 62
7
  6
CONTINUOUS
 10
27.8439316579
 20
105.6498905908
 11
27.8439316579
 21
104.6498905908
  0
LINE
  5
21B
100
AcDbEntity
  8
0
100
AcDbLine
 62
7
  6
CONTINUOUS
 10
28.8439316579
 20
105.6498905908
 11
28.8439316579
 21
253.6498905908
  0
LINE
  5
21C
100
AcDbEntity
  8
0
100
AcDbLine
 62
7
  6
CONTINUOUS
 10
29.3439316579
 20
105.6498905908
 11
29.3439316579
 21
106.6498905908
  0
LINE
  5
21D
100
AcDbEntity
  8
0
100
AcDbLine
 62
7
  6
CONTINUOUS
 10
29.3439316579
 20
252.6498905908
 11
29.3439316579
 21
253.6498905908
  0
LINE
  5
21E
100
AcDbEntity
  8
0
100
AcDbLine
 62
7
  6
CONTINUOUS
 10
32.3798300428
 20
253.6498905908
 11
32.3798300428
 21
252.6498905908
  0
LINE
  5
21F
100
AcDbEntity
  8
0
100
AcDbLine
 62
7
  6
CONTINUOUS
 10
32.3798300428
 20
106.6498905908
 11
32.3798300428
 21
105.6498905908
  0
LINE
  5
220
100
AcDbEntity
  8
0
100
AcDbLine
 62
7
  6
CONTINUOUS
 10
33.3798300428
 20
252.3633633757
 11
33.3798300428
 21
106.9364178059
  0
LINE
  5
221
100
AcDbEntity
  8
0
100
AcDbLine
 62
7
  6
CONTINUOUS
 10
33.9469141441
 20
107.1498905908
 11
33.9469141441
 21
106.6498905908
  0
LINE
  5
222
100
AcDbEntity
  8
0
100
AcDbLine
 62
7
  6
CONTINUOUS
 10
33.9469141441
 20
252.1498905908
 11
33.9469141441
 21
252.6498905908
  0
LINE
  5
223
100
AcDbEntity
  8
0
100
AcDbLine
 62
7
  6
CONTINUOUS
 10
34.3798300428
 20
107.6498905908
 11
34.3798300428
 21
251.6498905908
  0
LINE
  5
224
100
AcDbEntity
  8
0
100
AcDbLine
 62
7
  6
CONTINUOUS
 10
46.0649262484
 20
235.1648905908
 11
46.1120761394
 21
235.2120404819
  0
LINE
  5
225
100
AcDbEntity
  8
0
100
AcDbLine
 62
7
  6
CONTINUOUS
 10
46.2817817669
 20
235.3817461093
 11
46.3289316579
 21
235.4288960004
  0
LINE
  5
226
100
AcDbEntity
  8
0
100
AcDbLine
 62
7
  6
CONTINUOUS
 10
47.494201562
 20
235.4698661224
 11
47.406081549
 21
235.3817461093
  0
LINE
  5
227
100
AcDbEntity
  8
0
100
AcDbLine
 62
7
  6
CONTINUOUS
 10
46.0239561264
 20
233.9996206868
 11
46.1120761394
 21
234.0877406998
  0
LINE
  5
228
100
AcDbEntity
  8
0
100
AcDbLine
 62
7
  6
CONTINUOUS
 10
45.8657701171
 20
233.67172905
 11
46.1119953014
 21
233.9179542343
  0
LINE
  5
229
100
AcDbEntity
  8
0
100
AcDbLine
 62
7
  6
CONTINUOUS
 10
47.5758680145
 20
235.3818269474
 11
47.8220931988
 21
235.6280521317
  0
LINE
  5
22A
100
AcDbEntity
  8
0
100
AcDbLine
 62
7
  6
CONTINUOUS
 10
47.6639071895
 20
235.3001604949
 11
47.5757871765
 21
235.2120404819
  0
LINE
  5
22B
100
AcDbEntity
  8
0
100
AcDbLine
 62
7
  6
CONTINUOUS
 10
46.1936617539
 20
233.8299150593
 11
46.2817817669
 21
233.9180350723
  0
LINE
  5
22C
100
AcDbEntity
  8
0
100
AcDbLine
 62
7
  6
CONTINUOUS
 10
47.6229370675
 20
234.1348905908
 11
47.5757871765
 21
234.0877406998
  0
LINE
  5
22D
100
AcDbEntity
  8
0
100
AcDbLine
 62
7
  6
CONTINUOUS
 10
47.406081549
 20
233.9180350723
 11
47.3589316579
 21
233.8708851812
  0
LINE
  5
22E
100
AcDbEntity
  8
0
100
AcDbLine
 62
7
  6
CONTINUOUS
 10
46.3289316579
 20
123.8708851812
 11
46.2817817669
 21
123.9180350723
  0
LINE
  5
22F
100
AcDbEntity
  8
0
100
AcDbLine
 62
7
  6
CONTINUOUS
 10
46.1120761394
 20
124.0877406998
 11
46.0649262484
 21
124.1348905908
  0
LINE
  5
230
100
AcDbEntity
  8
0
100
AcDbLine
 62
7
  6
CONTINUOUS
 10
46.0239561264
 20
125.3001604949
 11
46.1120761394
 21
125.2120404819
  0
LINE
  5
231
100
AcDbEntity
  8
0
100
AcDbLine
 62
7
  6
CONTINUOUS
 10
47.406081549
 20
123.9180350723
 11
47.494201562
 21
123.8299150593
  0
LINE
  5
232
100
AcDbEntity
  8
0
100
AcDbLine
 62
7
  6
CONTINUOUS
 10
45.8657701171
 20
125.6280521317
 11
46.1119953014
 21
125.3818269474
  0
LINE
  5
233
100
AcDbEntity
  8
0
100
AcDbLine
 62
7
  6
CONTINUOUS
 10
47.5758680145
 20
123.9179542343
 11
47.8220931988
 21
123.67172905
  0
LINE
  5
234
100
AcDbEntity
  8
0
100
AcDbLine
 62
7
  6
CONTINUOUS
 10
47.6639071895
 20
123.9996206868
 11
47.5757871765
 21
124.0877406998
  0
LINE
  5
235
100
AcDbEntity
  8
0
100
AcDbLine
 62
7
  6
CONTINUOUS
 10
46.1936617539
 20
125.4698661224
 11
46.2817817669
 21
125.3817461093
  0
LINE
  5
236
100
AcDbEntity
  8
0
100
AcDbLine
 62
7
  6
CONTINUOUS
 10
47.3589316579
 20
125.4288960004
 11
47.406081549
 21
125.3817461093
  0
LINE
  5
237
100
AcDbEntity
  8
0
100
AcDbLine
 62
7
  6
CONTINUOUS
 10
47.5757871765
 20
125.2120404819
 11
47.6229370675
 21
125.1648905908
  0
LINE
  5
238
100
AcDbEntity
  8
0
100
AcDbLine
 62
7
  6
CONTINUOUS
 10
46.0241374076
 20
123.8673808485
 11
46.0249335858
 21
123.8308925186
  0
LINE
  5
239
100
AcDbEntity
  8
0
100
AcDbLine
 62
7
  6
CONTINUOUS
 10
47.6637259083
 20
125.4324003331
 11
47.6629297301
 21
125.468888663
  0
LINE
  5
23A
100
AcDbEntity
  8
0
100
AcDbLine
 62
7
  6
CONTINUOUS
 10
46.0241374076
 20
233.8673808485
 11
46.0249335858
 21
233.8308925186
  0
LINE
  5
23B
100
AcDbEntity
  8
0
100
AcDbLine
 62
7
  6
CONTINUOUS
 10
47.6637259083
 20
235.4324003331
 11
47.6629297301
 21
235.468888663
  0
LINE
  5
23C
100
AcDbEntity
  8
0
100
AcDbLine
 62
7
  6
CONTINUOUS
 10
46.1120761394
 20
125.2120404819
 11
46.1119953014
 21
125.3818269474
  0
LINE
  5
23D
100
AcDbEntity
  8
0
100
AcDbLine
 62
7
  6
CONTINUOUS
 10
46.1120761394
 20
235.2120404819
 11
46.1119953014
 21
235.3818269474
  0
LINE
  5
23E
100
AcDbEntity
  8
0
100
AcDbLine
 62
7
  6
CONTINUOUS
 10
47.5757871765
 20
124.0877406998
 11
47.5758680145
 21
123.9179542343
  0
LINE
  5
23F
100
AcDbEntity
  8
0
100
AcDbLine
 62
7
  6
CONTINUOUS
 10
47.5757871765
 20
234.0877406998
 11
47.5758680145
 21
233.9179542343
  0
LINE
  5
240
100
AcDbEntity
  8
0
100
AcDbLine
 62
7
  6
CONTINUOUS
 10
46.3289316579
 20
119.4252111748
 11
46.3289316579
 21
123.8708851812
  0
LINE
  5
241
100
AcDbEntity
  8
0
100
AcDbLine
 62
7
  6
CONTINUOUS
 10
46.3289316579
 20
125.4288960004
 11
46.3289316579
 21
129.8745700068
  0
LINE
  5
242
100
AcDbEntity
  8
0
100
AcDbLine
 62
7
  6
CONTINUOUS
 10
46.3289316579
 20
229.4252111748
 11
46.3289316579
 21
233.8708851812
  0
LINE
  5
243
100
AcDbEntity
  8
0
100
AcDbLine
 62
7
  6
CONTINUOUS
 10
46.3289316579
 20
235.4288960004
 11
46.3289316579
 21
239.8745700068
  0
LINE
  5
244
100
AcDbEntity
  8
0
100
AcDbLine
 62
7
  6
CONTINUOUS
 10
47.3589316579
 20
119.4252111748
 11
47.3589316579
 21
123.8708851812
  0
LINE
  5
245
100
AcDbEntity
  8
0
100
AcDbLine
 62
7
  6
CONTINUOUS
 10
47.3589316579
 20
125.4288960004
 11
47.3589316579
 21
129.8745700068
  0
LINE
  5
246
100
AcDbEntity
  8
0
100
AcDbLine
 62
7
  6
CONTINUOUS
 10
47.3589316579
 20
229.4252111748
 11
47.3589316579
 21
233.8708851812
  0
LINE
  5
247
100
AcDbEntity
  8
0
100
AcDbLine
 62
7
  6
CONTINUOUS
 10
47.3589316579
 20
235.4288960004
 11
47.3589316579
 21
239.8745700068
  0
LINE
  5
248
100
AcDbEntity
  8
0
100
AcDbLine
 62
7
  6
CONTINUOUS
 10
46.1120761394
 20
234.0877406998
 11
46.1119953014
 21
233.9179542343
  0
LINE
  5
249
100
AcDbEntity
  8
0
100
AcDbLine
 62
7
  6
CONTINUOUS
 10
46.1120761394
 20
124.0877406998
 11
46.1119953014
 21
123.9179542343
  0
LINE
  5
24A
100
AcDbEntity
  8
0
100
AcDbLine
 62
7
  6
CONTINUOUS
 10
47.5757871765
 20
235.2120404819
 11
47.5758680145
 21
235.3818269474
  0
LINE
  5
24B
100
AcDbEntity
  8
0
100
AcDbLine
 62
7
  6
CONTINUOUS
 10
47.5757871765
 20
125.2120404819
 11
47.5758680145
 21
125.3818269474
  0
LINE
  5
24C
100
AcDbEntity
  8
0
100
AcDbLine
 62
7
  6
CONTINUOUS
 10
46.0249335858
 20
235.468888663
 11
46.0241374076
 21
235.4324003331
  0
LINE
  5
24D
100
AcDbEntity
  8
0
100
AcDbLine
 62
7
  6
CONTINUOUS
 10
47.6637259083
 20
233.8673808485
 11
47.6629297301
 21
233.8308925186
  0
LINE
  5
24E
100
AcDbEntity
  8
0
100
AcDbLine
 62
7
  6
CONTINUOUS
 10
46.0249335858
 20
125.468888663
 11
46.0241374076
 21
125.4324003331
  0
LINE
  5
24F
100
AcDbEntity
  8
0
100
AcDbLine
 62
7
  6
CONTINUOUS
 10
47.6637259083
 20
123.8673808485
 11
47.6629297301
 21
123.8308925186
  0
LINE
  5
250
100
AcDbEntity
  8
0
100
AcDbLine
 62
7
  6
CONTINUOUS
 10
27.8439316579
 20
104.6498905908
 11
225.8439316579
 21
104.6498905908
  0
LINE
  5
251
100
AcDbEntity
  8
0
100
AcDbLine
 62
7
  6
CONTINUOUS
 10
26.8439316579
 20
105.6498905908
 11
27.8439316579
 21
105.6498905908
  0
LINE
  5
252
100
AcDbEntity
  8
0
100
AcDbLine
 62
7
  6
CONTINUOUS
 10
28.8439316579
 20
105.6498905908
 11
224.8439316579
 21
105.6498905908
  0
LINE
  5
253
100
AcDbEntity
  8
0
100
AcDbLine
 62
7
  6
CONTINUOUS
 10
225.8439316579
 20
105.6498905908
 11
226.8439316579
 21
105.6498905908
  0
LINE
  5
254
100
AcDbEntity
  8
0
100
AcDbLine
 62
7
  6
CONTINUOUS
 10
27.8439316579
 20
106.6498905908
 11
32.3798300428
 21
106.6498905908
  0
LINE
  5
255
100
AcDbEntity
  8
0
100
AcDbLine
 62
7
  6
CONTINUOUS
 10
221.3080332731
 20
106.6498905908
 11
225.8439316579
 21
106.6498905908
  0
LINE
  5
256
100
AcDbEntity
  8
0
100
AcDbLine
 62
7
  6
CONTINUOUS
 10
33.8798300428
 20
106.9364178059
 11
33.3798300428
 21
106.9364178059
  0
LINE
  5
257
100
AcDbEntity
  8
0
100
AcDbLine
 62
7
  6
CONTINUOUS
 10
219.8080332731
 20
106.9364178059
 11
220.3080332731
 21
106.9364178059
  0
LINE
  5
258
100
AcDbEntity
  8
0
100
AcDbLine
 62
7
  6
CONTINUOUS
 10
219.3080332731
 20
107.6498905908
 11
34.3798300428
 21
107.6498905908
  0
LINE
  5
259
100
AcDbEntity
  8
0
100
AcDbLine
 62
7
  6
CONTINUOUS
 10
30.8798300428
 20
106.6498905908
 11
33.4465187564
 21
106.8950326471
  0
LINE
  5
25A
100
AcDbEntity
  8
0
100
AcDbLine
 62
7
  6
CONTINUOUS
 10
30.3798300428
 20
106.6498905908
 11
33.3798300428
 21
106.9364178059
  0
LINE
  5
25B
100
AcDbEntity
  8
0
100
AcDbLine
 62
7
  6
CONTINUOUS
 10
207.6264414002
 20
123.8300963404
 11
207.6629297301
 21
123.8308925186
  0
LINE
  5
25C
100
AcDbEntity
  8
0
100
AcDbLine
 62
7
  6
CONTINUOUS
 10
46.0249335858
 20
123.8308925186
 11
46.0614219156
 21
123.8300963404
  0
LINE
  5
25D
100
AcDbEntity
  8
0
100
AcDbLine
 62
7
  6
CONTINUOUS
 10
222.8080332731
 20
106.6498905908
 11
220.2413445595
 21
106.8950326472
  0
LINE
  5
25E
100
AcDbEntity
  8
0
100
AcDbLine
 62
7
  6
CONTINUOUS
 10
220.3080332731
 20
106.9364178059
 11
223.3080332731
 21
106.6498905908
  0
LINE
  5
25F
100
AcDbEntity
  8
0
100
AcDbLine
 62
7
  6
CONTINUOUS
 10
206.0249335858
 20
125.468888663
 11
206.0614219156
 21
125.4696848412
  0
LINE
  5
260
100
AcDbEntity
  8
0
100
AcDbLine
 62
7
  6
CONTINUOUS
 10
47.6629297301
 20
123.8308925186
 11
47.6264414002
 21
123.8300963404
  0
LINE
  5
261
100
AcDbEntity
  8
0
100
AcDbLine
 62
7
  6
CONTINUOUS
 10
46.0614219156
 20
125.4696848412
 11
46.0249335858
 21
125.468888663
  0
LINE
  5
262
100
AcDbEntity
  8
0
100
AcDbLine
 62
7
  6
CONTINUOUS
 10
206.1119953014
 20
123.9179542343
 11
206.2817817669
 21
123.9180350723
  0
LINE
  5
263
100
AcDbEntity
  8
0
100
AcDbLine
 62
7
  6
CONTINUOUS
 10
46.1119953014
 20
123.9179542343
 11
46.2817817669
 21
123.9180350723
  0
LINE
  5
264
100
AcDbEntity
  8
0
100
AcDbLine
 62
7
  6
CONTINUOUS
 10
207.5758680145
 20
125.3818269474
 11
207.406081549
 21
125.3817461093
  0
LINE
  5
265
100
AcDbEntity
  8
0
100
AcDbLine
 62
7
  6
CONTINUOUS
 10
47.5758680145
 20
125.3818269474
 11
47.406081549
 21
125.3817461093
  0
LINE
  5
266
100
AcDbEntity
  8
0
100
AcDbLine
 62
7
  6
CONTINUOUS
 10
44.2914132673
 20
124.1348905908
 11
46.0649262484
 21
124.1348905908
  0
LINE
  5
267
100
AcDbEntity
  8
0
100
AcDbLine
 62
7
  6
CONTINUOUS
 10
47.6229370675
 20
124.1348905908
 11
49.3964452865
 21
124.1348905908
  0
LINE
  5
268
100
AcDbEntity
  8
0
100
AcDbLine
 62
7
  6
CONTINUOUS
 10
204.2914121544
 20
124.1348905908
 11
206.0649262484
 21
124.1348905908
  0
LINE
  5
269
100
AcDbEntity
  8
0
100
AcDbLine
 62
7
  6
CONTINUOUS
 10
207.6229370675
 20
124.1348905908
 11
209.3964501142
 21
124.1348905908
  0
LINE
  5
26A
100
AcDbEntity
  8
0
100
AcDbLine
 62
7
  6
CONTINUOUS
 10
206.0649262484
 20
125.1648905908
 11
204.2914180294
 21
125.1648905908
  0
LINE
  5
26B
100
AcDbEntity
  8
0
100
AcDbLine
 62
7
  6
CONTINUOUS
 10
49.3964511615
 20
125.1648905908
 11
47.6229370675
 21
125.1648905908
  0
LINE
  5
26C
100
AcDbEntity
  8
0
100
AcDbLine
 62
7
  6
CONTINUOUS
 10
46.0649262484
 20
125.1648905908
 11
44.2914132017
 21
125.1648905908
  0
LINE
  5
26D
100
AcDbEntity
  8
0
100
AcDbLine
 62
7
  6
CONTINUOUS
 10
207.6229370675
 20
125.1648905908
 11
209.3964500485
 21
125.1648905908
  0
LINE
  5
26E
100
AcDbEntity
  8
0
100
AcDbLine
 62
7
  6
CONTINUOUS
 10
47.5758680145
 20
123.9179542343
 11
47.406081549
 21
123.9180350723
  0
LINE
  5
26F
100
AcDbEntity
  8
0
100
AcDbLine
 62
7
  6
CONTINUOUS
 10
207.5758680145
 20
123.9179542343
 11
207.406081549
 21
123.9180350723
  0
LINE
  5
270
100
AcDbEntity
  8
0
100
AcDbLine
 62
7
  6
CONTINUOUS
 10
46.1119953014
 20
125.3818269474
 11
46.2817817669
 21
125.3817461093
  0
LINE
  5
271
100
AcDbEntity
  8
0
100
AcDbLine
 62
7
  6
CONTINUOUS
 10
206.1119953014
 20
125.3818269474
 11
206.2817817669
 21
125.3817461093
  0
LINE
  5
272
100
AcDbEntity
  8
0
100
AcDbLine
 62
7
  6
CONTINUOUS
 10
47.6629297301
 20
125.468888663
 11
47.6264414002
 21
125.4696848412
  0
LINE
  5
273
100
AcDbEntity
  8
0
100
AcDbLine
 62
7
  6
CONTINUOUS
 10
206.0249335858
 20
123.8308925186
 11
206.0614219156
 21
123.8300963404
  0
LINE
  5
274
100
AcDbEntity
  8
0
100
AcDbLine
 62
7
  6
CONTINUOUS
 10
207.6629297301
 20
125.468888663
 11
207.6264414002
 21
125.4696848412
  0
LINE
  5
275
100
AcDbEntity
  8
0
100
AcDbLine
 62
7
  6
CONTINUOUS
 10
46.0649262484
 20
125.1648905908
 11
46.1120761394
 21
125.2120404819
  0
LINE
  5
276
100
AcDbEntity
  8
0
100
AcDbLine
 62
7
  6
CONTINUOUS
 10
46.2817817669
 20
125.3817461093
 11
46.3289316579
 21
125.4288960004
  0
LINE
  5
277
100
AcDbEntity
  8
0
100
AcDbLine
 62
7
  6
CONTINUOUS
 10
47.494201562
 20
125.4698661224
 11
47.406081549
 21
125.3817461093
  0
LINE
  5
278
100
AcDbEntity
  8
0
100
AcDbLine
 62
7
  6
CONTINUOUS
 10
46.0239561264
 20
123.9996206868
 11
46.1120761394
 21
124.0877406998
  0
LINE
  5
279
100
AcDbEntity
  8
0
100
AcDbLine
 62
7
  6
CONTINUOUS
 10
45.8657701171
 20
123.67172905
 11
46.1119953014
 21
123.9179542343
  0
LINE
  5
27A
100
AcDbEntity
  8
0
100
AcDbLine
 62
7
  6
CONTINUOUS
 10
47.5758680145
 20
125.3818269474
 11
47.8220931988
 21
125.6280521317
  0
LINE
  5
27B
100
AcDbEntity
  8
0
100
AcDbLine
 62
7
  6
CONTINUOUS
 10
47.6639071895
 20
125.3001604949
 11
47.5757871765
 21
125.2120404819
  0
LINE
  5
27C
100
AcDbEntity
  8
0
100
AcDbLine
 62
7
  6
CONTINUOUS
 10
46.1936617539
 20
123.8299150593
 11
46.2817817669
 21
123.9180350723
  0
LINE
  5
27D
100
AcDbEntity
  8
0
100
AcDbLine
 62
7
  6
CONTINUOUS
 10
47.6229370675
 20
124.1348905908
 11
47.5757871765
 21
124.0877406998
  0
LINE
  5
27E
100
AcDbEntity
  8
0
100
AcDbLine
 62
7
  6
CONTINUOUS
 10
47.406081549
 20
123.9180350723
 11
47.3589316579
 21
123.8708851812
  0
LINE
  5
27F
100
AcDbEntity
  8
0
100
AcDbLine
 62
7
  6
CONTINUOUS
 10
46.3289316579
 20
233.8708851812
 11
46.2817817669
 21
233.9180350723
  0
LINE
  5
280
100
AcDbEntity
  8
0
100
AcDbLine
 62
7
  6
CONTINUOUS
 10
46.1120761394
 20
234.0877406998
 11
46.0649262484
 21
234.1348905908
  0
LINE
  5
281
100
AcDbEntity
  8
0
100
AcDbLine
 62
7
  6
CONTINUOUS
 10
46.0239561264
 20
235.3001604949
 11
46.1120761394
 21
235.2120404819
  0
LINE
  5
282
100
AcDbEntity
  8
0
100
AcDbLine
 62
7
  6
CONTINUOUS
 10
47.406081549
 20
233.9180350723
 11
47.494201562
 21
233.8299150593
  0
LINE
  5
283
100
AcDbEntity
  8
0
100
AcDbLine
 62
7
  6
CONTINUOUS
 10
47.5758680145
 20
233.9179542343
 11
47.8220931988
 21
233.67172905
  0
LINE
  5
284
100
AcDbEntity
  8
0
100
AcDbLine
 62
7
  6
CONTINUOUS
 10
46.1119953014
 20
235.3818269474
 11
45.8657701171
 21
235.6280521317
  0
LINE
  5
285
100
AcDbEntity
  8
0
100
AcDbLine
 62
7
  6
CONTINUOUS
 10
46.1936617539
 20
235.4698661224
 11
46.2817817669
 21
235.3817461093
  0
LINE
  5
286
100
AcDbEntity
  8
0
100
AcDbLine
 62
7
  6
CONTINUOUS
 10
47.6639071895
 20
233.9996206868
 11
47.5757871765
 21
234.0877406998
  0
LINE
  5
287
100
AcDbEntity
  8
0
100
AcDbLine
 62
7
  6
CONTINUOUS
 10
47.3589316579
 20
235.4288960004
 11
47.406081549
 21
235.3817461093
  0
LINE
  5
288
100
AcDbEntity
  8
0
100
AcDbLine
 62
7
  6
CONTINUOUS
 10
47.5757871765
 20
235.2120404819
 11
47.6229370675
 21
235.1648905908
  0
LINE
  5
289
100
AcDbEntity
  8
0
100
AcDbLine
 62
7
  6
CONTINUOUS
 10
206.0649262484
 20
235.1648905908
 11
206.1120761394
 21
235.2120404819
  0
LINE
  5
28A
100
AcDbEntity
  8
0
100
AcDbLine
 62
7
  6
CONTINUOUS
 10
206.2817817669
 20
235.3817461093
 11
206.3289316579
 21
235.4288960004
  0
LINE
  5
28B
100
AcDbEntity
  8
0
100
AcDbLine
 62
7
  6
CONTINUOUS
 10
207.494201562
 20
235.4698661224
 11
207.406081549
 21
235.3817461093
  0
LINE
  5
28C
100
AcDbEntity
  8
0
100
AcDbLine
 62
7
  6
CONTINUOUS
 10
206.0239561264
 20
233.9996206868
 11
206.1120761394
 21
234.0877406998
  0
LINE
  5
28D
100
AcDbEntity
  8
0
100
AcDbLine
 62
7
  6
CONTINUOUS
 10
205.8657701171
 20
233.67172905
 11
206.1119953014
 21
233.9179542343
  0
LINE
  5
28E
100
AcDbEntity
  8
0
100
AcDbLine
 62
7
  6
CONTINUOUS
 10
207.5758680145
 20
235.3818269474
 11
207.8220931988
 21
235.6280521317
  0
LINE
  5
28F
100
AcDbEntity
  8
0
100
AcDbLine
 62
7
  6
CONTINUOUS
 10
206.3289316579
 20
123.8708851812
 11
206.2817817669
 21
123.9180350723
  0
LINE
  5
290
100
AcDbEntity
  8
0
100
AcDbLine
 62
7
  6
CONTINUOUS
 10
206.1120761394
 20
124.0877406998
 11
206.0649262484
 21
124.1348905908
  0
LINE
  5
291
100
AcDbEntity
  8
0
100
AcDbLine
 62
7
  6
CONTINUOUS
 10
207.494201562
 20
123.8299150593
 11
207.406081549
 21
123.9180350723
  0
LINE
  5
292
100
AcDbEntity
  8
0
100
AcDbLine
 62
7
  6
CONTINUOUS
 10
206.0239561264
 20
125.3001604949
 11
206.1120761394
 21
125.2120404819
  0
LINE
  5
293
100
AcDbEntity
  8
0
100
AcDbLine
 62
7
  6
CONTINUOUS
 10
206.1119953014
 20
125.3818269474
 11
205.8657701171
 21
125.6280521317
  0
LINE
  5
294
100
AcDbEntity
  8
0
100
AcDbLine
 62
7
  6
CONTINUOUS
 10
207.5758680145
 20
123.9179542343
 11
207.8220931988
 21
123.67172905
  0
LINE
  5
295
100
AcDbEntity
  8
0
100
AcDbLine
 62
7
  6
CONTINUOUS
 10
207.6639071895
 20
235.3001604949
 11
207.5757871765
 21
235.2120404819
  0
LINE
  5
296
100
AcDbEntity
  8
0
100
AcDbLine
 62
7
  6
CONTINUOUS
 10
206.1936617539
 20
233.8299150593
 11
206.2817817669
 21
233.9180350723
  0
LINE
  5
297
100
AcDbEntity
  8
0
100
AcDbLine
 62
7
  6
CONTINUOUS
 10
207.6229370675
 20
234.1348905908
 11
207.5757871765
 21
234.0877406998
  0
LINE
  5
298
100
AcDbEntity
  8
0
100
AcDbLine
 62
7
  6
CONTINUOUS
 10
207.406081549
 20
233.9180350723
 11
207.3589316579
 21
233.8708851812
  0
LINE
  5
299
100
AcDbEntity
  8
0
100
AcDbLine
 62
7
  6
CONTINUOUS
 10
207.6639071895
 20
123.9996206868
 11
207.5757871765
 21
124.0877406998
  0
LINE
  5
29A
100
AcDbEntity
  8
0
100
AcDbLine
 62
7
  6
CONTINUOUS
 10
206.2817817669
 20
125.3817461093
 11
206.1936617539
 21
125.4698661224
  0
LINE
  5
29B
100
AcDbEntity
  8
0
100
AcDbLine
 62
7
  6
CONTINUOUS
 10
207.3589316579
 20
125.4288960004
 11
207.406081549
 21
125.3817461093
  0
LINE
  5
29C
100
AcDbEntity
  8
0
100
AcDbLine
 62
7
  6
CONTINUOUS
 10
207.5757871765
 20
125.2120404819
 11
207.6229370675
 21
125.1648905908
  0
LINE
  5
29D
100
AcDbEntity
  8
0
100
AcDbLine
 62
7
  6
CONTINUOUS
 10
207.6629297301
 20
233.8308925186
 11
207.6264414002
 21
233.8300963404
  0
LINE
  5
29E
100
AcDbEntity
  8
0
100
AcDbLine
 62
7
  6
CONTINUOUS
 10
206.0614219156
 20
235.4696848412
 11
206.0249335858
 21
235.468888663
  0
LINE
  5
29F
100
AcDbEntity
  8
0
100
AcDbLine
 62
7
  6
CONTINUOUS
 10
47.6629297301
 20
233.8308925186
 11
47.6264414002
 21
233.8300963404
  0
LINE
  5
2A0
100
AcDbEntity
  8
0
100
AcDbLine
 62
7
  6
CONTINUOUS
 10
46.0614219156
 20
235.4696848412
 11
46.0249335858
 21
235.468888663
  0
LINE
  5
2A1
100
AcDbEntity
  8
0
100
AcDbLine
 62
7
  6
CONTINUOUS
 10
206.1119953014
 20
233.9179542343
 11
206.2817817669
 21
233.9180350723
  0
LINE
  5
2A2
100
AcDbEntity
  8
0
100
AcDbLine
 62
7
  6
CONTINUOUS
 10
46.1119953014
 20
233.9179542343
 11
46.2817817669
 21
233.9180350723
  0
LINE
  5
2A3
100
AcDbEntity
  8
0
100
AcDbLine
 62
7
  6
CONTINUOUS
 10
207.5758680145
 20
235.3818269474
 11
207.406081549
 21
235.3817461093
  0
LINE
  5
2A4
100
AcDbEntity
  8
0
100
AcDbLine
 62
7
  6
CONTINUOUS
 10
47.5758680145
 20
235.3818269474
 11
47.406081549
 21
235.3817461093
  0
LINE
  5
2A5
100
AcDbEntity
  8
0
100
AcDbLine
 62
7
  6
CONTINUOUS
 10
44.2914132673
 20
234.1348905908
 11
46.0649262484
 21
234.1348905908
  0
LINE
  5
2A6
100
AcDbEntity
  8
0
100
AcDbLine
 62
7
  6
CONTINUOUS
 10
47.6229370675
 20
234.1348905908
 11
49.3964452865
 21
234.1348905908
  0
LINE
  5
2A7
100
AcDbEntity
  8
0
100
AcDbLine
 62
7
  6
CONTINUOUS
 10
204.2914132673
 20
234.1348905908
 11
206.0649262484
 21
234.1348905908
  0
LINE
  5
2A8
100
AcDbEntity
  8
0
100
AcDbLine
 62
7
  6
CONTINUOUS
 10
207.6229370675
 20
234.1348905908
 11
209.3964452865
 21
234.1348905908
  0
LINE
  5
2A9
100
AcDbEntity
  8
0
100
AcDbLine
 62
7
  6
CONTINUOUS
 10
209.3964511615
 20
235.1648905908
 11
207.6229370675
 21
235.1648905908
  0
LINE
  5
2AA
100
AcDbEntity
  8
0
100
AcDbLine
 62
7
  6
CONTINUOUS
 10
206.0649262484
 20
235.1648905908
 11
204.2914132017
 21
235.1648905908
  0
LINE
  5
2AB
100
AcDbEntity
  8
0
100
AcDbLine
 62
7
  6
CONTINUOUS
 10
49.3964511615
 20
235.1648905908
 11
47.6229370675
 21
235.1648905908
  0
LINE
  5
2AC
100
AcDbEntity
  8
0
100
AcDbLine
 62
7
  6
CONTINUOUS
 10
46.0649262484
 20
235.1648905908
 11
44.2914132017
 21
235.1648905908
  0
LINE
  5
2AD
100
AcDbEntity
  8
0
100
AcDbLine
 62
7
  6
CONTINUOUS
 10
47.5758680145
 20
233.9179542343
 11
47.406081549
 21
233.9180350723
  0
LINE
  5
2AE
100
AcDbEntity
  8
0
100
AcDbLine
 62
7
  6
CONTINUOUS
 10
207.5758680145
 20
233.9179542343
 11
207.406081549
 21
233.9180350723
  0
LINE
  5
2AF
100
AcDbEntity
  8
0
100
AcDbLine
 62
7
  6
CONTINUOUS
 10
46.1119953014
 20
235.3818269474
 11
46.2817817669
 21
235.3817461093
  0
LINE
  5
2B0
100
AcDbEntity
  8
0
100
AcDbLine
 62
7
  6
CONTINUOUS
 10
206.1119953014
 20
235.3818269474
 11
206.2817817669
 21
235.3817461093
  0
LINE
  5
2B1
100
AcDbEntity
  8
0
100
AcDbLine
 62
7
  6
CONTINUOUS
 10
46.0249335858
 20
233.8308925186
 11
46.0614219156
 21
233.8300963404
  0
LINE
  5
2B2
100
AcDbEntity
  8
0
100
AcDbLine
 62
7
  6
CONTINUOUS
 10
47.6629297301
 20
235.468888663
 11
47.6264414002
 21
235.4696848412
  0
LINE
  5
2B3
100
AcDbEntity
  8
0
100
AcDbLine
 62
7
  6
CONTINUOUS
 10
206.0249335858
 20
233.8308925186
 11
206.0614219156
 21
233.8300963404
  0
LINE
  5
2B4
100
AcDbEntity
  8
0
100
AcDbLine
 62
7
  6
CONTINUOUS
 10
207.6629297301
 20
235.468888663
 11
207.6264414002
 21
235.4696848412
  0
LINE
  5
2B5
100
AcDbEntity
  8
0
100
AcDbLine
 62
7
  6
CONTINUOUS
 10
223.3080332731
 20
252.6498905908
 11
220.3080332731
 21
252.3633633757
  0
LINE
  5
2B6
100
AcDbEntity
  8
0
100
AcDbLine
 62
7
  6
CONTINUOUS
 10
220.2413445595
 20
252.4047485345
 11
222.8080332731
 21
252.6498905908
  0
LINE
  5
2B7
100
AcDbEntity
  8
0
100
AcDbLine
 62
7
  6
CONTINUOUS
 10
30.3798300428
 20
252.6498905908
 11
33.3798300428
 21
252.3633633758
  0
LINE
  5
2B8
100
AcDbEntity
  8
0
100
AcDbLine
 62
7
  6
CONTINUOUS
 10
30.8798300428
 20
252.6498905908
 11
33.4465187564
 21
252.4047485345
  0
LINE
  5
2B9
100
AcDbEntity
  8
0
100
AcDbLine
 62
7
  6
CONTINUOUS
 10
34.3798300428
 20
251.6498905908
 11
219.3080332731
 21
251.6498905908
  0
LINE
  5
2BA
100
AcDbEntity
  8
0
100
AcDbLine
 62
7
  6
CONTINUOUS
 10
220.3080332731
 20
252.3633633758
 11
219.8080332731
 21
252.3633633758
  0
LINE
  5
2BB
100
AcDbEntity
  8
0
100
AcDbLine
 62
7
  6
CONTINUOUS
 10
33.3798300428
 20
252.3633633758
 11
33.8798300428
 21
252.3633633758
  0
LINE
  5
2BC
100
AcDbEntity
  8
0
100
AcDbLine
 62
7
  6
CONTINUOUS
 10
27.8439316579
 20
252.6498905908
 11
32.3798300428
 21
252.6498905908
  0
LINE
  5
2BD
100
AcDbEntity
  8
0
100
AcDbLine
 62
7
  6
CONTINUOUS
 10
221.3080332731
 20
252.6498905908
 11
225.8439316579
 21
252.6498905908
  0
LINE
  5
2BE
100
AcDbEntity
  8
0
100
AcDbLine
 62
7
  6
CONTINUOUS
 10
226.8439316579
 20
253.6498905908
 11
225.8439316579
 21
253.6498905908
  0
LINE
  5
2BF
100
AcDbEntity
  8
0
100
AcDbLine
 62
7
  6
CONTINUOUS
 10
27.8439316579
 20
253.6498905908
 11
26.8439316579
 21
253.6498905908
  0
LINE
  5
2C0
100
AcDbEntity
  8
0
100
AcDbLine
 62
7
  6
CONTINUOUS
 10
28.8439316579
 20
253.6498905908
 11
224.8439316579
 21
253.6498905908
  0
LINE
  5
2C1
100
AcDbEntity
  8
0
100
AcDbLine
 62
7
  6
CONTINUOUS
 10
225.8439316579
 20
254.6498905908
 11
27.8439316579
 21
254.6498905908
  0
LINE
  5
2C2
100
AcDbEntity
  8
0
100
AcDbLine
 62
7
  6
CONTINUOUS
 10
206.0241374076
 20
123.8673808485
 11
206.0249335858
 21
123.8308925186
  0
LINE
  5
2C3
100
AcDbEntity
  8
0
100
AcDbLine
 62
7
  6
CONTINUOUS
 10
207.6637259083
 20
125.4324003331
 11
207.6629297301
 21
125.468888663
  0
LINE
  5
2C4
100
AcDbEntity
  8
0
100
AcDbLine
 62
7
  6
CONTINUOUS
 10
206.0241374076
 20
233.8673808485
 11
206.0249335858
 21
233.8308925186
  0
LINE
  5
2C5
100
AcDbEntity
  8
0
100
AcDbLine
 62
7
  6
CONTINUOUS
 10
207.6637259083
 20
235.4324003331
 11
207.6629297301
 21
235.468888663
  0
LINE
  5
2C6
100
AcDbEntity
  8
0
100
AcDbLine
 62
7
  6
CONTINUOUS
 10
206.1120761394
 20
125.2120404819
 11
206.1119953014
 21
125.3818269474
  0
LINE
  5
2C7
100
AcDbEntity
  8
0
100
AcDbLine
 62
7
  6
CONTINUOUS
 10
206.1120761394
 20
235.2120404819
 11
206.1119953014
 21
235.3818269474
  0
LINE
  5
2C8
100
AcDbEntity
  8
0
100
AcDbLine
 62
7
  6
CONTINUOUS
 10
207.5757871765
 20
124.0877406998
 11
207.5758680145
 21
123.9179542343
  0
LINE
  5
2C9
100
AcDbEntity
  8
0
100
AcDbLine
 62
7
  6
CONTINUOUS
 10
207.5757871765
 20
234.0877406998
 11
207.5758680145
 21
233.9179542343
  0
LINE
  5
2CA
100
AcDbEntity
  8
0
100
AcDbLine
 62
7
  6
CONTINUOUS
 10
206.3289316579
 20
119.4252111748
 11
206.3289316579
 21
123.8708851812
  0
LINE
  5
2CB
100
AcDbEntity
  8
0
100
AcDbLine
 62
7
  6
CONTINUOUS
 10
206.3289316579
 20
125.4288960004
 11
206.3289316579
 21
129.8745700068
  0
LINE
  5
2CC
100
AcDbEntity
  8
0
100
AcDbLine
 62
7
  6
CONTINUOUS
 10
206.3289316579
 20
229.4252111748
 11
206.3289316579
 21
233.8708851812
  0
LINE
  5
2CD
100
AcDbEntity
  8
0
100
AcDbLine
 62
7
  6
CONTINUOUS
 10
206.3289316579
 20
235.4288960004
 11
206.3289316579
 21
239.8745700068
  0
LINE
  5
2CE
100
AcDbEntity
  8
0
100
AcDbLine
 62
7
  6
CONTINUOUS
 10
207.3589316579
 20
119.4252111748
 11
207.3589316579
 21
123.8708851812
  0
LINE
  5
2CF
100
AcDbEntity
  8
0
100
AcDbLine
 62
7
  6
CONTINUOUS
 10
207.3589316579
 20
125.4288960004
 11
207.3589316579
 21
129.8745700068
  0
LINE
  5
2D0
100
AcDbEntity
  8
0
100
AcDbLine
 62
7
  6
CONTINUOUS
 10
207.3589316579
 20
229.4252111748
 11
207.3589316579
 21
233.8708851812
  0
LINE
  5
2D1
100
AcDbEntity
  8
0
100
AcDbLine
 62
7
  6
CONTINUOUS
 10
207.3589316579
 20
235.4288960004
 11
207.3589316579
 21
239.8745700068
  0
LINE
  5
2D2
100
AcDbEntity
  8
0
100
AcDbLine
 62
7
  6
CONTINUOUS
 10
206.1120761394
 20
234.0877406998
 11
206.1119953014
 21
233.9179542343
  0
LINE
  5
2D3
100
AcDbEntity
  8
0
100
AcDbLine
 62
7
  6
CONTINUOUS
 10
206.1120761394
 20
124.0877406998
 11
206.1119953014
 21
123.9179542343
  0
LINE
  5
2D4
100
AcDbEntity
  8
0
100
AcDbLine
 62
7
  6
CONTINUOUS
 10
207.5757871765
 20
235.2120404819
 11
207.5758680145
 21
235.3818269474
  0
LINE
  5
2D5
100
AcDbEntity
  8
0
100
AcDbLine
 62
7
  6
CONTINUOUS
 10
207.5757871765
 20
125.2120404819
 11
207.5758680145
 21
125.3818269474
  0
LINE
  5
2D6
100
AcDbEntity
  8
0
100
AcDbLine
 62
7
  6
CONTINUOUS
 10
206.0249335858
 20
235.468888663
 11
206.0241374076
 21
235.4324003331
  0
LINE
  5
2D7
100
AcDbEntity
  8
0
100
AcDbLine
 62
7
  6
CONTINUOUS
 10
207.6637259083
 20
233.8673808485
 11
207.6629297301
 21
233.8308925186
  0
LINE
  5
2D8
100
AcDbEntity
  8
0
100
AcDbLine
 62
7
  6
CONTINUOUS
 10
206.0241374076
 20
125.4324003331
 11
206.0249335858
 21
125.468888663
  0
LINE
  5
2D9
100
AcDbEntity
  8
0
100
AcDbLine
 62
7
  6
CONTINUOUS
 10
207.6629297301
 20
123.8308925186
 11
207.6637259083
 21
123.8673808485
  0
LINE
  5
2DA
100
AcDbEntity
  8
0
100
AcDbLine
 62
7
  6
CONTINUOUS
 10
219.3080332731
 20
251.6498905908
 11
219.3080332731
 21
107.6498905908
  0
LINE
  5
2DB
100
AcDbEntity
  8
0
100
AcDbLine
 62
7
  6
CONTINUOUS
 10
219.7409491718
 20
107.1498905908
 11
219.7409491718
 21
106.6498905908
  0
LINE
  5
2DC
100
AcDbEntity
  8
0
100
AcDbLine
 62
7
  6
CONTINUOUS
 10
219.7409491718
 20
252.1498905908
 11
219.7409491718
 21
252.6498905908
  0
LINE
  5
2DD
100
AcDbEntity
  8
0
100
AcDbLine
 62
7
  6
CONTINUOUS
 10
220.3080332731
 20
106.9364178059
 11
220.3080332731
 21
252.3633633757
  0
LINE
  5
2DE
100
AcDbEntity
  8
0
100
AcDbLine
 62
7
  6
CONTINUOUS
 10
221.3080332731
 20
105.6498905908
 11
221.3080332731
 21
106.6498905908
  0
LINE
  5
2DF
100
AcDbEntity
  8
0
100
AcDbLine
 62
7
  6
CONTINUOUS
 10
221.3080332731
 20
252.6498905908
 11
221.3080332731
 21
253.6498905908
  0
LINE
  5
2E0
100
AcDbEntity
  8
0
100
AcDbLine
 62
7
  6
CONTINUOUS
 10
224.3439316579
 20
253.6498905908
 11
224.3439316579
 21
252.6498905908
  0
LINE
  5
2E1
100
AcDbEntity
  8
0
100
AcDbLine
 62
7
  6
CONTINUOUS
 10
224.3439316579
 20
106.6498905908
 11
224.3439316579
 21
105.6498905908
  0
LINE
  5
2E2
100
AcDbEntity
  8
0
100
AcDbLine
 62
7
  6
CONTINUOUS
 10
224.8439316579
 20
105.6498905908
 11
224.8439316579
 21
253.6498905908
  0
LINE
  5
2E3
100
AcDbEntity
  8
0
100
AcDbLine
 62
7
  6
CONTINUOUS
 10
225.8439316579
 20
104.6498905908
 11
225.8439316579
 21
105.6498905908
  0
LINE
  5
2E4
100
AcDbEntity
  8
0
100
AcDbLine
 62
7
  6
CONTINUOUS
 10
225.8439316579
 20
106.6498905908
 11
225.8439316579
 21
252.6498905908
  0
LINE
  5
2E5
100
AcDbEntity
  8
0
100
AcDbLine
 62
7
  6
CONTINUOUS
 10
225.8439316579
 20
253.6498905908
 11
225.8439316579
 21
254.6498905908
  0
LINE
  5
2E6
100
AcDbEntity
  8
0
100
AcDbLine
 62
7
  6
CONTINUOUS
 10
226.8439316579
 20
105.6498905908
 11
226.8439316579
 21
253.6498905908
  0
LINE
  5
2E7
100
AcDbEntity
  8
0
100
AcDbLine
 62
7
  6
CONTINUOUS
 10
206.0649262484
 20
125.1648905908
 11
206.1120761394
 21
125.2120404819
  0
LINE
  5
2E8
100
AcDbEntity
  8
0
100
AcDbLine
 62
7
  6
CONTINUOUS
 10
206.2817817669
 20
125.3817461093
 11
206.3289316579
 21
125.4288960004
  0
LINE
  5
2E9
100
AcDbEntity
  8
0
100
AcDbLine
 62
7
  6
CONTINUOUS
 10
207.494201562
 20
125.4698661224
 11
207.406081549
 21
125.3817461093
  0
LINE
  5
2EA
100
AcDbEntity
  8
0
100
AcDbLine
 62
7
  6
CONTINUOUS
 10
206.0239561264
 20
123.9996206868
 11
206.1120761394
 21
124.0877406998
  0
LINE
  5
2EB
100
AcDbEntity
  8
0
100
AcDbLine
 62
7
  6
CONTINUOUS
 10
206.1119953014
 20
123.9179542343
 11
205.8657701171
 21
123.67172905
  0
LINE
  5
2EC
100
AcDbEntity
  8
0
100
AcDbLine
 62
7
  6
CONTINUOUS
 10
207.5758680145
 20
125.3818269474
 11
207.8220931988
 21
125.6280521317
  0
LINE
  5
2ED
100
AcDbEntity
  8
0
100
AcDbLine
 62
7
  6
CONTINUOUS
 10
207.6639071895
 20
125.3001604949
 11
207.5757871765
 21
125.2120404819
  0
LINE
  5
2EE
100
AcDbEntity
  8
0
100
AcDbLine
 62
7
  6
CONTINUOUS
 10
206.1936617539
 20
123.8299150593
 11
206.2817817669
 21
123.9180350723
  0
LINE
  5
2EF
100
AcDbEntity
  8
0
100
AcDbLine
 62
7
  6
CONTINUOUS
 10
207.6229370675
 20
124.1348905908
 11
207.5757871765
 21
124.0877406998
  0
LINE
  5
2F0
100
AcDbEntity
  8
0
100
AcDbLine
 62
7
  6
CONTINUOUS
 10
207.406081549
 20
123.9180350723
 11
207.3589316579
 21
123.8708851812
  0
LINE
  5
2F1
100
AcDbEntity
  8
0
100
AcDbLine
 62
7
  6
CONTINUOUS
 10
206.3289316579
 20
233.8708851812
 11
206.2817817669
 21
233.9180350723
  0
LINE
  5
2F2
100
AcDbEntity
  8
0
100
AcDbLine
 62
7
  6
CONTINUOUS
 10
206.1120761394
 20
234.0877406998
 11
206.0649262484
 21
234.1348905908
  0
LINE
  5
2F3
100
AcDbEntity
  8
0
100
AcDbLine
 62
7
  6
CONTINUOUS
 10
206.0239561264
 20
235.3001604949
 11
206.1120761394
 21
235.2120404819
  0
LINE
  5
2F4
100
AcDbEntity
  8
0
100
AcDbLine
 62
7
  6
CONTINUOUS
 10
207.406081549
 20
233.9180350723
 11
207.494201562
 21
233.8299150593
  0
LINE
  5
2F5
100
AcDbEntity
  8
0
100
AcDbLine
 62
7
  6
CONTINUOUS
 10
205.8657701171
 20
235.6280521317
 11
206.1119953014
 21
235.3818269474
  0
LINE
  5
2F6
100
AcDbEntity
  8
0
100
AcDbLine
 62
7
  6
CONTINUOUS
 10
207.5758680145
 20
233.9179542343
 11
207.8220931988
 21
233.67172905
  0
LINE
  5
2F7
100
AcDbEntity
  8
0
100
AcDbLine
 62
7
  6
CONTINUOUS
 10
207.6639071895
 20
233.9996206868
 11
207.5757871765
 21
234.0877406998
  0
LINE
  5
2F8
100
AcDbEntity
  8
0
100
AcDbLine
 62
7
  6
CONTINUOUS
 10
206.1936617539
 20
235.4698661224
 11
206.2817817669
 21
235.3817461093
  0
LINE
  5
2F9
100
AcDbEntity
  8
0
100
AcDbLine
 62
7
  6
CONTINUOUS
 10
207.3589316579
 20
235.4288960004
 11
207.406081549
 21
235.3817461093
  0
LINE
  5
2FA
100
AcDbEntity
  8
0
100
AcDbLine
 62
7
  6
CONTINUOUS
 10
207.5757871765
 20
235.2120404819
 11
207.6229370675
 21
235.1648905908
  0
ARC
  5
2FB
100
AcDbEntity
  8
0
100
AcDbCircle
 62
7
  6
CONTINUOUS
 10
38.4832737021
 20
116.3074493147
 40
11.8901173328
100
AcDbArc
 50
50.4056146904
 51
51.6185889554
  0
ARC
  5
2FC
100
AcDbEntity
  8
0
100
AcDbCircle
 62
7
  6
CONTINUOUS
 10
38.5175686811
 20
116.302246963
 40
11.8694331259
100
AcDbArc
 50
38.3803541133
 51
39.5954422409
  0
ARC
  5
2FD
100
AcDbEntity
  8
0
100
AcDbCircle
 62
7
  6
CONTINUOUS
 10
46.6362089686
 20
124.6498845052
 40
2.4006846853
100
AcDbArc
 50
167.6123578643
 51
192.3873447299
  0
ARC
  5
2FE
100
AcDbEntity
  8
0
100
AcDbCircle
 62
7
  6
CONTINUOUS
 10
46.6698895573
 20
124.6498846923
 40
2.2106715963
100
AcDbArc
 50
166.5284198205
 51
193.4712815039
  0
ARC
  5
2FF
100
AcDbEntity
  8
0
100
AcDbCircle
 62
7
  6
CONTINUOUS
 10
46.8439310435
 20
124.353946933
 40
1.5468842126
100
AcDbArc
 50
250.553537451
 51
289.4465066341
  0
ARC
  5
300
100
AcDbEntity
  8
0
100
AcDbCircle
 62
7
  6
CONTINUOUS
 10
38.4832737018
 20
132.9923318673
 40
11.8901173333
100
AcDbArc
 50
308.3814110446
 51
309.5943853096
  0
ARC
  5
301
100
AcDbEntity
  8
0
100
AcDbCircle
 62
7
  6
CONTINUOUS
 10
38.5175686808
 20
132.9975342188
 40
11.8694331262
100
AcDbArc
 50
320.4045577591
 51
321.6196458867
  0
ARC
  5
302
100
AcDbEntity
  8
0
100
AcDbCircle
 62
7
  6
CONTINUOUS
 10
55.204589614
 20
116.3074493144
 40
11.8901173332
100
AcDbArc
 50
128.3814110446
 51
129.5943853096
  0
ARC
  5
303
100
AcDbEntity
  8
0
100
AcDbCircle
 62
7
  6
CONTINUOUS
 10
55.1702946347
 20
116.3022469631
 40
11.8694331258
100
AcDbArc
 50
140.4045577591
 51
141.6196458867
  0
ARC
  5
304
100
AcDbEntity
  8
0
100
AcDbCircle
 62
7
  6
CONTINUOUS
 10
47.0179874229
 20
124.6498855088
 40
2.210658346
100
AcDbArc
 50
346.5286142114
 51
13.4716426118
  0
CIRCLE
  5
305
100
AcDbEntity
  8
0
100
AcDbCircle
 62
7
  6
CONTINUOUS
 10
46.8439316579
 20
124.6498905908
 40
9.4
  0
CIRCLE
  5
306
100
AcDbEntity
  8
0
100
AcDbCircle
 62
7
  6
CONTINUOUS
 10
46.8439316579
 20
124.6498905908
 40
9.2283303282
  0
CIRCLE
  5
307
100
AcDbEntity
  8
0
100
AcDbCircle
 62
7
  6
CONTINUOUS
 10
46.8439316579
 20
124.6498905908
 40
5.5126641653
  0
CIRCLE
  5
308
100
AcDbEntity
  8
0
100
AcDbCircle
 62
7
  6
CONTINUOUS
 10
46.8439316579
 20
124.6498905908
 40
5.25
  0
ARC
  5
309
100
AcDbEntity
  8
0
100
AcDbCircle
 62
7
  6
CONTINUOUS
 10
46.8439316579
 20
124.6498905908
 40
5.1355932203
100
AcDbArc
 50
275.755324753
 51
84.244675247
  0
ARC
  5
30A
100
AcDbEntity
  8
0
100
AcDbCircle
 62
7
  6
CONTINUOUS
 10
46.8439316579
 20
124.6498905908
 40
5.1355932203
100
AcDbArc
 50
95.755324753
 51
264.244675247
  0
ARC
  5
30B
100
AcDbEntity
  8
0
100
AcDbCircle
 62
7
  6
CONTINUOUS
 10
46.8439316579
 20
124.6498905908
 40
1.17
100
AcDbArc
 50
243.8852117006
 51
296.1147882994
  0
ARC
  5
30C
100
AcDbEntity
  8
0
100
AcDbCircle
 62
7
  6
CONTINUOUS
 10
46.8439316579
 20
124.6498905908
 40
1.17
100
AcDbArc
 50
153.8852117006
 51
206.1147882994
  0
ARC
  5
30D
100
AcDbEntity
  8
0
100
AcDbCircle
 62
7
  6
CONTINUOUS
 10
46.8439316579
 20
124.6498905908
 40
1.17
100
AcDbArc
 50
333.8852117006
 51
26.1147882994
  0
ARC
  5
30E
100
AcDbEntity
  8
0
100
AcDbCircle
 62
7
  6
CONTINUOUS
 10
46.8439316579
 20
124.6498905908
 40
1.17
100
AcDbArc
 50
63.8852117006
 51
116.1147882994
  0
ARC
  5
30F
100
AcDbEntity
  8
0
100
AcDbCircle
 62
7
  6
CONTINUOUS
 10
46.8439322724
 20
124.9458342488
 40
1.5468842134
100
AcDbArc
 50
70.5535374485
 51
109.4465066366
  0
ARC
  5
310
100
AcDbEntity
  8
0
100
AcDbCircle
 62
7
  6
CONTINUOUS
 10
47.051841843
 20
124.6498962647
 40
2.4004990454
100
AcDbArc
 50
347.611394727
 51
12.3883279637
  0
ARC
  5
311
100
AcDbEntity
  8
0
100
AcDbCircle
 62
7
  6
CONTINUOUS
 10
55.2045896139
 20
132.9923318672
 40
11.8901173332
100
AcDbArc
 50
230.4056146904
 51
231.6185889554
  0
ARC
  5
312
100
AcDbEntity
  8
0
100
AcDbCircle
 62
7
  6
CONTINUOUS
 10
55.1702946352
 20
132.9975342189
 40
11.8694331264
100
AcDbArc
 50
218.3803541134
 51
219.5954422408
  0
ARC
  5
313
100
AcDbEntity
  8
0
100
AcDbCircle
 62
7
  6
CONTINUOUS
 10
38.4832737019
 20
242.9923318672
 40
11.8901173332
100
AcDbArc
 50
308.3814110446
 51
309.5943853096
  0
ARC
  5
314
100
AcDbEntity
  8
0
100
AcDbCircle
 62
7
  6
CONTINUOUS
 10
38.4832737021
 20
226.3074493147
 40
11.8901173328
100
AcDbArc
 50
50.4056146904
 51
51.6185889554
  0
ARC
  5
315
100
AcDbEntity
  8
0
100
AcDbCircle
 62
7
  6
CONTINUOUS
 10
38.5175686812
 20
226.3022469632
 40
11.8694331257
100
AcDbArc
 50
38.3803541133
 51
39.5954422409
  0
ARC
  5
316
100
AcDbEntity
  8
0
100
AcDbCircle
 62
7
  6
CONTINUOUS
 10
38.5175686809
 20
242.9975342187
 40
11.8694331261
100
AcDbArc
 50
320.4045577591
 51
321.6196458867
  0
ARC
  5
317
100
AcDbEntity
  8
0
100
AcDbCircle
 62
7
  6
CONTINUOUS
 10
46.6362089686
 20
234.6498845052
 40
2.4006846853
100
AcDbArc
 50
167.6123578643
 51
192.3873447299
  0
ARC
  5
318
100
AcDbEntity
  8
0
100
AcDbCircle
 62
7
  6
CONTINUOUS
 10
46.6698895573
 20
234.6498846923
 40
2.2106715963
100
AcDbArc
 50
166.5284198205
 51
193.4712815039
  0
ARC
  5
319
100
AcDbEntity
  8
0
100
AcDbCircle
 62
7
  6
CONTINUOUS
 10
46.8439310435
 20
234.353946933
 40
1.5468842126
100
AcDbArc
 50
250.553537451
 51
289.4465066341
  0
CIRCLE
  5
31A
100
AcDbEntity
  8
0
100
AcDbCircle
 62
7
  6
CONTINUOUS
 10
52.8439316579
 20
203.6498905908
 40
2.5
  0
ARC
  5
31B
100
AcDbEntity
  8
0
100
AcDbCircle
 62
7
  6
CONTINUOUS
 10
47.0179874229
 20
234.6498855088
 40
2.210658346
100
AcDbArc
 50
346.5286142114
 51
13.4716426118
  0
CIRCLE
  5
31C
100
AcDbEntity
  8
0
100
AcDbCircle
 62
7
  6
CONTINUOUS
 10
46.8439316579
 20
234.6498905908
 40
9.4
  0
CIRCLE
  5
31D
100
AcDbEntity
  8
0
100
AcDbCircle
 62
7
  6
CONTINUOUS
 10
46.8439316579
 20
234.6498905908
 40
9.2283303282
  0
CIRCLE
  5
31E
100
AcDbEntity
  8
0
100
AcDbCircle
 62
7
  6
CONTINUOUS
 10
46.8439316579
 20
234.6498905908
 40
5.5126641653
  0
CIRCLE
  5
31F
100
AcDbEntity
  8
0
100
AcDbCircle
 62
7
  6
CONTINUOUS
 10
46.8439316579
 20
234.6498905908
 40
5.25
  0
ARC
  5
320
100
AcDbEntity
  8
0
100
AcDbCircle
 62
7
  6
CONTINUOUS
 10
46.8439316579
 20
234.6498905908
 40
5.1355932203
100
AcDbArc
 50
275.755324753
 51
84.244675247
  0
ARC
  5
321
100
AcDbEntity
  8
0
100
AcDbCircle
 62
7
  6
CONTINUOUS
 10
46.8439316579
 20
234.6498905908
 40
5.1355932203
100
AcDbArc
 50
95.755324753
 51
264.244675247
  0
ARC
  5
322
100
AcDbEntity
  8
0
100
AcDbCircle
 62
7
  6
CONTINUOUS
 10
46.8439316579
 20
234.6498905908
 40
1.17
100
AcDbArc
 50
243.8852117006
 51
296.1147882994
  0
ARC
  5
323
100
AcDbEntity
  8
0
100
AcDbCircle
 62
7
  6
CONTINUOUS
 10
46.8439316579
 20
234.6498905908
 40
1.17
100
AcDbArc
 50
153.8852117006
 51
206.1147882994
  0
ARC
  5
324
100
AcDbEntity
  8
0
100
AcDbCircle
 62
7
  6
CONTINUOUS
 10
46.8439316579
 20
234.6498905908
 40
1.17
100
AcDbArc
 50
333.8852117006
 51
26.1147882994
  0
ARC
  5
325
100
AcDbEntity
  8
0
100
AcDbCircle
 62
7
  6
CONTINUOUS
 10
46.8439316579
 20
234.6498905908
 40
1.17
100
AcDbArc
 50
63.8852117006
 51
116.1147882994
  0
ARC
  5
326
100
AcDbEntity
  8
0
100
AcDbCircle
 62
7
  6
CONTINUOUS
 10
46.8439322724
 20
234.9458342488
 40
1.5468842134
100
AcDbArc
 50
70.5535374485
 51
109.4465066366
  0
ARC
  5
327
100
AcDbEntity
  8
0
100
AcDbCircle
 62
7
  6
CONTINUOUS
 10
47.051841843
 20
234.6498962647
 40
2.4004990454
100
AcDbArc
 50
347.611394727
 51
12.3883279637
  0
ARC
  5
328
100
AcDbEntity
  8
0
100
AcDbCircle
 62
7
  6
CONTINUOUS
 10
55.2045896137
 20
226.3074493148
 40
11.8901173327
100
AcDbArc
 50
128.3814110446
 51
129.5943853096
  0
ARC
  5
329
100
AcDbEntity
  8
0
100
AcDbCircle
 62
7
  6
CONTINUOUS
 10
55.1702946346
 20
226.3022469632
 40
11.8694331257
100
AcDbArc
 50
140.4045577591
 51
141.6196458867
  0
ARC
  5
32A
100
AcDbEntity
  8
0
100
AcDbCircle
 62
7
  6
CONTINUOUS
 10
55.2045896139
 20
242.9923318672
 40
11.8901173332
100
AcDbArc
 50
230.4056146904
 51
231.6185889554
  0
ARC
  5
32B
100
AcDbEntity
  8
0
100
AcDbCircle
 62
7
  6
CONTINUOUS
 10
55.170294635
 20
242.9975342187
 40
11.8694331262
100
AcDbArc
 50
218.3803541133
 51
219.5954422408
  0
ARC
  5
32C
100
AcDbEntity
  8
0
100
AcDbCircle
 62
7
  6
CONTINUOUS
 10
198.4832737019
 20
116.3074493144
 40
11.8901173332
100
AcDbArc
 50
50.4056146904
 51
51.6185889554
  0
ARC
  5
32D
100
AcDbEntity
  8
0
100
AcDbCircle
 62
7
  6
CONTINUOUS
 10
198.5175686809
 20
116.3022469629
 40
11.8694331261
100
AcDbArc
 50
38.3803541133
 51
39.5954422409
  0
ARC
  5
32E
100
AcDbEntity
  8
0
100
AcDbCircle
 62
7
  6
CONTINUOUS
 10
206.6360214704
 20
124.6498849169
 40
2.4004990442
100
AcDbArc
 50
167.6113947209
 51
192.3883279697
  0
ARC
  5
32F
100
AcDbEntity
  8
0
100
AcDbCircle
 62
7
  6
CONTINUOUS
 10
206.8439310435
 20
124.353946933
 40
1.5468842126
100
AcDbArc
 50
250.553537451
 51
289.4465066341
  0
ARC
  5
330
100
AcDbEntity
  8
0
100
AcDbCircle
 62
7
  6
CONTINUOUS
 10
198.4832737024
 20
132.9923318666
 40
11.8901173324
100
AcDbArc
 50
308.3814110446
 51
309.5943853096
  0
ARC
  5
331
100
AcDbEntity
  8
0
100
AcDbCircle
 62
7
  6
CONTINUOUS
 10
198.5175686813
 20
132.9975342184
 40
11.8694331256
100
AcDbArc
 50
320.4045577591
 51
321.6196458867
  0
ARC
  5
332
100
AcDbEntity
  8
0
100
AcDbCircle
 62
7
  6
CONTINUOUS
 10
206.669875893
 20
124.6498956728
 40
2.210658346
100
AcDbArc
 50
166.5286142114
 51
193.4716426118
  0
ARC
  5
333
100
AcDbEntity
  8
0
100
AcDbCircle
 62
7
  6
CONTINUOUS
 10
215.2045896138
 20
116.3074493146
 40
11.890117333
100
AcDbArc
 50
128.3814110446
 51
129.5943853096
  0
ARC
  5
334
100
AcDbEntity
  8
0
100
AcDbCircle
 62
7
  6
CONTINUOUS
 10
215.1702946347
 20
116.3022469631
 40
11.8694331258
100
AcDbArc
 50
140.4045577591
 51
141.6196458867
  0
CIRCLE
  5
335
100
AcDbEntity
  8
0
100
AcDbCircle
 62
7
  6
CONTINUOUS
 10
206.8439316579
 20
124.6498905908
 40
9.4
  0
CIRCLE
  5
336
100
AcDbEntity
  8
0
100
AcDbCircle
 62
7
  6
CONTINUOUS
 10
206.8439316579
 20
124.6498905908
 40
9.2283303282
  0
CIRCLE
  5
337
100
AcDbEntity
  8
0
100
AcDbCircle
 62
7
  6
CONTINUOUS
 10
206.8439316579
 20
124.6498905908
 40
5.5126641653
  0
CIRCLE
  5
338
100
AcDbEntity
  8
0
100
AcDbCircle
 62
7
  6
CONTINUOUS
 10
206.8439316579
 20
124.6498905908
 40
5.25
  0
ARC
  5
339
100
AcDbEntity
  8
0
100
AcDbCircle
 62
7
  6
CONTINUOUS
 10
206.8439316579
 20
124.6498905908
 40
5.1355932203
100
AcDbArc
 50
95.755324753
 51
264.244675247
  0
ARC
  5
33A
100
AcDbEntity
  8
0
100
AcDbCircle
 62
7
  6
CONTINUOUS
 10
206.8439316579
 20
124.6498905908
 40
5.1355932203
100
AcDbArc
 50
275.755324753
 51
84.244675247
  0
ARC
  5
33B
100
AcDbEntity
  8
0
100
AcDbCircle
 62
7
  6
CONTINUOUS
 10
206.8439316579
 20
124.6498905908
 40
1.17
100
AcDbArc
 50
63.8852117006
 51
116.1147882994
  0
ARC
  5
33C
100
AcDbEntity
  8
0
100
AcDbCircle
 62
7
  6
CONTINUOUS
 10
206.8439316579
 20
124.6498905908
 40
1.17
100
AcDbArc
 50
333.8852117006
 51
26.1147882994
  0
ARC
  5
33D
100
AcDbEntity
  8
0
100
AcDbCircle
 62
7
  6
CONTINUOUS
 10
206.8439316579
 20
124.6498905908
 40
1.17
100
AcDbArc
 50
153.8852117006
 51
206.1147882994
  0
ARC
  5
33E
100
AcDbEntity
  8
0
100
AcDbCircle
 62
7
  6
CONTINUOUS
 10
206.8439316579
 20
124.6498905908
 40
1.17
100
AcDbArc
 50
243.8852117006
 51
296.1147882994
  0
ARC
  5
33F
100
AcDbEntity
  8
0
100
AcDbCircle
 62
7
  6
CONTINUOUS
 10
206.8439322724
 20
124.9458342488
 40
1.5468842134
100
AcDbArc
 50
70.5535374485
 51
109.4465066366
  0
ARC
  5
340
100
AcDbEntity
  8
0
100
AcDbCircle
 62
7
  6
CONTINUOUS
 10
207.0516543461
 20
124.6498967013
 40
2.4006846859
100
AcDbArc
 50
347.6123572584
 51
12.3873441183
  0
ARC
  5
341
100
AcDbEntity
  8
0
100
AcDbCircle
 62
7
  6
CONTINUOUS
 10
207.0179737586
 20
124.6498964894
 40
2.2106715963
100
AcDbArc
 50
346.5284198205
 51
13.4712815039
  0
ARC
  5
342
100
AcDbEntity
  8
0
100
AcDbCircle
 62
7
  6
CONTINUOUS
 10
215.2045896142
 20
132.9923318674
 40
11.8901173335
100
AcDbArc
 50
230.4056146904
 51
231.6185889553
  0
ARC
  5
343
100
AcDbEntity
  8
0
100
AcDbCircle
 62
7
  6
CONTINUOUS
 10
215.1702946348
 20
132.9975342186
 40
11.8694331259
100
AcDbArc
 50
218.3803541133
 51
219.5954422409
  0
ARC
  5
344
100
AcDbEntity
  8
0
100
AcDbCircle
 62
7
  6
CONTINUOUS
 10
198.4832737022
 20
226.3074493148
 40
11.8901173327
100
AcDbArc
 50
50.4056146904
 51
51.6185889554
  0
ARC
  5
345
100
AcDbEntity
  8
0
100
AcDbCircle
 62
7
  6
CONTINUOUS
 10
198.5175686815
 20
226.3022469634
 40
11.8694331253
100
AcDbArc
 50
38.3803541133
 51
39.5954422409
  0
ARC
  5
346
100
AcDbEntity
  8
0
100
AcDbCircle
 62
7
  6
CONTINUOUS
 10
206.6362089686
 20
234.6498845052
 40
2.4006846853
100
AcDbArc
 50
167.6123578643
 51
192.3873447299
  0
ARC
  5
347
100
AcDbEntity
  8
0
100
AcDbCircle
 62
7
  6
CONTINUOUS
 10
206.6698895573
 20
234.6498846923
 40
2.2106715963
100
AcDbArc
 50
166.5284198205
 51
193.4712815039
  0
ARC
  5
348
100
AcDbEntity
  8
0
100
AcDbCircle
 62
7
  6
CONTINUOUS
 10
206.8439310435
 20
234.353946933
 40
1.5468842126
100
AcDbArc
 50
250.553537451
 51
289.4465066341
  0
ARC
  5
349
100
AcDbEntity
  8
0
100
AcDbCircle
 62
7
  6
CONTINUOUS
 10
198.4832737019
 20
242.9923318672
 40
11.8901173332
100
AcDbArc
 50
308.3814110446
 51
309.5943853096
  0
ARC
  5
34A
100
AcDbEntity
  8
0
100
AcDbCircle
 62
7
  6
CONTINUOUS
 10
198.5175686809
 20
242.9975342187
 40
11.8694331261
100
AcDbArc
 50
320.4045577591
 51
321.6196458867
  0
ARC
  5
34B
100
AcDbEntity
  8
0
100
AcDbCircle
 62
7
  6
CONTINUOUS
 10
215.2045896134
 20
226.3074493151
 40
11.8901173323
100
AcDbArc
 50
128.3814110446
 51
129.5943853096
  0
ARC
  5
34C
100
AcDbEntity
  8
0
100
AcDbCircle
 62
7
  6
CONTINUOUS
 10
215.1702946344
 20
226.3022469634
 40
11.8694331253
100
AcDbArc
 50
140.4045577591
 51
141.6196458867
  0
ARC
  5
34D
100
AcDbEntity
  8
0
100
AcDbCircle
 62
7
  6
CONTINUOUS
 10
207.0179874229
 20
234.6498855088
 40
2.210658346
100
AcDbArc
 50
346.5286142114
 51
13.4716426118
  0
CIRCLE
  5
34E
100
AcDbEntity
  8
0
100
AcDbCircle
 62
7
  6
CONTINUOUS
 10
206.8439316579
 20
234.6498905908
 40
9.4
  0
CIRCLE
  5
34F
100
AcDbEntity
  8
0
100
AcDbCircle
 62
7
  6
CONTINUOUS
 10
206.8439316579
 20
234.6498905908
 40
9.2283303282
  0
CIRCLE
  5
350
100
AcDbEntity
  8
0
100
AcDbCircle
 62
7
  6
CONTINUOUS
 10
206.8439316579
 20
234.6498905908
 40
5.5126641653
  0
CIRCLE
  5
351
100
AcDbEntity
  8
0
100
AcDbCircle
 62
7
  6
CONTINUOUS
 10
206.8439316579
 20
234.6498905908
 40
5.25
  0
ARC
  5
352
100
AcDbEntity
  8
0
100
AcDbCircle
 62
7
  6
CONTINUOUS
 10
206.8439316579
 20
234.6498905908
 40
5.1355932203
100
AcDbArc
 50
275.755324753
 51
84.244675247
  0
ARC
  5
353
100
AcDbEntity
  8
0
100
AcDbCircle
 62
7
  6
CONTINUOUS
 10
206.8439316579
 20
234.6498905908
 40
5.1355932203
100
AcDbArc
 50
95.755324753
 51
264.244675247
  0
ARC
  5
354
100
AcDbEntity
  8
0
100
AcDbCircle
 62
7
  6
CONTINUOUS
 10
206.8439316579
 20
234.6498905908
 40
1.17
100
AcDbArc
 50
243.8852117006
 51
296.1147882994
  0
ARC
  5
355
100
AcDbEntity
  8
0
100
AcDbCircle
 62
7
  6
CONTINUOUS
 10
206.8439316579
 20
234.6498905908
 40
1.17
100
AcDbArc
 50
153.8852117006
 51
206.1147882994
  0
ARC
  5
356
100
AcDbEntity
  8
0
100
AcDbCircle
 62
7
  6
CONTINUOUS
 10
206.8439316579
 20
234.6498905908
 40
1.17
100
AcDbArc
 50
333.8852117006
 51
26.1147882994
  0
ARC
  5
357
100
AcDbEntity
  8
0
100
AcDbCircle
 62
7
  6
CONTINUOUS
 10
206.8439316579
 20
234.6498905908
 40
1.17
100
AcDbArc
 50
63.8852117006
 51
116.1147882994
  0
ARC
  5
358
100
AcDbEntity
  8
0
100
AcDbCircle
 62
7
  6
CONTINUOUS
 10
206.8439322724
 20
234.9458342488
 40
1.5468842134
100
AcDbArc
 50
70.5535374485
 51
109.4465066366
  0
ARC
  5
359
100
AcDbEntity
  8
0
100
AcDbCircle
 62
7
  6
CONTINUOUS
 10
207.051841843
 20
234.6498962647
 40
2.4004990454
100
AcDbArc
 50
347.6113947269
 51
12.3883279637
  0
ARC
  5
35A
100
AcDbEntity
  8
0
100
AcDbCircle
 62
7
  6
CONTINUOUS
 10
215.2045896139
 20
242.9923318672
 40
11.8901173332
100
AcDbArc
 50
230.4056146904
 51
231.6185889554
  0
ARC
  5
35B
100
AcDbEntity
  8
0
100
AcDbCircle
 62
7
  6
CONTINUOUS
 10
215.1702946347
 20
242.9975342185
 40
11.8694331258
100
AcDbArc
 50
218.3803541133
 51
219.5954422409
  0
LINE
  5
35C
100
AcDbEntity
  8
0
100
AcDbLine
 62
7
  6
CONTINUOUS
 10
207.6639071895
 20
235.3001604949
 11
207.6637259083
 21
235.4324003331
  0
LINE
  5
35D
100
AcDbEntity
  8
0
100
AcDbLine
 62
7
  6
CONTINUOUS
 10
207.7989650253
 20
235.1648905908
 11
207.6639071895
 21
235.3001604949
  0
LINE
  5
35E
100
AcDbEntity
  8
0
100
AcDbLine
 62
7
  6
CONTINUOUS
 10
207.494201562
 20
233.8299150593
 11
207.3589316579
 21
233.6948572235
  0
LINE
  5
35F
100
AcDbEntity
  8
0
100
AcDbLine
 62
7
  6
CONTINUOUS
 10
207.6637259083
 20
233.8673808485
 11
207.6639071895
 21
233.9996206868
  0
LINE
  5
360
100
AcDbEntity
  8
0
100
AcDbLine
 62
7
  6
CONTINUOUS
 10
207.7989650253
 20
234.1348905908
 11
207.6639071895
 21
233.9996206868
  0
LINE
  5
361
100
AcDbEntity
  8
0
100
AcDbLine
 62
7
  6
CONTINUOUS
 10
207.494201562
 20
233.8299150593
 11
207.6264414002
 21
233.8300963404
  0
LINE
  5
362
100
AcDbEntity
  8
0
100
AcDbLine
 62
7
  6
CONTINUOUS
 10
206.1936617539
 20
233.8299150593
 11
206.3289316579
 21
233.6948572235
  0
LINE
  5
363
100
AcDbEntity
  8
0
100
AcDbLine
 62
7
  6
CONTINUOUS
 10
206.0614219156
 20
233.8300963404
 11
206.1936617539
 21
233.8299150593
  0
LINE
  5
364
100
AcDbEntity
  8
0
100
AcDbLine
 62
7
  6
CONTINUOUS
 10
206.0239561264
 20
233.9996206868
 11
206.0241374076
 21
233.8673808485
  0
LINE
  5
365
100
AcDbEntity
  8
0
100
AcDbLine
 62
7
  6
CONTINUOUS
 10
205.8888982906
 20
234.1348905908
 11
206.0239561264
 21
233.9996206868
  0
SPLINE
  5
366
100
AcDbEntity
  8
0
100
AcDbSpline
 62
7
  6
CONTINUOUS
 70
0
 71
3
 72
9
 73
5
 74
0
 42
0.0000001
 43
0.0000001
 44
0.0000000001
 40
0.0
 40
0.0
 40
0.0
 40
0.0
 40
0.4999999966
 40
1.0
 40
1.0
 40
1.0
 40
1.0
 10
207.3589316821
 20
232.705206403
 30
0.0
 10
207.1930036095
 20
232.6540615904
 30
0.0
 10
206.8439332407
 20
232.6000559505
 30
0.0
 10
206.4948613222
 20
232.6540510836
 30
0.0
 10
206.3289316335
 20
232.7051906607
 30
0.0
  0
LINE
  5
367
100
AcDbEntity
  8
0
100
AcDbLine
 62
7
  6
CONTINUOUS
 10
206.0239561264
 20
235.3001604949
 11
205.8888982906
 21
235.1648905908
  0
LINE
  5
368
100
AcDbEntity
  8
0
100
AcDbLine
 62
7
  6
CONTINUOUS
 10
207.494201562
 20
235.4698661224
 11
207.3589316579
 21
235.6049239581
  0
LINE
  5
369
100
AcDbEntity
  8
0
100
AcDbLine
 62
7
  6
CONTINUOUS
 10
206.0241374076
 20
235.4324003331
 11
206.0239561264
 21
235.3001604949
  0
LINE
  5
36A
100
AcDbEntity
  8
0
100
AcDbLine
 62
7
  6
CONTINUOUS
 10
206.1936617539
 20
235.4698661224
 11
206.0614219156
 21
235.4696848412
  0
LINE
  5
36B
100
AcDbEntity
  8
0
100
AcDbLine
 62
7
  6
CONTINUOUS
 10
206.3289316579
 20
235.6049239581
 11
206.1936617539
 21
235.4698661224
  0
LINE
  5
36C
100
AcDbEntity
  8
0
100
AcDbLine
 62
7
  6
CONTINUOUS
 10
207.6264414002
 20
235.4696848412
 11
207.494201562
 21
235.4698661224
  0
SPLINE
  5
36D
100
AcDbEntity
  8
0
100
AcDbSpline
 62
7
  6
CONTINUOUS
 70
0
 71
3
 72
9
 73
5
 74
0
 42
0.0000001
 43
0.0000001
 44
0.0000000001
 40
0.0
 40
0.0
 40
0.0
 40
0.0
 40
0.4999999967
 40
1.0
 40
1.0
 40
1.0
 40
1.0
 10
206.3289316338
 20
236.5945746909
 30
0.0
 10
206.4948597005
 20
236.6457195225
 30
0.0
 10
206.84393006
 20
236.6997252135
 30
0.0
 10
207.1930019873
 20
236.6457301301
 30
0.0
 10
207.3589316824
 20
236.5945905737
 30
0.0
  0
LINE
  5
36E
100
AcDbEntity
  8
0
100
AcDbLine
 62
7
  6
CONTINUOUS
 10
47.6639071895
 20
235.3001604949
 11
47.6637259083
 21
235.4324003331
  0
LINE
  5
36F
100
AcDbEntity
  8
0
100
AcDbLine
 62
7
  6
CONTINUOUS
 10
47.7989650253
 20
235.1648905908
 11
47.6639071895
 21
235.3001604949
  0
LINE
  5
370
100
AcDbEntity
  8
0
100
AcDbLine
 62
7
  6
CONTINUOUS
 10
47.494201562
 20
233.8299150593
 11
47.3589316579
 21
233.6948572235
  0
LINE
  5
371
100
AcDbEntity
  8
0
100
AcDbLine
 62
7
  6
CONTINUOUS
 10
47.6637259083
 20
233.8673808485
 11
47.6639071895
 21
233.9996206868
  0
LINE
  5
372
100
AcDbEntity
  8
0
100
AcDbLine
 62
7
  6
CONTINUOUS
 10
47.7989650253
 20
234.1348905908
 11
47.6639071895
 21
233.9996206868
  0
LINE
  5
373
100
AcDbEntity
  8
0
100
AcDbLine
 62
7
  6
CONTINUOUS
 10
47.494201562
 20
233.8299150593
 11
47.6264414002
 21
233.8300963404
  0
LINE
  5
374
100
AcDbEntity
  8
0
100
AcDbLine
 62
7
  6
CONTINUOUS
 10
46.1936617539
 20
233.8299150593
 11
46.3289316579
 21
233.6948572235
  0
LINE
  5
375
100
AcDbEntity
  8
0
100
AcDbLine
 62
7
  6
CONTINUOUS
 10
46.0614219156
 20
233.8300963404
 11
46.1936617539
 21
233.8299150593
  0
LINE
  5
376
100
AcDbEntity
  8
0
100
AcDbLine
 62
7
  6
CONTINUOUS
 10
46.0239561264
 20
233.9996206868
 11
46.0241374076
 21
233.8673808485
  0
LINE
  5
377
100
AcDbEntity
  8
0
100
AcDbLine
 62
7
  6
CONTINUOUS
 10
45.8888982906
 20
234.1348905908
 11
46.0239561264
 21
233.9996206868
  0
SPLINE
  5
378
100
AcDbEntity
  8
0
100
AcDbSpline
 62
7
  6
CONTINUOUS
 70
0
 71
3
 72
9
 73
5
 74
0
 42
0.0000001
 43
0.0000001
 44
0.0000000001
 40
0.0
 40
0.0
 40
0.0
 40
0.0
 40
0.4999999966
 40
1.0
 40
1.0
 40
1.0
 40
1.0
 10
47.3589316821
 20
232.705206403
 30
0.0
 10
47.1930036095
 20
232.6540615904
 30
0.0
 10
46.8439332407
 20
232.6000559505
 30
0.0
 10
46.4948613222
 20
232.6540510836
 30
0.0
 10
46.3289316335
 20
232.7051906607
 30
0.0
  0
LINE
  5
379
100
AcDbEntity
  8
0
100
AcDbLine
 62
7
  6
CONTINUOUS
 10
46.0239561264
 20
235.3001604949
 11
45.8888982906
 21
235.1648905908
  0
LINE
  5
37A
100
AcDbEntity
  8
0
100
AcDbLine
 62
7
  6
CONTINUOUS
 10
47.494201562
 20
235.4698661224
 11
47.3589316579
 21
235.6049239581
  0
LINE
  5
37B
100
AcDbEntity
  8
0
100
AcDbLine
 62
7
  6
CONTINUOUS
 10
46.0241374076
 20
235.4324003331
 11
46.0239561264
 21
235.3001604949
  0
LINE
  5
37C
100
AcDbEntity
  8
0
100
AcDbLine
 62
7
  6
CONTINUOUS
 10
46.1936617539
 20
235.4698661224
 11
46.0614219156
 21
235.4696848412
  0
LINE
  5
37D
100
AcDbEntity
  8
0
100
AcDbLine
 62
7
  6
CONTINUOUS
 10
46.3289316579
 20
235.6049239581
 11
46.1936617539
 21
235.4698661224
  0
LINE
  5
37E
100
AcDbEntity
  8
0
100
AcDbLine
 62
7
  6
CONTINUOUS
 10
47.6264414002
 20
235.4696848412
 11
47.494201562
 21
235.4698661224
  0
SPLINE
  5
37F
100
AcDbEntity
  8
0
100
AcDbSpline
 62
7
  6
CONTINUOUS
 70
0
 71
3
 72
9
 73
5
 74
0
 42
0.0000001
 43
0.0000001
 44
0.0000000001
 40
0.0
 40
0.0
 40
0.0
 40
0.0
 40
0.4999999967
 40
1.0
 40
1.0
 40
1.0
 40
1.0
 10
46.3289316338
 20
236.5945746909
 30
0.0
 10
46.4948597005
 20
236.6457195225
 30
0.0
 10
46.84393006
 20
236.6997252135
 30
0.0
 10
47.1930019873
 20
236.6457301301
 30
0.0
 10
47.3589316824
 20
236.5945905737
 30
0.0
  0
LINE
  5
380
100
AcDbEntity
  8
0
100
AcDbLine
 62
7
  6
CONTINUOUS
 10
47.6639071895
 20
125.3001604949
 11
47.6637259083
 21
125.4324003331
  0
LINE
  5
381
100
AcDbEntity
  8
0
100
AcDbLine
 62
7
  6
CONTINUOUS
 10
47.7989650253
 20
125.1648905908
 11
47.6639071895
 21
125.3001604949
  0
LINE
  5
382
100
AcDbEntity
  8
0
100
AcDbLine
 62
7
  6
CONTINUOUS
 10
47.494201562
 20
123.8299150593
 11
47.3589316579
 21
123.6948572235
  0
LINE
  5
383
100
AcDbEntity
  8
0
100
AcDbLine
 62
7
  6
CONTINUOUS
 10
47.6637259083
 20
123.8673808485
 11
47.6639071895
 21
123.9996206868
  0
LINE
  5
384
100
AcDbEntity
  8
0
100
AcDbLine
 62
7
  6
CONTINUOUS
 10
47.7989650253
 20
124.1348905908
 11
47.6639071895
 21
123.9996206868
  0
LINE
  5
385
100
AcDbEntity
  8
0
100
AcDbLine
 62
7
  6
CONTINUOUS
 10
47.494201562
 20
123.8299150593
 11
47.6264414002
 21
123.8300963404
  0
LINE
  5
386
100
AcDbEntity
  8
0
100
AcDbLine
 62
7
  6
CONTINUOUS
 10
46.1936617539
 20
123.8299150593
 11
46.3289316579
 21
123.6948572235
  0
LINE
  5
387
100
AcDbEntity
  8
0
100
AcDbLine
 62
7
  6
CONTINUOUS
 10
46.0614219156
 20
123.8300963404
 11
46.1936617539
 21
123.8299150593
  0
LINE
  5
388
100
AcDbEntity
  8
0
100
AcDbLine
 62
7
  6
CONTINUOUS
 10
46.0239561264
 20
123.9996206868
 11
46.0241374076
 21
123.8673808485
  0
LINE
  5
389
100
AcDbEntity
  8
0
100
AcDbLine
 62
7
  6
CONTINUOUS
 10
45.8888982906
 20
124.1348905908
 11
46.0239561264
 21
123.9996206868
  0
SPLINE
  5
38A
100
AcDbEntity
  8
0
100
AcDbSpline
 62
7
  6
CONTINUOUS
 70
0
 71
3
 72
9
 73
5
 74
0
 42
0.0000001
 43
0.0000001
 44
0.0000000001
 40
0.0
 40
0.0
 40
0.0
 40
0.0
 40
0.4999999966
 40
1.0
 40
1.0
 40
1.0
 40
1.0
 10
47.3589316821
 20
122.705206403
 30
0.0
 10
47.1930036095
 20
122.6540615904
 30
0.0
 10
46.8439332407
 20
122.6000559505
 30
0.0
 10
46.4948613222
 20
122.6540510836
 30
0.0
 10
46.3289316335
 20
122.7051906607
 30
0.0
  0
LINE
  5
38B
100
AcDbEntity
  8
0
100
AcDbLine
 62
7
  6
CONTINUOUS
 10
46.0239561264
 20
125.3001604949
 11
45.8888982906
 21
125.1648905908
  0
LINE
  5
38C
100
AcDbEntity
  8
0
100
AcDbLine
 62
7
  6
CONTINUOUS
 10
47.494201562
 20
125.4698661224
 11
47.3589316579
 21
125.6049239581
  0
LINE
  5
38D
100
AcDbEntity
  8
0
100
AcDbLine
 62
7
  6
CONTINUOUS
 10
46.0241374076
 20
125.4324003331
 11
46.0239561264
 21
125.3001604949
  0
LINE
  5
38E
100
AcDbEntity
  8
0
100
AcDbLine
 62
7
  6
CONTINUOUS
 10
46.1936617539
 20
125.4698661224
 11
46.0614219156
 21
125.4696848412
  0
LINE
  5
38F
100
AcDbEntity
  8
0
100
AcDbLine
 62
7
  6
CONTINUOUS
 10
46.3289316579
 20
125.6049239581
 11
46.1936617539
 21
125.4698661224
  0
LINE
  5
390
100
AcDbEntity
  8
0
100
AcDbLine
 62
7
  6
CONTINUOUS
 10
47.6264414002
 20
125.4696848412
 11
47.494201562
 21
125.4698661224
  0
SPLINE
  5
391
100
AcDbEntity
  8
0
100
AcDbSpline
 62
7
  6
CONTINUOUS
 70
0
 71
3
 72
9
 73
5
 74
0
 42
0.0000001
 43
0.0000001
 44
0.0000000001
 40
0.0
 40
0.0
 40
0.0
 40
0.0
 40
0.4999999967
 40
1.0
 40
1.0
 40
1.0
 40
1.0
 10
46.3289316338
 20
126.5945746909
 30
0.0
 10
46.4948597005
 20
126.6457195225
 30
0.0
 10
46.84393006
 20
126.6997252135
 30
0.0
 10
47.1930019873
 20
126.6457301301
 30
0.0
 10
47.3589316824
 20
126.5945905737
 30
0.0
  0
LINE
  5
392
100
AcDbEntity
  8
0
100
AcDbLine
 62
7
  6
CONTINUOUS
 10
206.0239561264
 20
123.9996206868
 11
206.0241374076
 21
123.8673808485
  0
LINE
  5
393
100
AcDbEntity
  8
0
100
AcDbLine
 62
7
  6
CONTINUOUS
 10
205.8888982906
 20
124.1348905908
 11
206.0239561264
 21
123.9996206868
  0
LINE
  5
394
100
AcDbEntity
  8
0
100
AcDbLine
 62
7
  6
CONTINUOUS
 10
206.1936617539
 20
125.4698661224
 11
206.3289316579
 21
125.6049239581
  0
LINE
  5
395
100
AcDbEntity
  8
0
100
AcDbLine
 62
7
  6
CONTINUOUS
 10
206.0241374076
 20
125.4324003331
 11
206.0239561264
 21
125.3001604949
  0
LINE
  5
396
100
AcDbEntity
  8
0
100
AcDbLine
 62
7
  6
CONTINUOUS
 10
205.8888982906
 20
125.1648905908
 11
206.0239561264
 21
125.3001604949
  0
LINE
  5
397
100
AcDbEntity
  8
0
100
AcDbLine
 62
7
  6
CONTINUOUS
 10
206.1936617539
 20
125.4698661224
 11
206.0614219156
 21
125.4696848412
  0
LINE
  5
398
100
AcDbEntity
  8
0
100
AcDbLine
 62
7
  6
CONTINUOUS
 10
207.494201562
 20
125.4698661224
 11
207.3589316579
 21
125.6049239581
  0
LINE
  5
399
100
AcDbEntity
  8
0
100
AcDbLine
 62
7
  6
CONTINUOUS
 10
207.6264414002
 20
125.4696848412
 11
207.494201562
 21
125.4698661224
  0
LINE
  5
39A
100
AcDbEntity
  8
0
100
AcDbLine
 62
7
  6
CONTINUOUS
 10
207.6639071895
 20
125.3001604949
 11
207.6637259083
 21
125.4324003331
  0
LINE
  5
39B
100
AcDbEntity
  8
0
100
AcDbLine
 62
7
  6
CONTINUOUS
 10
207.7989650253
 20
125.1648905908
 11
207.6639071895
 21
125.3001604949
  0
SPLINE
  5
39C
100
AcDbEntity
  8
0
100
AcDbSpline
 62
7
  6
CONTINUOUS
 70
0
 71
3
 72
9
 73
5
 74
0
 42
0.0000001
 43
0.0000001
 44
0.0000000001
 40
0.0
 40
0.0
 40
0.0
 40
0.0
 40
0.4999999967
 40
1.0
 40
1.0
 40
1.0
 40
1.0
 10
206.3289316338
 20
126.5945746909
 30
0.0
 10
206.4948597005
 20
126.6457195225
 30
0.0
 10
206.84393006
 20
126.6997252135
 30
0.0
 10
207.1930019873
 20
126.6457301301
 30
0.0
 10
207.3589316824
 20
126.5945905737
 30
0.0
  0
LINE
  5
39D
100
AcDbEntity
  8
0
100
AcDbLine
 62
7
  6
CONTINUOUS
 10
207.6639071895
 20
123.9996206868
 11
207.7989650253
 21
124.1348905908
  0
LINE
  5
39E
100
AcDbEntity
  8
0
100
AcDbLine
 62
7
  6
CONTINUOUS
 10
206.1936617539
 20
123.8299150593
 11
206.3289316579
 21
123.6948572235
  0
LINE
  5
39F
100
AcDbEntity
  8
0
100
AcDbLine
 62
7
  6
CONTINUOUS
 10
207.6637259083
 20
123.8673808485
 11
207.6639071895
 21
123.9996206868
  0
LINE
  5
3A0
100
AcDbEntity
  8
0
100
AcDbLine
 62
7
  6
CONTINUOUS
 10
207.494201562
 20
123.8299150593
 11
207.6264414002
 21
123.8300963404
  0
LINE
  5
3A1
100
AcDbEntity
  8
0
100
AcDbLine
 62
7
  6
CONTINUOUS
 10
207.3589316579
 20
123.6948572235
 11
207.494201562
 21
123.8299150593
  0
LINE
  5
3A2
100
AcDbEntity
  8
0
100
AcDbLine
 62
7
  6
CONTINUOUS
 10
206.0614219156
 20
123.8300963404
 11
206.1936617539
 21
123.8299150593
  0
SPLINE
  5
3A3
100
AcDbEntity
  8
0
100
AcDbSpline
 62
7
  6
CONTINUOUS
 70
0
 71
3
 72
9
 73
5
 74
0
 42
0.0000001
 43
0.0000001
 44
0.0000000001
 40
0.0
 40
0.0
 40
0.0
 40
0.0
 40
0.4999999966
 40
1.0
 40
1.0
 40
1.0
 40
1.0
 10
207.3589316821
 20
122.705206403
 30
0.0
 10
207.1930036095
 20
122.6540615904
 30
0.0
 10
206.8439332407
 20
122.6000559505
 30
0.0
 10
206.4948613222
 20
122.6540510836
 30
0.0
 10
206.3289316335
 20
122.7051906607
 30
0.0
  0
SPLINE
  5
3A4
100
AcDbEntity
  8
0
100
AcDbSpline
 62
7
  6
CONTINUOUS
 70
0
 71
3
 72
9
 73
5
 74
0
 42
0.0000001
 43
0.0000001
 44
0.0000000001
 40
0.0
 40
0.0
 40
0.0
 40
0.0
 40
0.2571856463
 40
1.0
 40
1.0
 40
1.0
 40
1.0
 10
28.8439316579
 20
252.6498905908
 30
0.0
 10
28.8160464044
 20
252.6936926446
 30
0.0
 10
28.7075862595
 20
252.8639482128
 30
0.0
 10
28.5967656575
 20
253.0329691495
 30
0.0
 10
28.507776991
 20
253.1536862556
 30
0.0
  0
SPLINE
  5
3A5
100
AcDbEntity
  8
0
100
AcDbSpline
 62
7
  6
CONTINUOUS
 70
0
 71
3
 72
9
 73
5
 74
0
 42
0.0000001
 43
0.0000001
 44
0.0000000001
 40
0.0
 40
0.0
 40
0.0
 40
0.0
 40
0.2590260665
 40
1.0
 40
1.0
 40
1.0
 40
1.0
 10
28.507776991
 20
253.1536862556
 30
0.0
 10
28.4964775635
 20
253.1690144344
 30
0.0
 10
28.4524183565
 20
253.2278631956
 30
0.0
 10
28.4064294451
 20
253.2853015977
 30
0.0
 10
28.3708087293
 20
253.3265157997
 30
0.0
  0
SPLINE
  5
3A6
100
AcDbEntity
  8
0
100
AcDbSpline
 62
7
  6
CONTINUOUS
 70
0
 71
3
 72
10
 73
6
 74
0
 42
0.0000001
 43
0.0000001
 44
0.0000000001
 40
0.0
 40
0.0
 40
0.0
 40
0.0
 40
0.2991158255
 40
0.6797976067
 40
1.0
 40
1.0
 40
1.0
 40
1.0
 10
28.3708087293
 20
253.3265157997
 30
0.0
 10
28.3294332743
 20
253.374388402
 30
0.0
 10
28.2305292089
 20
253.4789164341
 30
0.0
 10
28.0604451435
 20
253.6090963148
 30
0.0
 10
27.9116672175
 20
253.6498905908
 30
0.0
 10
27.8439316579
 20
253.6498905908
 30
0.0
  0
SPLINE
  5
3A7
100
AcDbEntity
  8
0
100
AcDbSpline
 62
7
  6
CONTINUOUS
 70
0
 71
3
 72
10
 73
6
 74
0
 42
0.0000001
 43
0.0000001
 44
0.0000000001
 40
0.0
 40
0.0
 40
0.0
 40
0.0
 40
0.2098240047
 40
0.5657957044
 40
1.0
 40
1.0
 40
1.0
 40
1.0
 10
225.8439316579
 20
253.6498905908
 30
0.0
 10
225.7995068741
 20
253.6498905908
 30
0.0
 10
225.6791238947
 20
253.628943089
 30
0.0
 10
225.4941844658
 20
253.5167156236
 30
0.0
 10
225.3771684825
 20
253.3960693304
 30
0.0
 10
225.3170545029
 20
253.3265157031
 30
0.0
  0
SPLINE
  5
3A8
100
AcDbEntity
  8
0
100
AcDbSpline
 62
7
  6
CONTINUOUS
 70
0
 71
3
 72
9
 73
5
 74
0
 42
0.0000001
 43
0.0000001
 44
0.0000000001
 40
0.0
 40
0.0
 40
0.0
 40
0.0
 40
0.2406762996
 40
1.0
 40
1.0
 40
1.0
 40
1.0
 10
225.3170545029
 20
253.3265157031
 30
0.0
 10
225.3054842669
 20
253.3131286027
 30
0.0
 10
225.2581039835
 20
253.2569060945
 30
0.0
 10
225.2132106712
 20
253.1986209184
 30
0.0
 10
225.180086189
 20
253.1536860711
 30
0.0
  0
SPLINE
  5
3A9
100
AcDbEntity
  8
0
100
AcDbSpline
 62
7
  6
CONTINUOUS
 70
0
 71
3
 72
9
 73
5
 74
0
 42
0.0000001
 43
0.0000001
 44
0.0000000001
 40
0.0
 40
0.0
 40
0.0
 40
0.0
 40
0.2393448671
 40
1.0
 40
1.0
 40
1.0
 40
1.0
 10
225.180086189
 20
253.1536860711
 30
0.0
 10
225.1514107311
 20
253.1147865251
 30
0.0
 10
225.0346447145
 20
252.9500099518
 30
0.0
 10
224.9264114463
 20
252.7794495394
 30
0.0
 10
224.8439316579
 20
252.6498905908
 30
0.0
  0
SPLINE
  5
3AA
100
AcDbEntity
  8
0
100
AcDbSpline
 62
7
  6
CONTINUOUS
 70
0
 71
3
 72
9
 73
5
 74
0
 42
0.0000001
 43
0.0000001
 44
0.0000000001
 40
0.0
 40
0.0
 40
0.0
 40
0.0
 40
0.2571856463
 40
1.0
 40
1.0
 40
1.0
 40
1.0
 10
224.8439316579
 20
106.6498905908
 30
0.0
 10
224.8718169115
 20
106.606088537
 30
0.0
 10
224.9802770564
 20
106.4358329688
 30
0.0
 10
225.0910976583
 20
106.2668120321
 30
0.0
 10
225.1800863249
 20
106.1460949261
 30
0.0
  0
SPLINE
  5
3AB
100
AcDbEntity
  8
0
100
AcDbSpline
 62
7
  6
CONTINUOUS
 70
0
 71
3
 72
9
 73
5
 74
0
 42
0.0000001
 43
0.0000001
 44
0.0000000001
 40
0.0
 40
0.0
 40
0.0
 40
0.0
 40
0.2590260665
 40
1.0
 40
1.0
 40
1.0
 40
1.0
 10
225.1800863249
 20
106.1460949261
 30
0.0
 10
225.1913857524
 20
106.1307667473
 30
0.0
 10
225.2354449594
 20
106.071917986
 30
0.0
 10
225.2814338708
 20
106.014479584
 30
0.0
 10
225.3170545866
 20
105.9732653819
 30
0.0
  0
SPLINE
  5
3AC
100
AcDbEntity
  8
0
100
AcDbSpline
 62
7
  6
CONTINUOUS
 70
0
 71
3
 72
10
 73
6
 74
0
 42
0.0000001
 43
0.0000001
 44
0.0000000001
 40
0.0
 40
0.0
 40
0.0
 40
0.0
 40
0.2991158255
 40
0.6797976067
 40
1.0
 40
1.0
 40
1.0
 40
1.0
 10
225.3170545866
 20
105.9732653819
 30
0.0
 10
225.3584300415
 20
105.9253927797
 30
0.0
 10
225.4573341069
 20
105.8208647475
 30
0.0
 10
225.6274181723
 20
105.6906848669
 30
0.0
 10
225.7761960984
 20
105.6498905908
 30
0.0
 10
225.8439316579
 20
105.6498905908
 30
0.0
  0
SPLINE
  5
3AD
100
AcDbEntity
  8
0
100
AcDbSpline
 62
7
  6
CONTINUOUS
 70
0
 71
3
 72
10
 73
6
 74
0
 42
0.0000001
 43
0.0000001
 44
0.0000000001
 40
0.0
 40
0.0
 40
0.0
 40
0.0
 40
0.2098240047
 40
0.5657957044
 40
1.0
 40
1.0
 40
1.0
 40
1.0
 10
27.8439316579
 20
105.6498905908
 30
0.0
 10
27.8883564418
 20
105.6498905908
 30
0.0
 10
28.0087394212
 20
105.6708380927
 30
0.0
 10
28.1936788501
 20
105.783065558
 30
0.0
 10
28.3106948333
 20
105.9037118512
 30
0.0
 10
28.370808813
 20
105.9732654785
 30
0.0
  0
SPLINE
  5
3AE
100
AcDbEntity
  8
0
100
AcDbSpline
 62
7
  6
CONTINUOUS
 70
0
 71
3
 72
9
 73
5
 74
0
 42
0.0000001
 43
0.0000001
 44
0.0000000001
 40
0.0
 40
0.0
 40
0.0
 40
0.0
 40
0.2406762996
 40
1.0
 40
1.0
 40
1.0
 40
1.0
 10
28.370808813
 20
105.9732654785
 30
0.0
 10
28.382379049
 20
105.9866525789
 30
0.0
 10
28.4297593323
 20
106.0428750871
 30
0.0
 10
28.4746526446
 20
106.1011602632
 30
0.0
 10
28.5077771269
 20
106.1460951105
 30
0.0
  0
SPLINE
  5
3AF
100
AcDbEntity
  8
0
100
AcDbSpline
 62
7
  6
CONTINUOUS
 70
0
 71
3
 72
9
 73
5
 74
0
 42
0.0000001
 43
0.0000001
 44
0.0000000001
 40
0.0
 40
0.0
 40
0.0
 40
0.0
 40
0.2393448671
 40
1.0
 40
1.0
 40
1.0
 40
1.0
 10
28.5077771269
 20
106.1460951105
 30
0.0
 10
28.5364525848
 20
106.1849946566
 30
0.0
 10
28.6532186013
 20
106.3497712298
 30
0.0
 10
28.7614518696
 20
106.5203316422
 30
0.0
 10
28.8439316579
 20
106.6498905908
 30
0.0
  0
SPLINE
  5
3B0
100
AcDbEntity
  8
0
100
AcDbSpline
 62
7
  6
CONTINUOUS
 70
0
 71
3
 72
10
 73
6
 74
0
 42
0.0000001
 43
0.0000001
 44
0.0000000001
 40
0.0
 40
0.0
 40
0.0
 40
0.0
 40
0.2098240047
 40
0.5657957044
 40
1.0
 40
1.0
 40
1.0
 40
1.0
 10
27.8439316579
 20
253.6498905908
 30
0.0
 10
27.8439316579
 20
253.605465807
 30
0.0
 10
27.8648791598
 20
253.4850828276
 30
0.0
 10
27.9771066251
 20
253.3001433986
 30
0.0
 10
28.0977529183
 20
253.1831274154
 30
0.0
 10
28.1673065456
 20
253.1230134358
 30
0.0
  0
SPLINE
  5
3B1
100
AcDbEntity
  8
0
100
AcDbSpline
 62
7
  6
CONTINUOUS
 70
0
 71
3
 72
9
 73
5
 74
0
 42
0.0000001
 43
0.0000001
 44
0.0000000001
 40
0.0
 40
0.0
 40
0.0
 40
0.0
 40
0.2406762996
 40
1.0
 40
1.0
 40
1.0
 40
1.0
 10
28.1673065456
 20
253.1230134358
 30
0.0
 10
28.180693646
 20
253.1114431998
 30
0.0
 10
28.2369161542
 20
253.0640629164
 30
0.0
 10
28.2952013303
 20
253.0191696041
 30
0.0
 10
28.3401361777
 20
252.9860451218
 30
0.0
  0
SPLINE
  5
3B2
100
AcDbEntity
  8
0
100
AcDbSpline
 62
7
  6
CONTINUOUS
 70
0
 71
3
 72
9
 73
5
 74
0
 42
0.0000001
 43
0.0000001
 44
0.0000000001
 40
0.0
 40
0.0
 40
0.0
 40
0.0
 40
0.2393448671
 40
1.0
 40
1.0
 40
1.0
 40
1.0
 10
28.3401361777
 20
252.9860451218
 30
0.0
 10
28.3790357237
 20
252.957369664
 30
0.0
 10
28.5438122969
 20
252.8406036474
 30
0.0
 10
28.7143727093
 20
252.7323703792
 30
0.0
 10
28.8439316579
 20
252.6498905908
 30
0.0
  0
SPLINE
  5
3B3
100
AcDbEntity
  8
0
100
AcDbSpline
 62
7
  6
CONTINUOUS
 70
0
 71
3
 72
9
 73
5
 74
0
 42
0.0000001
 43
0.0000001
 44
0.0000000001
 40
0.0
 40
0.0
 40
0.0
 40
0.0
 40
0.2571856463
 40
1.0
 40
1.0
 40
1.0
 40
1.0
 10
28.8439316579
 20
106.6498905908
 30
0.0
 10
28.8001296041
 20
106.6220053373
 30
0.0
 10
28.6298740359
 20
106.5135451924
 30
0.0
 10
28.4608530992
 20
106.4027245904
 30
0.0
 10
28.3401359932
 20
106.3137359239
 30
0.0
  0
SPLINE
  5
3B4
100
AcDbEntity
  8
0
100
AcDbSpline
 62
7
  6
CONTINUOUS
 70
0
 71
3
 72
9
 73
5
 74
0
 42
0.0000001
 43
0.0000001
 44
0.0000000001
 40
0.0
 40
0.0
 40
0.0
 40
0.0
 40
0.2590260665
 40
1.0
 40
1.0
 40
1.0
 40
1.0
 10
28.3401359932
 20
106.3137359239
 30
0.0
 10
28.3248078144
 20
106.3024364963
 30
0.0
 10
28.2659590531
 20
106.2583772894
 30
0.0
 10
28.2085206511
 20
106.212388378
 30
0.0
 10
28.167306449
 20
106.1767676621
 30
0.0
  0
SPLINE
  5
3B5
100
AcDbEntity
  8
0
100
AcDbSpline
 62
7
  6
CONTINUOUS
 70
0
 71
3
 72
10
 73
6
 74
0
 42
0.0000001
 43
0.0000001
 44
0.0000000001
 40
0.0
 40
0.0
 40
0.0
 40
0.0
 40
0.2991158255
 40
0.6797976067
 40
1.0
 40
1.0
 40
1.0
 40
1.0
 10
28.167306449
 20
106.1767676621
 30
0.0
 10
28.1194338468
 20
106.1353922072
 30
0.0
 10
28.0149058146
 20
106.0364881418
 30
0.0
 10
27.884725934
 20
105.8664040764
 30
0.0
 10
27.8439316579
 20
105.7176261504
 30
0.0
 10
27.8439316579
 20
105.6498905908
 30
0.0
  0
SPLINE
  5
3B6
100
AcDbEntity
  8
0
100
AcDbSpline
 62
7
  6
CONTINUOUS
 70
0
 71
3
 72
9
 73
5
 74
0
 42
0.0000001
 43
0.0000001
 44
0.0000000001
 40
0.0
 40
0.0
 40
0.0
 40
0.0
 40
0.2571856463
 40
1.0
 40
1.0
 40
1.0
 40
1.0
 10
224.8439316579
 20
252.6498905908
 30
0.0
 10
224.8877337118
 20
252.6777758443
 30
0.0
 10
225.0579892799
 20
252.7862359892
 30
0.0
 10
225.2270102166
 20
252.8970565912
 30
0.0
 10
225.3477273227
 20
252.9860452578
 30
0.0
  0
SPLINE
  5
3B7
100
AcDbEntity
  8
0
100
AcDbSpline
 62
7
  6
CONTINUOUS
 70
0
 71
3
 72
9
 73
5
 74
0
 42
0.0000001
 43
0.0000001
 44
0.0000000001
 40
0.0
 40
0.0
 40
0.0
 40
0.0
 40
0.2590260665
 40
1.0
 40
1.0
 40
1.0
 40
1.0
 10
225.3477273227
 20
252.9860452578
 30
0.0
 10
225.3630555015
 20
252.9973446853
 30
0.0
 10
225.4219042628
 20
253.0414038923
 30
0.0
 10
225.4793426648
 20
253.0873928036
 30
0.0
 10
225.5205568669
 20
253.1230135195
 30
0.0
  0
SPLINE
  5
3B8
100
AcDbEntity
  8
0
100
AcDbSpline
 62
7
  6
CONTINUOUS
 70
0
 71
3
 72
10
 73
6
 74
0
 42
0.0000001
 43
0.0000001
 44
0.0000000001
 40
0.0
 40
0.0
 40
0.0
 40
0.0
 40
0.2991158255
 40
0.6797976067
 40
1.0
 40
1.0
 40
1.0
 40
1.0
 10
225.5205568669
 20
253.1230135195
 30
0.0
 10
225.5684294691
 20
253.1643889744
 30
0.0
 10
225.6729575013
 20
253.2632930398
 30
0.0
 10
225.8031373819
 20
253.4333771052
 30
0.0
 10
225.8439316579
 20
253.5821550312
 30
0.0
 10
225.8439316579
 20
253.6498905908
 30
0.0
  0
SPLINE
  5
3B9
100
AcDbEntity
  8
0
100
AcDbSpline
 62
7
  6
CONTINUOUS
 70
0
 71
3
 72
10
 73
6
 74
0
 42
0.0000001
 43
0.0000001
 44
0.0000000001
 40
0.0
 40
0.0
 40
0.0
 40
0.0
 40
0.2098240047
 40
0.5657957044
 40
1.0
 40
1.0
 40
1.0
 40
1.0
 10
225.8439316579
 20
105.6498905908
 30
0.0
 10
225.8439316579
 20
105.6943153747
 30
0.0
 10
225.8229841561
 20
105.814698354
 30
0.0
 10
225.7107566907
 20
105.999637783
 30
0.0
 10
225.5901103976
 20
106.1166537662
 30
0.0
 10
225.5205567703
 20
106.1767677458
 30
0.0
  0
SPLINE
  5
3BA
100
AcDbEntity
  8
0
100
AcDbSpline
 62
7
  6
CONTINUOUS
 70
0
 71
3
 72
9
 73
5
 74
0
 42
0.0000001
 43
0.0000001
 44
0.0000000001
 40
0.0
 40
0.0
 40
0.0
 40
0.0
 40
0.2406762996
 40
1.0
 40
1.0
 40
1.0
 40
1.0
 10
225.5205567703
 20
106.1767677458
 30
0.0
 10
225.5071696698
 20
106.1883379818
 30
0.0
 10
225.4509471616
 20
106.2357182652
 30
0.0
 10
225.3926619855
 20
106.2806115775
 30
0.0
 10
225.3477271382
 20
106.3137360598
 30
0.0
  0
SPLINE
  5
3BB
100
AcDbEntity
  8
0
100
AcDbSpline
 62
7
  6
CONTINUOUS
 70
0
 71
3
 72
9
 73
5
 74
0
 42
0.0000001
 43
0.0000001
 44
0.0000000001
 40
0.0
 40
0.0
 40
0.0
 40
0.0
 40
0.2393448671
 40
1.0
 40
1.0
 40
1.0
 40
1.0
 10
225.3477271382
 20
106.3137360598
 30
0.0
 10
225.3088275922
 20
106.3424115176
 30
0.0
 10
225.1440510189
 20
106.4591775342
 30
0.0
 10
224.9734906065
 20
106.5674108024
 30
0.0
 10
224.8439316579
 20
106.6498905908
 30
0.0
  0
SPLINE
  5
3BC
100
AcDbEntity
  8
0
100
AcDbSpline
 62
7
  6
CONTINUOUS
 70
0
 71
3
 72
9
 73
5
 74
0
 42
0.0000001
 43
0.0000001
 44
0.0000000001
 40
0.0
 40
0.0
 40
0.0
 40
0.0
 40
0.2579817879
 40
1.0
 40
1.0
 40
1.0
 40
1.0
 10
28.8439316579
 20
106.6498905908
 30
0.0
 10
28.8184267607
 20
106.5697645929
 30
0.0
 10
28.7195110123
 20
106.2592081869
 30
0.0
 10
28.6184478793
 20
105.9492226159
 30
0.0
 10
28.5366587621
 20
105.7216163281
 30
0.0
  0
SPLINE
  5
3BD
100
AcDbEntity
  8
0
100
AcDbSpline
 62
7
  6
CONTINUOUS
 70
0
 71
3
 72
9
 73
5
 74
0
 42
0.0000001
 43
0.0000001
 44
0.0000000001
 40
0.0
 40
0.0
 40
0.0
 40
0.0
 40
0.2573113643
 40
1.0
 40
1.0
 40
1.0
 40
1.0
 10
28.5366587621
 20
105.7216163281
 30
0.0
 10
28.5289979433
 20
105.7002974705
 30
0.0
 10
28.4989756716
 20
105.6175355885
 30
0.0
 10
28.4678744943
 20
105.5351608227
 30
0.0
 10
28.4439307022
 20
105.4743167778
 30
0.0
  0
SPLINE
  5
3BE
100
AcDbEntity
  8
0
100
AcDbSpline
 62
7
  6
CONTINUOUS
 70
0
 71
3
 72
10
 73
6
 74
0
 42
0.0000001
 43
0.0000001
 44
0.0000000001
 40
0.0
 40
0.0
 40
0.0
 40
0.0
 40
0.3589947278
 40
0.6462600819
 40
1.0
 40
1.0
 40
1.0
 40
1.0
 10
28.4439307022
 20
105.4743167778
 30
0.0
 10
28.3979870208
 20
105.3575683777
 30
0.0
 10
28.3075086124
 20
105.1464250405
 30
0.0
 10
28.1497570619
 20
104.8503969944
 30
0.0
 10
27.967558367
 20
104.6498905908
 30
0.0
 10
27.8439316579
 20
104.6498905908
 30
0.0
  0
SPLINE
  5
3BF
100
AcDbEntity
  8
0
100
AcDbSpline
 62
7
  6
CONTINUOUS
 70
0
 71
3
 72
10
 73
6
 74
0
 42
0.0000001
 43
0.0000001
 44
0.0000000001
 40
0.0
 40
0.0
 40
0.0
 40
0.0
 40
0.3537398202
 40
0.641005224
 40
1.0
 40
1.0
 40
1.0
 40
1.0
 10
225.8439316579
 20
104.6498905908
 30
0.0
 10
225.7203047137
 20
104.6498905908
 30
0.0
 10
225.5381057795
 20
104.8503976508
 30
0.0
 10
225.3803540506
 20
105.1464263823
 30
0.0
 10
225.2898755113
 20
105.3575702561
 30
0.0
 10
225.2439317623
 20
105.4743189415
 30
0.0
  0
SPLINE
  5
3C0
100
AcDbEntity
  8
0
100
AcDbSpline
 62
7
  6
CONTINUOUS
 70
0
 71
3
 72
9
 73
5
 74
0
 42
0.0000001
 43
0.0000001
 44
0.0000000001
 40
0.0
 40
0.0
 40
0.0
 40
0.0
 40
0.2424200119
 40
1.0
 40
1.0
 40
1.0
 40
1.0
 10
225.2439317623
 20
105.4743189415
 30
0.0
 10
225.2361163492
 20
105.4941788618
 30
0.0
 10
225.2042547265
 20
105.5762510069
 30
0.0
 10
225.1737594478
 20
105.6588495901
 30
0.0
 10
225.1512044717
 20
105.721616556
 30
0.0
  0
SPLINE
  5
3C1
100
AcDbEntity
  8
0
100
AcDbSpline
 62
7
  6
CONTINUOUS
 70
0
 71
3
 72
9
 73
5
 74
0
 42
0.0000001
 43
0.0000001
 44
0.0000000001
 40
0.0
 40
0.0
 40
0.0
 40
0.0
 40
0.2382909775
 40
1.0
 40
1.0
 40
1.0
 40
1.0
 10
225.1512044717
 20
105.721616556
 30
0.0
 10
225.1249382464
 20
105.7947113472
 30
0.0
 10
225.0178613781
 20
106.1025925674
 30
0.0
 10
224.9192382106
 20
106.4133080783
 30
0.0
 10
224.8439316579
 20
106.6498905908
 30
0.0
  0
SPLINE
  5
3C2
100
AcDbEntity
  8
0
100
AcDbSpline
 62
7
  6
CONTINUOUS
 70
0
 71
3
 72
9
 73
5
 74
0
 42
0.0000001
 43
0.0000001
 44
0.0000000001
 40
0.0
 40
0.0
 40
0.0
 40
0.0
 40
0.2579817879
 40
1.0
 40
1.0
 40
1.0
 40
1.0
 10
28.8439316579
 20
252.6498905908
 30
0.0
 10
28.76380566
 20
252.6753954881
 30
0.0
 10
28.453249254
 20
252.7743112365
 30
0.0
 10
28.143263683
 20
252.8753743694
 30
0.0
 10
27.9156573952
 20
252.9571634866
 30
0.0
  0
SPLINE
  5
3C3
100
AcDbEntity
  8
0
100
AcDbSpline
 62
7
  6
CONTINUOUS
 70
0
 71
3
 72
9
 73
5
 74
0
 42
0.0000001
 43
0.0000001
 44
0.0000000001
 40
0.0
 40
0.0
 40
0.0
 40
0.0
 40
0.2573113643
 40
1.0
 40
1.0
 40
1.0
 40
1.0
 10
27.9156573952
 20
252.9571634866
 30
0.0
 10
27.8943385376
 20
252.9648243055
 30
0.0
 10
27.8115766556
 20
252.9948465772
 30
0.0
 10
27.7292018898
 20
253.0259477544
 30
0.0
 10
27.6683578449
 20
253.0498915465
 30
0.0
  0
SPLINE
  5
3C4
100
AcDbEntity
  8
0
100
AcDbSpline
 62
7
  6
CONTINUOUS
 70
0
 71
3
 72
10
 73
6
 74
0
 42
0.0000001
 43
0.0000001
 44
0.0000000001
 40
0.0
 40
0.0
 40
0.0
 40
0.0
 40
0.3589947278
 40
0.6462600819
 40
1.0
 40
1.0
 40
1.0
 40
1.0
 10
27.6683578449
 20
253.0498915465
 30
0.0
 10
27.5516094448
 20
253.0958352279
 30
0.0
 10
27.3404661077
 20
253.1863136363
 30
0.0
 10
27.0444380615
 20
253.3440651869
 30
0.0
 10
26.8439316579
 20
253.5262638817
 30
0.0
 10
26.8439316579
 20
253.6498905908
 30
0.0
  0
SPLINE
  5
3C5
100
AcDbEntity
  8
0
100
AcDbSpline
 62
7
  6
CONTINUOUS
 70
0
 71
3
 72
10
 73
6
 74
0
 42
0.0000001
 43
0.0000001
 44
0.0000000001
 40
0.0
 40
0.0
 40
0.0
 40
0.0
 40
0.3537398202
 40
0.641005224
 40
1.0
 40
1.0
 40
1.0
 40
1.0
 10
26.8439316579
 20
105.6498905908
 30
0.0
 10
26.8439316579
 20
105.7735175351
 30
0.0
 10
27.0444387179
 20
105.9557164693
 30
0.0
 10
27.3404674495
 20
106.1134681981
 30
0.0
 10
27.5516113233
 20
106.2039467374
 30
0.0
 10
27.6683600087
 20
106.2498904865
 30
0.0
  0
SPLINE
  5
3C6
100
AcDbEntity
  8
0
100
AcDbSpline
 62
7
  6
CONTINUOUS
 70
0
 71
3
 72
9
 73
5
 74
0
 42
0.0000001
 43
0.0000001
 44
0.0000000001
 40
0.0
 40
0.0
 40
0.0
 40
0.0
 40
0.2424200119
 40
1.0
 40
1.0
 40
1.0
 40
1.0
 10
27.6683600087
 20
106.2498904865
 30
0.0
 10
27.688219929
 20
106.2577058995
 30
0.0
 10
27.770292074
 20
106.2895675222
 30
0.0
 10
27.8528906573
 20
106.320062801
 30
0.0
 10
27.9156576231
 20
106.3426177771
 30
0.0
  0
SPLINE
  5
3C7
100
AcDbEntity
  8
0
100
AcDbSpline
 62
7
  6
CONTINUOUS
 70
0
 71
3
 72
9
 73
5
 74
0
 42
0.0000001
 43
0.0000001
 44
0.0000000001
 40
0.0
 40
0.0
 40
0.0
 40
0.0
 40
0.2382909775
 40
1.0
 40
1.0
 40
1.0
 40
1.0
 10
27.9156576231
 20
106.3426177771
 30
0.0
 10
27.9887524143
 20
106.3688840023
 30
0.0
 10
28.2966336345
 20
106.4759608706
 30
0.0
 10
28.6073491454
 20
106.5745840382
 30
0.0
 10
28.8439316579
 20
106.6498905908
 30
0.0
  0
SPLINE
  5
3C8
100
AcDbEntity
  8
0
100
AcDbSpline
 62
7
  6
CONTINUOUS
 70
0
 71
3
 72
9
 73
5
 74
0
 42
0.0000001
 43
0.0000001
 44
0.0000000001
 40
0.0
 40
0.0
 40
0.0
 40
0.0
 40
0.2579817879
 40
1.0
 40
1.0
 40
1.0
 40
1.0
 10
224.8439316579
 20
252.6498905908
 30
0.0
 10
224.8694365552
 20
252.7300165888
 30
0.0
 10
224.9683523036
 20
253.0405729947
 30
0.0
 10
225.0694154365
 20
253.3505585658
 30
0.0
 10
225.1512045537
 20
253.5781648536
 30
0.0
  0
SPLINE
  5
3C9
100
AcDbEntity
  8
0
100
AcDbSpline
 62
7
  6
CONTINUOUS
 70
0
 71
3
 72
9
 73
5
 74
0
 42
0.0000001
 43
0.0000001
 44
0.0000000001
 40
0.0
 40
0.0
 40
0.0
 40
0.0
 40
0.2573113643
 40
1.0
 40
1.0
 40
1.0
 40
1.0
 10
225.1512045537
 20
253.5781648536
 30
0.0
 10
225.1588653726
 20
253.5994837112
 30
0.0
 10
225.1888876443
 20
253.6822455931
 30
0.0
 10
225.2199888216
 20
253.7646203589
 30
0.0
 10
225.2439326136
 20
253.8254644038
 30
0.0
  0
SPLINE
  5
3CA
100
AcDbEntity
  8
0
100
AcDbSpline
 62
7
  6
CONTINUOUS
 70
0
 71
3
 72
10
 73
6
 74
0
 42
0.0000001
 43
0.0000001
 44
0.0000000001
 40
0.0
 40
0.0
 40
0.0
 40
0.0
 40
0.3589947278
 40
0.6462600819
 40
1.0
 40
1.0
 40
1.0
 40
1.0
 10
225.2439326136
 20
253.8254644038
 30
0.0
 10
225.289876295
 20
253.9422128039
 30
0.0
 10
225.3803547035
 20
254.1533561411
 30
0.0
 10
225.538106254
 20
254.4493841873
 30
0.0
 10
225.7203049489
 20
254.6498905908
 30
0.0
 10
225.8439316579
 20
254.6498905908
 30
0.0
  0
SPLINE
  5
3CB
100
AcDbEntity
  8
0
100
AcDbSpline
 62
7
  6
CONTINUOUS
 70
0
 71
3
 72
9
 73
5
 74
0
 42
0.0000001
 43
0.0000001
 44
0.0000000001
 40
0.0
 40
0.0
 40
0.0
 40
0.0
 40
0.2579817879
 40
1.0
 40
1.0
 40
1.0
 40
1.0
 10
224.8439316579
 20
106.6498905908
 30
0.0
 10
224.9240576559
 20
106.6243856935
 30
0.0
 10
225.2346140618
 20
106.5254699452
 30
0.0
 10
225.5445996329
 20
106.4244068122
 30
0.0
 10
225.7722059207
 20
106.342617695
 30
0.0
  0
SPLINE
  5
3CC
100
AcDbEntity
  8
0
100
AcDbSpline
 62
7
  6
CONTINUOUS
 70
0
 71
3
 72
9
 73
5
 74
0
 42
0.0000001
 43
0.0000001
 44
0.0000000001
 40
0.0
 40
0.0
 40
0.0
 40
0.0
 40
0.2573113643
 40
1.0
 40
1.0
 40
1.0
 40
1.0
 10
225.7722059207
 20
106.342617695
 30
0.0
 10
225.7935247783
 20
106.3349568762
 30
0.0
 10
225.8762866603
 20
106.3049346044
 30
0.0
 10
225.958661426
 20
106.2738334272
 30
0.0
 10
226.019505471
 20
106.2498896351
 30
0.0
  0
SPLINE
  5
3CD
100
AcDbEntity
  8
0
100
AcDbSpline
 62
7
  6
CONTINUOUS
 70
0
 71
3
 72
10
 73
6
 74
0
 42
0.0000001
 43
0.0000001
 44
0.0000000001
 40
0.0
 40
0.0
 40
0.0
 40
0.0
 40
0.3589947278
 40
0.6462600819
 40
1.0
 40
1.0
 40
1.0
 40
1.0
 10
226.019505471
 20
106.2498896351
 30
0.0
 10
226.1362538711
 20
106.2039459537
 30
0.0
 10
226.3473972082
 20
106.1134675453
 30
0.0
 10
226.6434252544
 20
105.9557159947
 30
0.0
 10
226.8439316579
 20
105.7735172999
 30
0.0
 10
226.8439316579
 20
105.6498905908
 30
0.0
  0
SPLINE
  5
3CE
100
AcDbEntity
  8
0
100
AcDbSpline
 62
7
  6
CONTINUOUS
 70
0
 71
3
 72
10
 73
6
 74
0
 42
0.0000001
 43
0.0000001
 44
0.0000000001
 40
0.0
 40
0.0
 40
0.0
 40
0.0
 40
0.3537398202
 40
0.641005224
 40
1.0
 40
1.0
 40
1.0
 40
1.0
 10
226.8439316579
 20
253.6498905908
 30
0.0
 10
226.8439316579
 20
253.5262636465
 30
0.0
 10
226.643424598
 20
253.3440647123
 30
0.0
 10
226.3473958664
 20
253.1863129835
 30
0.0
 10
226.1362519926
 20
253.0958344442
 30
0.0
 10
226.0195033072
 20
253.0498906951
 30
0.0
  0
SPLINE
  5
3CF
100
AcDbEntity
  8
0
100
AcDbSpline
 62
7
  6
CONTINUOUS
 70
0
 71
3
 72
9
 73
5
 74
0
 42
0.0000001
 43
0.0000001
 44
0.0000000001
 40
0.0
 40
0.0
 40
0.0
 40
0.0
 40
0.2424200119
 40
1.0
 40
1.0
 40
1.0
 40
1.0
 10
226.0195033072
 20
253.0498906951
 30
0.0
 10
225.9996433869
 20
253.0420752821
 30
0.0
 10
225.9175712418
 20
253.0102136594
 30
0.0
 10
225.8349726586
 20
252.9797183806
 30
0.0
 10
225.7722056927
 20
252.9571634046
 30
0.0
  0
SPLINE
  5
3D0
100
AcDbEntity
  8
0
100
AcDbSpline
 62
7
  6
CONTINUOUS
 70
0
 71
3
 72
9
 73
5
 74
0
 42
0.0000001
 43
0.0000001
 44
0.0000000001
 40
0.0
 40
0.0
 40
0.0
 40
0.0
 40
0.2382909775
 40
1.0
 40
1.0
 40
1.0
 40
1.0
 10
225.7722056927
 20
252.9571634046
 30
0.0
 10
225.6991109016
 20
252.9308971793
 30
0.0
 10
225.3912296814
 20
252.823820311
 30
0.0
 10
225.0805141705
 20
252.7251971434
 30
0.0
 10
224.8439316579
 20
252.6498905908
 30
0.0
  0
SPLINE
  5
3D1
100
AcDbEntity
  8
0
100
AcDbSpline
 62
7
  6
CONTINUOUS
 70
0
 71
3
 72
10
 73
6
 74
0
 42
0.0000001
 43
0.0000001
 44
0.0000000001
 40
0.0
 40
0.0
 40
0.0
 40
0.0
 40
0.3537398202
 40
0.641005224
 40
1.0
 40
1.0
 40
1.0
 40
1.0
 10
27.8439316579
 20
254.6498905908
 30
0.0
 10
27.9675586022
 20
254.6498905908
 30
0.0
 10
28.1497575364
 20
254.4493835309
 30
0.0
 10
28.3075092653
 20
254.1533547993
 30
0.0
 10
28.3979878046
 20
253.9422109255
 30
0.0
 10
28.4439315536
 20
253.8254622401
 30
0.0
  0
SPLINE
  5
3D2
100
AcDbEntity
  8
0
100
AcDbSpline
 62
7
  6
CONTINUOUS
 70
0
 71
3
 72
9
 73
5
 74
0
 42
0.0000001
 43
0.0000001
 44
0.0000000001
 40
0.0
 40
0.0
 40
0.0
 40
0.0
 40
0.2424200119
 40
1.0
 40
1.0
 40
1.0
 40
1.0
 10
28.4439315536
 20
253.8254622401
 30
0.0
 10
28.4517469666
 20
253.8056023198
 30
0.0
 10
28.4836085894
 20
253.7235301747
 30
0.0
 10
28.5141038681
 20
253.6409315915
 30
0.0
 10
28.5366588442
 20
253.5781646256
 30
0.0
  0
SPLINE
  5
3D3
100
AcDbEntity
  8
0
100
AcDbSpline
 62
7
  6
CONTINUOUS
 70
0
 71
3
 72
9
 73
5
 74
0
 42
0.0000001
 43
0.0000001
 44
0.0000000001
 40
0.0
 40
0.0
 40
0.0
 40
0.0
 40
0.2382909775
 40
1.0
 40
1.0
 40
1.0
 40
1.0
 10
28.5366588442
 20
253.5781646256
 30
0.0
 10
28.5629250695
 20
253.5050698344
 30
0.0
 10
28.6700019378
 20
253.1971886142
 30
0.0
 10
28.7686251053
 20
252.8864731033
 30
0.0
 10
28.8439316579
 20
252.6498905908
 30
0.0
  0
SPLINE
  5
3D4
100
AcDbEntity
  8
0
100
AcDbSpline
 62
7
  6
CONTINUOUS
 70
0
 71
3
 72
9
 73
5
 74
0
 42
0.0000001
 43
0.0000001
 44
0.0000000001
 40
0.0
 40
0.0
 40
0.0
 40
0.0
 40
0.4885539906
 40
1.0
 40
1.0
 40
1.0
 40
1.0
 10
221.3080332731
 20
252.6498905908
 30
0.0
 10
221.1327565906
 20
252.6498905908
 30
0.0
 10
220.7729681821
 20
252.6063611857
 30
0.0
 10
220.4319013808
 20
252.488362258
 30
0.0
 10
220.2633105389
 20
252.4159360963
 30
0.0
  0
SPLINE
  5
3D5
100
AcDbEntity
  8
0
100
AcDbSpline
 62
7
  6
CONTINUOUS
 70
0
 71
3
 72
9
 73
5
 74
0
 42
0.0000001
 43
0.0000001
 44
0.0000000001
 40
0.0
 40
0.0
 40
0.0
 40
0.0
 40
0.5114460094
 40
1.0
 40
1.0
 40
1.0
 40
1.0
 10
33.424552777
 20
252.4159360963
 30
0.0
 10
33.2559619351
 20
252.488362258
 30
0.0
 10
32.9148951337
 20
252.6063611857
 30
0.0
 10
32.5551067252
 20
252.6498905908
 30
0.0
 10
32.3798300428
 20
252.6498905908
 30
0.0
  0
SPLINE
  5
3D6
100
AcDbEntity
  8
0
100
AcDbSpline
 62
7
  6
CONTINUOUS
 70
0
 71
3
 72
9
 73
5
 74
0
 42
0.0000001
 43
0.0000001
 44
0.0000000001
 40
0.0
 40
0.0
 40
0.0
 40
0.0
 40
0.4885539906
 40
1.0
 40
1.0
 40
1.0
 40
1.0
 10
32.3798300428
 20
106.6498905908
 30
0.0
 10
32.5551067252
 20
106.6498905908
 30
0.0
 10
32.9148951337
 20
106.6934199959
 30
0.0
 10
33.2559619351
 20
106.8114189237
 30
0.0
 10
33.424552777
 20
106.8838450853
 30
0.0
  0
SPLINE
  5
3D7
100
AcDbEntity
  8
0
100
AcDbSpline
 62
7
  6
CONTINUOUS
 70
0
 71
3
 72
9
 73
5
 74
0
 42
0.0000001
 43
0.0000001
 44
0.0000000001
 40
0.0
 40
0.0
 40
0.0
 40
0.0
 40
0.5114460094
 40
1.0
 40
1.0
 40
1.0
 40
1.0
 10
220.2633105389
 20
106.8838450853
 30
0.0
 10
220.4319013808
 20
106.8114189237
 30
0.0
 10
220.7729681821
 20
106.6934199959
 30
0.0
 10
221.1327565906
 20
106.6498905908
 30
0.0
 10
221.3080332731
 20
106.6498905908
 30
0.0
  0
SPLINE
  5
3D8
100
AcDbEntity
  8
0
100
AcDbSpline
 62
7
  6
CONTINUOUS
 70
0
 71
3
 72
10
 73
6
 74
0
 42
0.0000001
 43
0.0000001
 44
0.0000000001
 40
0.0
 40
0.0
 40
0.0
 40
0.0
 40
0.2081856391
 40
0.5651070947
 40
1.0
 40
1.0
 40
1.0
 40
1.0
 10
32.3798300428
 20
253.6498905908
 30
0.0
 10
32.5123427841
 20
253.6498905908
 30
0.0
 10
32.8739117524
 20
253.5817681202
 30
0.0
 10
33.4188850109
 20
253.2262728869
 30
0.0
 10
33.7659414629
 20
252.8593548652
 30
0.0
 10
33.9469141441
 20
252.6498905908
 30
0.0
  0
SPLINE
  5
3D9
100
AcDbEntity
  8
0
100
AcDbSpline
 62
7
  6
CONTINUOUS
 70
0
 71
3
 72
12
 73
8
 74
0
 42
0.0000001
 43
0.0000001
 44
0.0000000001
 40
0.0
 40
0.0
 40
0.0
 40
0.0
 40
0.2978197509
 40
0.4991269745
 40
0.6804919649
 40
0.8452597691
 40
1.0
 40
1.0
 40
1.0
 40
1.0
 10
219.7409491718
 20
252.6498905908
 30
0.0
 10
219.865146474
 20
252.7936410045
 30
0.0
 10
220.0818399966
 20
253.0278146667
 30
0.0
 10
220.411166375
 20
253.311935805
 30
0.0
 10
220.7058651898
 20
253.5022449682
 30
0.0
 10
221.0047504057
 20
253.6217736333
 30
0.0
 10
221.2093285171
 20
253.6498905908
 30
0.0
 10
221.3080332731
 20
253.6498905908
 30
0.0
  0
SPLINE
  5
3DA
100
AcDbEntity
  8
0
100
AcDbSpline
 62
7
  6
CONTINUOUS
 70
0
 71
3
 72
9
 73
5
 74
0
 42
0.0000001
 43
0.0000001
 44
0.0000000001
 40
0.0
 40
0.0
 40
0.0
 40
0.0
 40
0.2592997438
 40
1.0
 40
1.0
 40
1.0
 40
1.0
 10
219.3080332731
 20
251.6498905908
 30
0.0
 10
219.3440177433
 20
251.7369348624
 30
0.0
 10
219.4828720961
 20
252.0725561004
 30
0.0
 10
219.6250423406
 20
252.4070816096
 30
0.0
 10
219.7409491718
 20
252.6498905908
 30
0.0
  0
SPLINE
  5
3DB
100
AcDbEntity
  8
0
100
AcDbSpline
 62
7
  6
CONTINUOUS
 70
0
 71
3
 72
9
 73
5
 74
0
 42
0.0000001
 43
0.0000001
 44
0.0000000001
 40
0.0
 40
0.0
 40
0.0
 40
0.0
 40
0.2370807929
 40
1.0
 40
1.0
 40
1.0
 40
1.0
 10
33.9469141441
 20
252.6498905908
 30
0.0
 10
33.9840148538
 20
252.5721696711
 30
0.0
 10
34.1355572064
 20
252.2419767521
 30
0.0
 10
34.2739507865
 20
251.9060061511
 30
0.0
 10
34.3798300428
 20
251.6498905908
 30
0.0
  0
SPLINE
  5
3DC
100
AcDbEntity
  8
0
100
AcDbSpline
 62
7
  6
CONTINUOUS
 70
0
 71
3
 72
9
 73
5
 74
0
 42
0.0000001
 43
0.0000001
 44
0.0000000001
 40
0.0
 40
0.0
 40
0.0
 40
0.0
 40
0.2573362043
 40
1.0
 40
1.0
 40
1.0
 40
1.0
 10
219.3080332731
 20
107.6498905908
 30
0.0
 10
219.3951221152
 20
107.5905555411
 30
0.0
 10
219.7334390345
 20
107.3599291767
 30
0.0
 10
220.0690101901
 20
107.1244611673
 30
0.0
 10
220.3080332731
 20
106.9364178059
 30
0.0
  0
SPLINE
  5
3DD
100
AcDbEntity
  8
0
100
AcDbSpline
 62
7
  6
CONTINUOUS
 70
0
 71
3
 72
9
 73
5
 74
0
 42
0.0000001
 43
0.0000001
 44
0.0000000001
 40
0.0
 40
0.0
 40
0.0
 40
0.0
 40
0.2398729549
 40
1.0
 40
1.0
 40
1.0
 40
1.0
 10
220.3080332731
 20
252.3633633757
 30
0.0
 10
220.23082556
 20
252.3026228075
 30
0.0
 10
219.9041892411
 20
252.0554392349
 30
0.0
 10
219.5652976318
 20
251.8251689977
 30
0.0
 10
219.3080332731
 20
251.6498905908
 30
0.0
  0
SPLINE
  5
3DE
100
AcDbEntity
  8
0
100
AcDbSpline
 62
7
  6
CONTINUOUS
 70
0
 71
3
 72
9
 73
5
 74
0
 42
0.0000001
 43
0.0000001
 44
0.0000000001
 40
0.0
 40
0.0
 40
0.0
 40
0.0
 40
0.2398729549
 40
1.0
 40
1.0
 40
1.0
 40
1.0
 10
33.3798300428
 20
106.9364178059
 30
0.0
 10
33.4570377559
 20
106.9971583742
 30
0.0
 10
33.7836740748
 20
107.2443419467
 30
0.0
 10
34.122565684
 20
107.4746121839
 30
0.0
 10
34.3798300428
 20
107.6498905908
 30
0.0
  0
SPLINE
  5
3DF
100
AcDbEntity
  8
0
100
AcDbSpline
 62
7
  6
CONTINUOUS
 70
0
 71
3
 72
10
 73
6
 74
0
 42
0.0000001
 43
0.0000001
 44
0.0000000001
 40
0.0
 40
0.0
 40
0.0
 40
0.0
 40
0.2081856391
 40
0.5651070947
 40
1.0
 40
1.0
 40
1.0
 40
1.0
 10
221.3080332731
 20
105.6498905908
 30
0.0
 10
221.1755205318
 20
105.6498905908
 30
0.0
 10
220.8139515634
 20
105.7180130614
 30
0.0
 10
220.2689783049
 20
106.0735082947
 30
0.0
 10
219.921921853
 20
106.4404263164
 30
0.0
 10
219.7409491718
 20
106.6498905908
 30
0.0
  0
SPLINE
  5
3E0
100
AcDbEntity
  8
0
100
AcDbSpline
 62
7
  6
CONTINUOUS
 70
0
 71
3
 72
12
 73
8
 74
0
 42
0.0000001
 43
0.0000001
 44
0.0000000001
 40
0.0
 40
0.0
 40
0.0
 40
0.0
 40
0.2978197509
 40
0.4991269745
 40
0.6804919649
 40
0.8452597691
 40
1.0
 40
1.0
 40
1.0
 40
1.0
 10
33.9469141441
 20
106.6498905908
 30
0.0
 10
33.8227168418
 20
106.5061401771
 30
0.0
 10
33.6060233193
 20
106.2719665149
 30
0.0
 10
33.2766969409
 20
105.9878453766
 30
0.0
 10
32.9819981261
 20
105.7975362135
 30
0.0
 10
32.6831129102
 20
105.6780075483
 30
0.0
 10
32.4785347988
 20
105.6498905908
 30
0.0
 10
32.3798300428
 20
105.6498905908
 30
0.0
  0
SPLINE
  5
3E1
100
AcDbEntity
  8
0
100
AcDbSpline
 62
7
  6
CONTINUOUS
 70
0
 71
3
 72
9
 73
5
 74
0
 42
0.0000001
 43
0.0000001
 44
0.0000000001
 40
0.0
 40
0.0
 40
0.0
 40
0.0
 40
0.2592997438
 40
1.0
 40
1.0
 40
1.0
 40
1.0
 10
34.3798300428
 20
107.6498905908
 30
0.0
 10
34.3438455726
 20
107.5628463192
 30
0.0
 10
34.2049912198
 20
107.2272250812
 30
0.0
 10
34.0628209752
 20
106.892699572
 30
0.0
 10
33.9469141441
 20
106.6498905908
 30
0.0
  0
SPLINE
  5
3E2
100
AcDbEntity
  8
0
100
AcDbSpline
 62
7
  6
CONTINUOUS
 70
0
 71
3
 72
9
 73
5
 74
0
 42
0.0000001
 43
0.0000001
 44
0.0000000001
 40
0.0
 40
0.0
 40
0.0
 40
0.0
 40
0.2370807929
 40
1.0
 40
1.0
 40
1.0
 40
1.0
 10
219.7409491718
 20
106.6498905908
 30
0.0
 10
219.7038484621
 20
106.7276115106
 30
0.0
 10
219.5523061095
 20
107.0578044295
 30
0.0
 10
219.4139125294
 20
107.3937750305
 30
0.0
 10
219.3080332731
 20
107.6498905908
 30
0.0
  0
SPLINE
  5
3E3
100
AcDbEntity
  8
0
100
AcDbSpline
 62
7
  6
CONTINUOUS
 70
0
 71
3
 72
9
 73
5
 74
0
 42
0.0000001
 43
0.0000001
 44
0.0000000001
 40
0.0
 40
0.0
 40
0.0
 40
0.0
 40
0.2573362043
 40
1.0
 40
1.0
 40
1.0
 40
1.0
 10
34.3798300428
 20
251.6498905908
 30
0.0
 10
34.2927412006
 20
251.7092256405
 30
0.0
 10
33.9544242814
 20
251.9398520049
 30
0.0
 10
33.6188531258
 20
252.1753200144
 30
0.0
 10
33.3798300428
 20
252.3633633757
 30
0.0
  0
ENDSEC
  0
SECTION
  2
OBJECTS
  0
DICTIONARY
  5
C
100
AcDbDictionary
280
0
281
1
  3
ACAD_GROUP
350
D
  3
ACAD_MLINESTYLE
350
17
  3
ACAD_LAYOUT
350
1A
  3
ACAD_PLOTSETTINGS
350
19
  3
ACAD_PLOTSTYLENAME
350
E
  0
DICTIONARY
  5
D
102
{ACAD_REACTORS
330
C
102
}
100
AcDbDictionary
280
0
281
1
  0
ACDBDICTIONARYWDFLT
  5
E
102
{ACAD_REACTORS
330
C
102
}
100
AcDbDictionary
281
1
  3
Normal
350
F
100
AcDbDictionaryWithDefault
340
F
  0
DICTIONARY
  5
17
102
{ACAD_REACTORS
330
C
102
}
100
AcDbDictionary
280
0
281
1
  3
Standard
350
18
  0
DICTIONARY
  5
19
102
{ACAD_REACTORS
330
C
102
}
100
AcDbDictionary
281
1
  0
DICTIONARY
  5
1A
102
{ACAD_REACTORS
330
C
102
}
100
AcDbDictionary
281
1
  3
Model
350
3E4
  3
Layout1
350
3E5
  0
ACDBPLACEHOLDER
  5
F
102
{ACAD_REACTORS
330
E
102
}
  0
MLINESTYLE
  5
18
102
{ACAD_REACTORS
330
17
102
}
100
AcDbMlineStyle
  2
STANDARD
 70
0
  3

 62
256
 51
90.0
 52
90.0
 71
2
 49
0.5
 62
256
  6
BYLAYER
 49
-0.5
 62
256
  6
BYLAYER
  0
LAYOUT
  5
3E4
102
{ACAD_REACTORS
330
1A
102
}
100
AcDbPlotSettings
  1

  2
none_device
  4

  6

 40
0.0
 41
0.0
 42
0.0
 43
0.0
 44
210.0
 45
297.0
 46
0.0
 47
0.0
 48
0.0
 49
0.0
140
0.0
141
0.0
142
1.0
143
1.0
 70
1024
 72
1
 73
0
 74
0
  7

 75
0
147
1.0
148
0.0
149
0.0
100
AcDbLayout
  1
Model
 70
0
 71
0
 10
0.0
 20
0.0
 11
210.0
 21
297.0
 12
0.0
 22
0.0
 32
0.0
 14
0.0
 24
0.0
 34
0.0
 15
0.0
 25
0.0
 35
0.0
146
0.0
 13
0.0
 23
0.0
 33
0.0
 16
1.0
 26
0.0
 36
0.0
 17
0.0
 27
1.0
 37
0.0
 76
0
330
210
345
0
346
0
  0
LAYOUT
  5
3E5
102
{ACAD_REACTORS
330
1A
102
}
100
AcDbPlotSettings
  1

  2
none_device
  4

  6

 40
0.0
 41
0.0
 42
0.0
 43
0.0
 44
210.0
 45
297.0
 46
0.0
 47
0.0
 48
0.0
 49
0.0
140
0.0
141
0.0
142
1.0
143
1.0
 70
0
 72
1
 73
0
 74
0
  7

 75
0
147
1.0
148
0.0
149
0.0
100
AcDbLayout
  1
Layout1
 70
0
 71
1
 10
0.0
 20
0.0
 11
210.0
 21
297.0
 12
0.0
 22
0.0
 32
0.0
 14
0.0
 24
0.0
 34
0.0
 15
0.0
 25
0.0
 35
0.0
146
0.0
 13
0.0
 23
0.0
 33
0.0
 16
1.0
 26
0.0
 36
0.0
 17
0.0
 27
1.0
 37
0.0
 76
0
330
211
345
0
346
0
  0
ENDSEC
  0
EOF
