999
DXF file: C:\Users\sesa63760\Dev\_Creo\CAD\MCADID0005537_3D-CAD\drw0001_3.dxf
999
Pro/ENGINEER 2019471 by Parametric Technology Corporation
  0
SECTION
  2
HEADER
  9
$ACADVER
  1
AC1024
  9
$DWGCODEPAGE
  3
ANSI_1252
  9
$EXTMAX
 10
38.8315363717
 20
54.9188871543
 30
0.0
  9
$EXTMIN
 10
0.0
 20
0.0
 30
0.0
  9
$LIMMIN
 10
0.0
 20
0.0
  9
$LIMMAX
 10
38.8315363717
 20
54.9188871543
  9
$VIEWCTR
 10
19.4157681859
 20
27.4594435771
  9
$VIEWSIZE
 40
54.9188871543
  9
$CLAYER
  8
0
  9
$LTSCALE
 40
3.5798978293
  9
$CELTYPE
  6
BYLAYER
  9
$DIMSCALE
 40
1.0
  9
$DIMASZ
 40
0.4622801949
  9
$DIMEXO
 40
1.0
  9
$DIMDLI
 40
2.4733839548
  9
$DIMEXE
 40
1.0
  9
$DIMCEN
 40
0.585801463
  9
$DIMLFAC
 40
1.0
  9
$DIMBLK
  1
_FILLED
  9
$DIMALT
 70
0
  9
$DIMALTF
 40
0.0393700787
  9
$DIMTXT
 40
0.6471922729
  9
$DIMTOL
 70
1
  9
$DIMLIM
 70
0
  9
$DIMTFAC
 40
1.0
  9
$DIMTP
 40
0.01
  9
$DIMTM
 40
0.01
  9
$DIMGAP
 40
0.625
  9
$DIMDSEP
 70
46
  9
$AUNITS
 70
0
  9
$PDMODE
 70
3
  9
$PDSIZE
 40
0.3125
  9
$HANDSEED
  5
2BB
  9
$TILEMODE
 70
1
  9
$MEASUREMENT
 70
1
  9
$INSUNITS
 70
4
  0
ENDSEC
  0
SECTION
  2
CLASSES
  0
CLASS
  1
ACDBDICTIONARYWDFLT
  2
AcDbDictionaryWithDefault
  3
AutoCAD 2000
 90
0
 91
1
280
0
281
0
  0
CLASS
  1
ACDBPLACEHOLDER
  2
AcDbPlaceHolder
  3
AutoCAD 2000
 90
0
 91
1
280
0
281
0
  0
CLASS
  1
LAYOUT
  2
AcDbLayout
  3
AutoCAD 2000
 90
0
 91
0
280
0
281
0
  0
ENDSEC
  0
SECTION
  2
TABLES
  0
TABLE
  2
VPORT
  5
8
100
AcDbSymbolTable
 70
2
  0
VPORT
  5
1F4
100
AcDbSymbolTableRecord
100
AcDbViewportTableRecord
  2
*ACTIVE
 70
0
 10
0.0
 20
0.0
 11
1.0
 21
1.0
 12
19.4157681859
 22
27.4594435771
 13
0.0
 23
0.0
 14
1.0
 24
1.0
 15
0.0
 25
0.0
 16
0.0
 26
0.0
 36
1.0
 17
0.0
 27
0.0
 37
0.0
 40
54.9188871543
 41
0.7070707071
 42
50.0
 43
0.0
 44
0.0
 50
0.0
 51
0.0
 71
0
 72
100
 73
1
 74
1
 75
0
 76
0
 77
0
 78
0
  0
ENDTAB
  0
TABLE
  2
LTYPE
  5
5
100
AcDbSymbolTable
 70
6
  0
LTYPE
  5
14
100
AcDbSymbolTableRecord
100
AcDbLinetypeTableRecord
  2
BYBLOCK
 70
0
  3

 72
65
 73
0
 40
0.0
  0
LTYPE
  5
15
100
AcDbSymbolTableRecord
100
AcDbLinetypeTableRecord
  2
BYLAYER
 70
0
  3

 72
65
 73
0
 40
0.0
  0
LTYPE
  5
16
100
AcDbSymbolTableRecord
100
AcDbLinetypeTableRecord
  2
CONTINUOUS
 70
64
  3
Solid line
 72
65
 73
0
 40
0.0
  0
LTYPE
  5
1F5
100
AcDbSymbolTableRecord
100
AcDbLinetypeTableRecord
  2
CENTER
 70
64
  3
____ _ ____ _ ____ _ ____ _ ____ _ ____ _ ____
 72
65
 73
4
 40
0.6
 49
0.375
 74
0
 49
-0.075
 74
0
 49
0.075
 74
0
 49
-0.075
 74
0
  0
LTYPE
  5
1F6
100
AcDbSymbolTableRecord
100
AcDbLinetypeTableRecord
  2
HIDDEN
 70
64
  3
- - - - - - - - - - - - - - - - - - - -
 72
65
 73
2
 40
0.2
 49
0.1
 74
0
 49
-0.1
 74
0
  0
LTYPE
  5
1F7
100
AcDbSymbolTableRecord
100
AcDbLinetypeTableRecord
  2
PHANTOM
 70
64
  3
_____ _ _ _____ _ _ _____ _ _ _____
 72
65
 73
6
 40
0.8
 49
0.45
 74
0
 49
-0.05
 74
0
 49
0.1
 74
0
 49
-0.05
 74
0
 49
0.1
 74
0
 49
-0.05
 74
0
  0
LTYPE
  5
1F8
100
AcDbSymbolTableRecord
100
AcDbLinetypeTableRecord
  2
DOT
 70
64
  3
. . . . . . . . . . . . . . . . . . . .
 72
65
 73
2
 40
0.2
 49
0.1
 74
0
 49
-0.1
 74
0
  0
LTYPE
  5
1F9
100
AcDbSymbolTableRecord
100
AcDbLinetypeTableRecord
  2
DASHED
 70
64
  3
- - - - - - - - - - - - - - - - - - - -
 72
65
 73
2
 40
0.2
 49
0.1
 74
0
 49
-0.1
 74
0
  0
ENDTAB
  0
TABLE
  2
LAYER
  5
2
100
AcDbSymbolTable
 70
36
  0
LAYER
  5
10
100
AcDbSymbolTableRecord
100
AcDbLayerTableRecord
  2
0
 70
0
 62
7
  6
CONTINUOUS
370
-3
390
F
  0
LAYER
  5
1FA
100
AcDbSymbolTableRecord
100
AcDbLayerTableRecord
  2
DEFAULT_1
 70
0
 62
7
  6
CENTER
370
-3
390
F
  0
LAYER
  5
1FB
100
AcDbSymbolTableRecord
100
AcDbLayerTableRecord
  2
DEFAULT_2
 70
0
 62
7
  6
HIDDEN
370
-3
390
F
  0
LAYER
  5
1FC
100
AcDbSymbolTableRecord
100
AcDbLayerTableRecord
  2
DEFAULT_3
 70
0
 62
7
  6
PHANTOM
370
-3
390
F
  0
LAYER
  5
1FD
100
AcDbSymbolTableRecord
100
AcDbLayerTableRecord
  2
00_COMPONENTS
 70
0
 62
7
  6
CONTINUOUS
370
-3
390
F
  0
LAYER
  5
1FE
100
AcDbSymbolTableRecord
100
AcDbLayerTableRecord
  2
01_1_DEFAULT_DATUMS
 70
0
 62
7
  6
CONTINUOUS
370
-3
390
F
  0
LAYER
  5
1FF
100
AcDbSymbolTableRecord
100
AcDbLayerTableRecord
  2
01_PLANES
 70
0
 62
7
  6
CONTINUOUS
370
-3
390
F
  0
LAYER
  5
200
100
AcDbSymbolTableRecord
100
AcDbLayerTableRecord
  2
02_COORD_SYS
 70
0
 62
7
  6
CONTINUOUS
370
-3
390
F
  0
LAYER
  5
201
100
AcDbSymbolTableRecord
100
AcDbLayerTableRecord
  2
03_AXES
 70
0
 62
7
  6
CONTINUOUS
370
-3
390
F
  0
LAYER
  5
202
100
AcDbSymbolTableRecord
100
AcDbLayerTableRecord
  2
04_POINTS
 70
0
 62
7
  6
CONTINUOUS
370
-3
390
F
  0
LAYER
  5
203
100
AcDbSymbolTableRecord
100
AcDbLayerTableRecord
  2
05_CURVES
 70
0
 62
7
  6
CONTINUOUS
370
-3
390
F
  0
LAYER
  5
204
100
AcDbSymbolTableRecord
100
AcDbLayerTableRecord
  2
06_SURFS
 70
0
 62
7
  6
CONTINUOUS
370
-3
390
F
  0
LAYER
  5
205
100
AcDbSymbolTableRecord
100
AcDbLayerTableRecord
  2
07_COSMETICS
 70
0
 62
7
  6
CONTINUOUS
370
-3
390
F
  0
LAYER
  5
206
100
AcDbSymbolTableRecord
100
AcDbLayerTableRecord
  2
10_NOTES
 70
0
 62
7
  6
CONTINUOUS
370
-3
390
F
  0
LAYER
  5
207
100
AcDbSymbolTableRecord
100
AcDbLayerTableRecord
  2
11_NOTES_PUB
 70
0
 62
7
  6
CONTINUOUS
370
-3
390
F
  0
LAYER
  5
208
100
AcDbSymbolTableRecord
100
AcDbLayerTableRecord
  2
13_REF_GTOL
 70
0
 62
7
  6
CONTINUOUS
370
-3
390
F
  0
LAYER
  5
209
100
AcDbSymbolTableRecord
100
AcDbLayerTableRecord
  2
16_MISC
 70
0
 62
7
  6
CONTINUOUS
370
-3
390
F
  0
LAYER
  5
20A
100
AcDbSymbolTableRecord
100
AcDbLayerTableRecord
  2
17_NO_PRINT
 70
0
 62
7
  6
CONTINUOUS
370
-3
390
F
  0
LAYER
  5
20B
100
AcDbSymbolTableRecord
100
AcDbLayerTableRecord
  2
18_DATUM_CAMS_JOINTS
 70
0
 62
7
  6
CONTINUOUS
370
-3
390
F
  0
LAYER
  5
20C
100
AcDbSymbolTableRecord
100
AcDbLayerTableRecord
  2
19_DATUM_FUNCTIONAL
 70
0
 62
7
  6
CONTINUOUS
370
-3
390
F
  0
LAYER
  5
20D
100
AcDbSymbolTableRecord
100
AcDbLayerTableRecord
  2
20_DATUM_KINEMATIC_SCHEME
 70
0
 62
7
  6
CONTINUOUS
370
-3
390
F
  0
ENDTAB
  0
TABLE
  2
STYLE
  5
3
100
AcDbSymbolTable
 70
1
  0
STYLE
  5
11
100
AcDbSymbolTableRecord
100
AcDbTextStyleTableRecord
  2
STANDARD
 70
0
 40
0.0
 41
1.0
 50
0.0
 71
0
 42
0.2
  3
ARIAL.TTF
  4

  0
STYLE
  5
20E
100
AcDbSymbolTableRecord
100
AcDbTextStyleTableRecord
  2
TEXTSTYLE_1
 70
0
 40
0.0
 41
0.8
 50
0.0
 71
0
 42
0.2
  3
gdt
  4

  0
ENDTAB
  0
TABLE
  2
VIEW
  5
6
100
AcDbSymbolTable
 70
0
  0
ENDTAB
  0
TABLE
  2
UCS
  5
7
100
AcDbSymbolTable
 70
0
  0
ENDTAB
  0
TABLE
  2
APPID
  5
9
100
AcDbSymbolTable
 70
1
  0
APPID
  5
20F
100
AcDbSymbolTableRecord
100
AcDbRegAppTableRecord
  2
ACAD
 70
0
  0
ENDTAB
  0
TABLE
  2
BLOCK_RECORD
  5
1
100
AcDbSymbolTable
 70
0
  0
BLOCK_RECORD
  5
210
100
AcDbSymbolTableRecord
100
AcDbBlockTableRecord
  2
*Model_Space
  0
BLOCK_RECORD
  5
211
100
AcDbSymbolTableRecord
100
AcDbBlockTableRecord
  2
*Paper_Space
  0
BLOCK_RECORD
  5
212
100
AcDbSymbolTableRecord
100
AcDbBlockTableRecord
  2
_FILLED
  0
ENDTAB
  0
TABLE
  2
DIMSTYLE
  5
A
100
AcDbSymbolTable
 70
1
100
AcDbDimStyleTable
 71
0
  0
DIMSTYLE
105
213
100
AcDbSymbolTableRecord
100
AcDbDimStyleTableRecord
  2
STANDARD
 70
0
  3

  4

 40
1.0
 41
0.4622801949
 42
1.0
 43
0.38
 44
1.0
 45
0.0
 46
0.0
 47
0.01
 48
0.01
140
0.6471922729
141
0.09
142
0.0
143
25.4
144
1.0
145
0.0
146
1.0
147
0.625
 71
1
 72
0
 73
0
 74
0
 75
0
 76
0
 77
1
 78
8
 79
2
170
0
171
1
172
0
173
0
174
0
175
0
176
0
177
0
178
0
270
2
179
2
271
2
272
2
273
2
274
2
275
0
280
0
281
0
282
0
283
1
284
8
285
0
286
0
287
3
288
0
340
11
278
46
341
212
342
212
343
212
344
212
  0
ENDTAB
  0
ENDSEC
  0
SECTION
  2
BLOCKS
  0
BLOCK
  5
20
100
AcDbEntity
  8
0
100
AcDbBlockBegin
  2
*Model_Space
 70
0
 10
0.0
 20
0.0
 30
0.0
  3
*Model_Space
  1

  0
ENDBLK
  5
21
100
AcDbEntity
  8
0
100
AcDbBlockEnd
  0
BLOCK
  5
1C
100
AcDbEntity
  8
0
100
AcDbBlockBegin
  2
*Paper_Space
 70
0
 10
0.0
 20
0.0
 30
0.0
  3
*Paper_Space
  1

  0
ENDBLK
  5
1D
100
AcDbEntity
  8
0
100
AcDbBlockEnd
  0
BLOCK
  5
214
100
AcDbEntity
  8
0
100
AcDbBlockBegin
  2
_FILLED
 70
64
 10
0.0
 20
0.0
  3
_FILLED
  1

  0
SOLID
  5
215
100
AcDbEntity
  8
0
  6
BYBLOCK
 62
0
100
AcDbTrace
 10
0.0
 20
0.0
 11
-1.0
 21
0.25
 12
-1.0
 22
-0.25
 13
-1.0
 23
-0.25
  0
ENDBLK
  5
216
100
AcDbEntity
  8
0
  6
BYBLOCK
 62
0
100
AcDbBlockEnd
  0
ENDSEC
  0
SECTION
  2
ENTITIES
  0
LINE
  5
217
100
AcDbEntity
  8
0
100
AcDbLine
 62
7
  6
BYLAYER
 10
27.9915872945
 20
4.4029217976
 11
25.6921168746
 21
4.4029217976
  0
LINE
  5
218
100
AcDbEntity
  8
0
100
AcDbLine
 62
7
  6
BYLAYER
 10
14.2149414725
 20
4.4029217976
 11
11.9154719591
 21
4.4029217976
  0
LINE
  5
219
100
AcDbEntity
  8
0
100
AcDbLine
 62
7
  6
BYLAYER
 10
10.8672554851
 20
5.6029217976
 11
15.6535296268
 21
5.6029217976
  0
LINE
  5
21A
100
AcDbEntity
  8
0
100
AcDbLine
 62
7
  6
BYLAYER
 10
24.2535296268
 20
5.6029217976
 11
29.0346963139
 21
5.6029217976
  0
LINE
  5
21B
100
AcDbEntity
  8
0
100
AcDbLine
 62
7
  6
BYLAYER
 10
24.2535296268
 20
5.9029217976
 11
15.6535296268
 21
5.9029217976
  0
LINE
  5
21C
100
AcDbEntity
  8
0
100
AcDbLine
 62
7
  6
BYLAYER
 10
23.4535299006
 20
8.8039217976
 11
16.4535299006
 21
8.8039217976
  0
LINE
  5
21D
100
AcDbEntity
  8
0
100
AcDbLine
 62
7
  6
BYLAYER
 10
9.6270459795
 20
9.0029217976
 11
11.2535296268
 21
9.0029217976
  0
LINE
  5
21E
100
AcDbEntity
  8
0
100
AcDbLine
 62
7
  6
BYLAYER
 10
28.6535296268
 20
9.0029217976
 11
30.2800363556
 21
9.0029217976
  0
LINE
  5
21F
100
AcDbEntity
  8
0
100
AcDbLine
 62
7
  6
BYLAYER
 10
30.4777870315
 20
11.6919217976
 11
28.6535296268
 21
11.6919217976
  0
LINE
  5
220
100
AcDbEntity
  8
0
100
AcDbLine
 62
7
  6
BYLAYER
 10
11.2535296268
 20
11.6919217976
 11
9.4292722221
 21
11.6919217976
  0
LINE
  5
221
100
AcDbEntity
  8
0
100
AcDbLine
 62
7
  6
BYLAYER
 10
11.9529046093
 20
11.6919217976
 11
27.9541546443
 21
11.6919217976
  0
LINE
  5
222
100
AcDbEntity
  8
0
100
AcDbLine
 62
7
  6
BYLAYER
 10
5.703529623
 20
25.7009217976
 11
5.703529623
 21
34.3869976196
  0
LINE
  5
223
100
AcDbEntity
  8
0
100
AcDbLine
 62
7
  6
BYLAYER
 10
7.3535296268
 20
24.5009217976
 11
7.3535296268
 21
23.2509217976
  0
LINE
  5
224
100
AcDbEntity
  8
0
100
AcDbLine
 62
7
  6
BYLAYER
 10
7.4785296268
 20
34.800921735
 11
7.4785296268
 21
35.030922005
  0
LINE
  5
225
100
AcDbEntity
  8
0
100
AcDbLine
 62
7
  6
BYLAYER
 10
8.6990954611
 20
35.5348460712
 11
8.6992086853
 21
35.2126637987
  0
LINE
  5
226
100
AcDbEntity
  8
0
100
AcDbLine
 62
7
  6
BYLAYER
 10
7.8299714586
 20
35.5348460772
 11
7.8299714586
 21
45.8498592129
  0
LINE
  5
227
100
AcDbEntity
  8
0
100
AcDbLine
 62
7
  6
BYLAYER
 10
8.5646093784
 20
49.1607787934
 11
8.5646093784
 21
35.5348460712
  0
LINE
  5
228
100
AcDbEntity
  8
0
100
AcDbLine
 62
7
  6
BYLAYER
 10
9.0785296268
 20
20.5529217976
 11
9.0785296268
 21
23.2509217976
  0
LINE
  5
229
100
AcDbEntity
  8
0
100
AcDbLine
 62
7
  6
BYLAYER
 10
9.9820691019
 20
21.2305579829
 11
9.5330835203
 21
22.2682191074
  0
LINE
  5
22A
100
AcDbEntity
  8
0
100
AcDbLine
 62
7
  6
BYLAYER
 10
9.4964472156
 20
22.4567490251
 11
9.5330835203
 21
22.2682191074
  0
LINE
  5
22B
100
AcDbEntity
  8
0
100
AcDbLine
 62
7
  6
BYLAYER
 10
9.4965571976
 20
22.4672713216
 11
9.496429445
 21
23.2509217976
  0
LINE
  5
22C
100
AcDbEntity
  8
0
100
AcDbLine
 62
7
  6
BYLAYER
 10
9.4292722221
 20
19.8919217976
 11
9.4292722221
 21
11.6919217976
  0
LINE
  5
22D
100
AcDbEntity
  8
0
100
AcDbLine
 62
7
  6
BYLAYER
 10
9.4535296268
 20
19.8919217976
 11
9.4535296268
 21
20.3029217976
  0
LINE
  5
22E
100
AcDbEntity
  8
0
100
AcDbLine
 62
7
  6
BYLAYER
 10
9.6270459795
 20
8.1028967427
 11
9.6270459795
 21
9.0029217976
  0
LINE
  5
22F
100
AcDbEntity
  8
0
100
AcDbLine
 62
7
  6
BYLAYER
 10
9.6591191863
 20
9.0029217976
 11
9.6591191863
 21
7.9266976408
  0
LINE
  5
230
100
AcDbEntity
  8
0
100
AcDbLine
 62
7
  6
BYLAYER
 10
9.4965571976
 20
22.4672713216
 11
9.4964472156
 21
22.4567490251
  0
LINE
  5
231
100
AcDbEntity
  8
0
100
AcDbLine
 62
7
  6
BYLAYER
 10
7.0935294933
 20
34.800921735
 11
5.7035296268
 21
34.3869976208
  0
LINE
  5
232
100
AcDbEntity
  8
0
100
AcDbLine
 62
7
  6
BYLAYER
 10
11.1848152148
 20
19.8919217976
 11
11.1848152148
 21
11.6919217976
  0
LINE
  5
233
100
AcDbEntity
  8
0
100
AcDbLine
 62
7
  6
BYLAYER
 10
11.1852659184
 20
9.0029217976
 11
11.1852659184
 21
5.6029217976
  0
LINE
  5
234
100
AcDbEntity
  8
0
100
AcDbLine
 62
7
  6
BYLAYER
 10
11.2535296268
 20
11.6919217976
 11
11.2535296268
 21
9.0029217976
  0
LINE
  5
235
100
AcDbEntity
  8
0
100
AcDbLine
 62
7
  6
BYLAYER
 10
11.5036775571
 20
5.6029217976
 11
11.5036775571
 21
19.8919217976
  0
LINE
  5
236
100
AcDbEntity
  8
0
100
AcDbLine
 62
7
  6
BYLAYER
 10
11.815324223
 20
22.4672713216
 11
11.8153600441
 21
23.2509217976
  0
LINE
  5
237
100
AcDbEntity
  8
0
100
AcDbLine
 62
7
  6
BYLAYER
 10
11.9529046512
 20
19.8919217976
 11
11.9529046512
 21
11.6919217976
  0
LINE
  5
238
100
AcDbEntity
  8
0
100
AcDbLine
 62
7
  6
BYLAYER
 10
9.4292722221
 20
19.8919217976
 11
11.9529046093
 21
19.8919217976
  0
LINE
  5
239
100
AcDbEntity
  8
0
100
AcDbLine
 62
7
  6
BYLAYER
 10
27.9541546443
 20
19.8919217976
 11
30.4777870315
 21
19.8919217976
  0
LINE
  5
23A
100
AcDbEntity
  8
0
100
AcDbLine
 62
7
  6
BYLAYER
 10
22.6794056328
 20
20.2919217976
 11
17.2276536208
 21
20.2919217976
  0
LINE
  5
23B
100
AcDbEntity
  8
0
100
AcDbLine
 62
7
  6
BYLAYER
 10
30.5785296268
 20
20.3029217976
 11
9.3285296268
 21
20.3029217976
  0
LINE
  5
23C
100
AcDbEntity
  8
0
100
AcDbLine
 62
7
  6
BYLAYER
 10
30.8285296268
 20
20.5529217976
 11
9.0785296268
 21
20.5529217976
  0
LINE
  5
23D
100
AcDbEntity
  8
0
100
AcDbLine
 62
7
  6
BYLAYER
 10
13.9062161737
 20
11.6919217976
 11
13.9062161737
 21
5.6029217976
  0
LINE
  5
23E
100
AcDbEntity
  8
0
100
AcDbLine
 62
7
  6
BYLAYER
 10
14.1329763426
 20
4.4029217976
 11
14.1329763426
 21
5.6029217976
  0
LINE
  5
23F
100
AcDbEntity
  8
0
100
AcDbLine
 62
7
  6
BYLAYER
 10
14.153922253
 20
5.6029217976
 11
14.153922253
 21
4.4029217976
  0
LINE
  5
240
100
AcDbEntity
  8
0
100
AcDbLine
 62
7
  6
BYLAYER
 10
14.6410314343
 20
5.9039242514
 11
14.6410314343
 21
5.6029217976
  0
LINE
  5
241
100
AcDbEntity
  8
0
100
AcDbLine
 62
7
  6
BYLAYER
 10
10.4524560899
 20
20.642921798
 11
10.6208085671
 21
20.642921798
  0
LINE
  5
242
100
AcDbEntity
  8
0
100
AcDbLine
 62
7
  6
BYLAYER
 10
29.2862514619
 20
20.642921798
 11
29.4546038986
 21
20.642921798
  0
LINE
  5
243
100
AcDbEntity
  8
0
100
AcDbLine
 62
7
  6
BYLAYER
 10
9.5330835203
 20
22.2682191074
 11
11.7741431585
 21
22.2682191074
  0
LINE
  5
244
100
AcDbEntity
  8
0
100
AcDbLine
 62
7
  6
BYLAYER
 10
28.1329160965
 20
22.2682191074
 11
30.3739757332
 21
22.2682191074
  0
LINE
  5
245
100
AcDbEntity
  8
0
100
AcDbLine
 62
7
  6
BYLAYER
 10
23.4535299006
 20
8.8039217976
 11
25.2660278193
 21
5.9039251277
  0
LINE
  5
246
100
AcDbEntity
  8
0
100
AcDbLine
 62
7
  6
BYLAYER
 10
15.6535296268
 20
5.6029217976
 11
15.6535296268
 21
5.9029217976
  0
LINE
  5
247
100
AcDbEntity
  8
0
100
AcDbLine
 62
7
  6
BYLAYER
 10
16.2465733445
 20
8.4727913078
 11
16.2465733445
 21
5.9029217976
  0
LINE
  5
248
100
AcDbEntity
  8
0
100
AcDbLine
 62
7
  6
BYLAYER
 10
30.410502056
 20
22.4672713216
 11
28.0917708612
 21
22.4672713216
  0
LINE
  5
249
100
AcDbEntity
  8
0
100
AcDbLine
 62
7
  6
BYLAYER
 10
11.8152883923
 20
22.4672713216
 11
9.4965571976
 21
22.4672713216
  0
LINE
  5
24A
100
AcDbEntity
  8
0
100
AcDbLine
 62
7
  6
BYLAYER
 10
32.5535296268
 20
23.2509217976
 11
7.3535296268
 21
23.2509217976
  0
LINE
  5
24B
100
AcDbEntity
  8
0
100
AcDbLine
 62
7
  6
BYLAYER
 10
16.7646166372
 20
8.8039217976
 11
16.7646166372
 21
5.9029217976
  0
LINE
  5
24C
100
AcDbEntity
  8
0
100
AcDbLine
 62
7
  6
BYLAYER
 10
16.9102678045
 20
8.8039217976
 11
16.9102678045
 21
5.9029217976
  0
LINE
  5
24D
100
AcDbEntity
  8
0
100
AcDbLine
 62
7
  6
BYLAYER
 10
17.2276536208
 20
11.6919217976
 11
17.2276536208
 21
20.2919217976
  0
LINE
  5
24E
100
AcDbEntity
  8
0
100
AcDbLine
 62
7
  6
BYLAYER
 10
34.1566446095
 20
24.5009220024
 11
5.7504146454
 21
24.5009220024
  0
LINE
  5
24F
100
AcDbEntity
  8
0
100
AcDbLine
 62
7
  6
BYLAYER
 10
34.2035275751
 20
25.7009217976
 11
34.1647927693
 21
25.7009217976
  0
LINE
  5
250
100
AcDbEntity
  8
0
100
AcDbLine
 62
7
  6
BYLAYER
 10
5.7422664842
 20
25.7009217976
 11
5.7035316785
 21
25.7009217976
  0
LINE
  5
251
100
AcDbEntity
  8
0
100
AcDbLine
 62
7
  6
BYLAYER
 10
22.6794056328
 20
20.2919217976
 11
22.6794056328
 21
11.6919217976
  0
LINE
  5
252
100
AcDbEntity
  8
0
100
AcDbLine
 62
7
  6
BYLAYER
 10
22.9967914491
 20
8.8039217976
 11
22.9967914491
 21
5.9029217976
  0
LINE
  5
253
100
AcDbEntity
  8
0
100
AcDbLine
 62
7
  6
BYLAYER
 10
23.1424426163
 20
5.9029217976
 11
23.1424426163
 21
8.8039217976
  0
LINE
  5
254
100
AcDbEntity
  8
0
100
AcDbLine
 62
7
  6
BYLAYER
 10
23.6604856762
 20
8.4727925567
 11
23.6604856762
 21
5.9029217976
  0
LINE
  5
255
100
AcDbEntity
  8
0
100
AcDbLine
 62
7
  6
BYLAYER
 10
24.2535296268
 20
5.9029217976
 11
24.2535296268
 21
5.6029217976
  0
LINE
  5
256
100
AcDbEntity
  8
0
100
AcDbLine
 62
7
  6
BYLAYER
 10
25.2660278193
 20
5.6029217976
 11
25.2660278193
 21
5.9039251277
  0
LINE
  5
257
100
AcDbEntity
  8
0
100
AcDbLine
 62
7
  6
BYLAYER
 10
25.3352035006
 20
35.0311477
 11
25.3352035006
 21
35.5348460729
  0
LINE
  5
258
100
AcDbEntity
  8
0
100
AcDbLine
 62
7
  6
BYLAYER
 10
25.5640684279
 20
49.1034090909
 11
25.5640684279
 21
35.5348460774
  0
LINE
  5
259
100
AcDbEntity
  8
0
100
AcDbLine
 62
7
  6
BYLAYER
 10
25.7531370006
 20
4.4029217976
 11
25.7531370006
 21
5.6029217976
  0
LINE
  5
25A
100
AcDbEntity
  8
0
100
AcDbLine
 62
7
  6
BYLAYER
 10
25.7740829109
 20
5.6029217976
 11
25.7740829109
 21
4.4029217976
  0
LINE
  5
25B
100
AcDbEntity
  8
0
100
AcDbLine
 62
7
  6
BYLAYER
 10
26.0008430799
 20
5.6029217976
 11
26.0008430799
 21
11.6919217976
  0
LINE
  5
25C
100
AcDbEntity
  8
0
100
AcDbLine
 62
7
  6
BYLAYER
 10
14.6410314343
 20
5.9039242514
 11
16.4535299006
 21
8.8039217976
  0
LINE
  5
25D
100
AcDbEntity
  8
0
100
AcDbLine
 62
7
  6
BYLAYER
 10
5.703529623
 20
34.3869976208
 11
34.2035296305
 21
34.3869976208
  0
LINE
  5
25E
100
AcDbEntity
  8
0
100
AcDbLine
 62
7
  6
BYLAYER
 10
27.8832033931
 20
34.3915862141
 11
31.7743838679
 21
34.3915725822
  0
LINE
  5
25F
100
AcDbEntity
  8
0
100
AcDbLine
 62
7
  6
BYLAYER
 10
7.0935556453
 20
34.800921735
 11
25.56651252
 21
34.800921735
  0
LINE
  5
260
100
AcDbEntity
  8
0
100
AcDbLine
 62
7
  6
BYLAYER
 10
31.5212621078
 20
34.800921735
 11
32.8135036083
 21
34.800921735
  0
LINE
  5
261
100
AcDbEntity
  8
0
100
AcDbLine
 62
7
  6
BYLAYER
 10
25.3357465766
 20
34.8048460772
 11
31.5166362905
 21
34.8048460772
  0
LINE
  5
262
100
AcDbEntity
  8
0
100
AcDbLine
 62
7
  6
BYLAYER
 10
7.4785296268
 20
35.0309220893
 11
32.4285293898
 21
35.0309220893
  0
LINE
  5
263
100
AcDbEntity
  8
0
100
AcDbLine
 62
7
  6
BYLAYER
 10
27.9541546443
 20
11.6919217976
 11
27.9541546443
 21
19.8919217976
  0
LINE
  5
264
100
AcDbEntity
  8
0
100
AcDbLine
 62
7
  6
BYLAYER
 10
28.0916992094
 20
23.2509217976
 11
28.0917350306
 21
22.4672713216
  0
LINE
  5
265
100
AcDbEntity
  8
0
100
AcDbLine
 62
7
  6
BYLAYER
 10
28.4033816272
 20
19.8919217976
 11
28.4033816965
 21
5.6029217976
  0
LINE
  5
266
100
AcDbEntity
  8
0
100
AcDbLine
 62
7
  6
BYLAYER
 10
28.6535296268
 20
9.0029217976
 11
28.6535296268
 21
11.6919217976
  0
LINE
  5
267
100
AcDbEntity
  8
0
100
AcDbLine
 62
7
  6
BYLAYER
 10
28.6839741813
 20
9.0029217976
 11
28.6839741813
 21
5.6029217976
  0
LINE
  5
268
100
AcDbEntity
  8
0
100
AcDbLine
 62
7
  6
BYLAYER
 10
28.7222440387
 20
19.8919217976
 11
28.7222440387
 21
11.6919217976
  0
LINE
  5
269
100
AcDbEntity
  8
0
100
AcDbLine
 62
7
  6
BYLAYER
 10
7.4785298637
 20
35.0309220893
 11
10.8389265529
 21
35.5312373464
  0
LINE
  5
26A
100
AcDbEntity
  8
0
100
AcDbLine
 62
7
  6
BYLAYER
 10
10.8389265529
 20
35.5312373464
 11
23.2241443826
 21
35.5312373464
  0
LINE
  5
26B
100
AcDbEntity
  8
0
100
AcDbLine
 62
7
  6
BYLAYER
 10
32.0770878926
 20
35.5348460766
 11
25.3352035006
 21
35.5348460771
  0
LINE
  5
26C
100
AcDbEntity
  8
0
100
AcDbLine
 62
7
  6
BYLAYER
 10
8.6990954611
 20
35.5348460755
 11
7.8299714586
 21
35.5348460753
  0
LINE
  5
26D
100
AcDbEntity
  8
0
100
AcDbLine
 62
7
  6
BYLAYER
 10
30.410502056
 20
22.4672713216
 11
30.4106120379
 21
22.4567490251
  0
LINE
  5
26E
100
AcDbEntity
  8
0
100
AcDbLine
 62
7
  6
BYLAYER
 10
30.268174533
 20
9.0029217976
 11
30.268174533
 21
7.9946874187
  0
LINE
  5
26F
100
AcDbEntity
  8
0
100
AcDbLine
 62
7
  6
BYLAYER
 10
30.2800363556
 20
9.0029217976
 11
30.2800363556
 21
8.1029486024
  0
LINE
  5
270
100
AcDbEntity
  8
0
100
AcDbLine
 62
7
  6
BYLAYER
 10
30.4535296268
 20
20.3029217976
 11
30.4535296268
 21
19.8919217976
  0
LINE
  5
271
100
AcDbEntity
  8
0
100
AcDbLine
 62
7
  6
BYLAYER
 10
30.4777870315
 20
11.6919217976
 11
30.4777870315
 21
19.8919217976
  0
LINE
  5
272
100
AcDbEntity
  8
0
100
AcDbLine
 62
7
  6
BYLAYER
 10
30.8285296268
 20
23.2509217976
 11
30.8285296268
 21
20.5529217976
  0
LINE
  5
273
100
AcDbEntity
  8
0
100
AcDbLine
 62
7
  6
BYLAYER
 10
30.410502056
 20
22.4672713216
 11
30.4106298086
 21
23.2509217976
  0
LINE
  5
274
100
AcDbEntity
  8
0
100
AcDbLine
 62
7
  6
BYLAYER
 10
32.8135297603
 20
34.800921735
 11
34.2035296268
 21
34.3869976208
  0
LINE
  5
275
100
AcDbEntity
  8
0
100
AcDbLine
 62
7
  6
BYLAYER
 10
31.2072567146
 20
35.5348460833
 11
31.2072567146
 21
35.0310299695
  0
LINE
  5
276
100
AcDbEntity
  8
0
100
AcDbLine
 62
7
  6
BYLAYER
 10
32.0770878884
 20
45.8166524806
 11
32.0770878926
 21
35.5348460772
  0
LINE
  5
277
100
AcDbEntity
  8
0
100
AcDbLine
 62
7
  6
BYLAYER
 10
32.4285293898
 20
34.800921735
 11
32.4285293898
 21
35.0309220893
  0
LINE
  5
278
100
AcDbEntity
  8
0
100
AcDbLine
 62
7
  6
BYLAYER
 10
32.5535296268
 20
23.2509217976
 11
32.5535296268
 21
24.5009217976
  0
LINE
  5
279
100
AcDbEntity
  8
0
100
AcDbLine
 62
7
  6
BYLAYER
 10
30.4106120379
 20
22.4567490251
 11
30.3739757332
 21
22.2682191074
  0
LINE
  5
27A
100
AcDbEntity
  8
0
100
AcDbLine
 62
7
  6
BYLAYER
 10
29.9249901517
 20
21.2305579829
 11
30.3739757332
 21
22.2682191074
  0
LINE
  5
27B
100
AcDbEntity
  8
0
100
AcDbLine
 62
7
  6
BYLAYER
 10
34.2035296305
 20
25.7009217976
 11
34.2035296305
 21
34.3869976196
  0
LINE
  5
27C
100
AcDbEntity
  8
0
100
AcDbLine
 62
7
  6
BYLAYER
 10
26.7554415091
 20
48.4572949503
 11
32.0722998753
 21
48.4572949503
  0
LINE
  5
27D
100
AcDbEntity
  8
0
100
AcDbLine
 62
7
  6
BYLAYER
 10
32.0110442663
 20
48.8535686534
 11
26.4004055764
 21
48.8535686534
  0
LINE
  5
27E
100
AcDbEntity
  8
0
100
AcDbLine
 62
7
  6
BYLAYER
 10
31.8455154031
 20
48.9717380983
 11
25.9953749963
 21
48.9717380983
  0
LINE
  5
27F
100
AcDbEntity
  8
0
100
AcDbLine
 62
7
  6
BYLAYER
 10
18.2554808559
 20
50.7547500622
 11
18.1847686634
 21
50.752209579
  0
LINE
  5
280
100
AcDbEntity
  8
0
100
AcDbLine
 62
7
  6
BYLAYER
 10
18.2554913867
 20
50.7541621234
 11
18.1847686634
 21
50.752209579
  0
LINE
  5
281
100
AcDbEntity
  8
0
100
AcDbLine
 62
7
  6
BYLAYER
 10
19.1050014894
 20
50.769971633
 11
21.256526891
 21
50.767345663
  0
LINE
  5
282
100
AcDbEntity
  8
0
100
AcDbLine
 62
7
  6
BYLAYER
 10
21.2565368416
 20
50.7673443533
 11
21.2553697509
 21
50.7674055947
  0
ARC
  5
283
100
AcDbEntity
  8
0
100
AcDbCircle
 62
7
  6
BYLAYER
 10
-713.9727436737
 20
45.7723159689
 40
746.0498328794
100
AcDbArc
 50
0.0034049937
 51
0.2062238431
  0
ARC
  5
284
100
AcDbEntity
  8
0
100
AcDbCircle
 62
7
  6
BYLAYER
 10
752.2325539687
 20
45.8113970226
 40
744.4025834999
100
AcDbArc
 50
179.7963274162
 51
179.9970454214
  0
ARC
  5
285
100
AcDbEntity
  8
0
100
AcDbCircle
 62
7
  6
BYLAYER
 10
19.9326703845
 20
0.6313420396
 40
50.1535083753
100
AcDbArc
 50
88.9056295338
 51
89.9761702298
  0
ARC
  5
286
100
AcDbEntity
  8
0
100
AcDbCircle
 62
7
  6
BYLAYER
 10
19.974388869
 20
0.6313420396
 40
50.1535083753
100
AcDbArc
 50
90.0238297702
 51
90.9732225163
  0
ARC
  5
287
100
AcDbEntity
  8
0
100
AcDbCircle
 62
7
  6
BYLAYER
 10
19.974388869
 20
0.6313420396
 40
50.1535083753
100
AcDbArc
 50
92.0449463061
 51
95.4061615487
  0
ARC
  5
288
100
AcDbEntity
  8
0
100
AcDbCircle
 62
7
  6
BYLAYER
 10
19.9326703845
 20
0.6313420396
 40
50.1535083753
100
AcDbArc
 50
84.5962856385
 51
88.4887623587
  0
ARC
  5
289
100
AcDbEntity
  8
0
100
AcDbCircle
 62
7
  6
BYLAYER
 10
29.0681327006
 20
23.9959292553
 40
11.5353080911
100
AcDbArc
 50
73.0633606013
 51
79.218662139
  0
ARC
  5
28A
100
AcDbEntity
  8
0
100
AcDbCircle
 62
7
  6
BYLAYER
 10
21.3552866529
 20
-3.5119788427
 40
10.1948156234
100
AcDbArc
 50
63.3894969528
 51
67.4430857783
  0
ARC
  5
28B
100
AcDbEntity
  8
0
100
AcDbCircle
 62
7
  6
BYLAYER
 10
18.4663996472
 20
-3.3253679705
 40
9.989734169
100
AcDbArc
 50
112.5152878096
 51
116.6521294593
  0
ARC
  5
28C
100
AcDbEntity
  8
0
100
AcDbCircle
 62
7
  6
BYLAYER
 10
11.3620166936
 20
22.4572308307
 40
0.4533953861
100
AcDbArc
 50
335.343126804
 51
359.9391140007
  0
ARC
  5
28D
100
AcDbEntity
  8
0
100
AcDbCircle
 62
7
  6
BYLAYER
 10
28.5450423842
 20
22.4572307987
 40
0.4533952104
100
AcDbArc
 50
180.0608819841
 51
204.6569089829
  0
ARC
  5
28E
100
AcDbEntity
  8
0
100
AcDbCircle
 62
7
  6
BYLAYER
 10
9.3285296268
 20
20.5529217976
 40
0.25
100
AcDbArc
 50
180.0
 51
270.0
  0
ARC
  5
28F
100
AcDbEntity
  8
0
100
AcDbCircle
 62
7
  6
BYLAYER
 10
30.5785296268
 20
20.5529217976
 40
0.25
100
AcDbArc
 50
270.0
 51
360.0
  0
SPLINE
  5
290
100
AcDbEntity
  8
0
100
AcDbSpline
 62
7
  6
BYLAYER
 70
0
 71
3
 72
10
 73
6
 74
0
 42
0.0000001
 43
0.0000001
 44
0.0000000001
 40
0.0
 40
0.0
 40
0.0
 40
0.0
 40
0.5534763564
 40
0.7913639378
 40
1.0
 40
1.0
 40
1.0
 40
1.0
 10
31.3424498743
 20
49.1605525272
 30
0.0
 10
31.4369694821
 20
49.1304759702
 30
0.0
 10
31.5713753208
 20
49.0849441915
 30
0.0
 10
31.7382826874
 20
49.0196165251
 30
0.0
 10
31.8116644195
 20
48.9876165835
 30
0.0
 10
31.8455154031
 20
48.9717380983
 30
0.0
  0
SPLINE
  5
291
100
AcDbEntity
  8
0
100
AcDbSpline
 62
7
  6
BYLAYER
 70
0
 71
3
 72
9
 73
5
 74
0
 42
0.0000001
 43
0.0000001
 44
0.0000000001
 40
0.0
 40
0.0
 40
0.0
 40
0.0
 40
0.2781894365
 40
1.0
 40
1.0
 40
1.0
 40
1.0
 10
31.8455154031
 20
48.9717380983
 30
0.0
 10
31.862856329
 20
48.9641021645
 30
0.0
 10
31.9237991813
 20
48.9338047874
 30
0.0
 10
31.9792841773
 20
48.8910960356
 30
0.0
 10
32.0110442663
 20
48.8535686534
 30
0.0
  0
SPLINE
  5
292
100
AcDbEntity
  8
0
100
AcDbSpline
 62
7
  6
BYLAYER
 70
0
 71
3
 72
11
 73
7
 74
0
 42
0.0000001
 43
0.0000001
 44
0.0000000001
 40
0.0
 40
0.0
 40
0.0
 40
0.0
 40
0.1812609098
 40
0.4013604162
 40
0.6728976901
 40
1.0
 40
1.0
 40
1.0
 40
1.0
 10
32.0110442663
 20
48.8535686534
 30
0.0
 10
32.0233548855
 20
48.8324648036
 30
0.0
 10
32.0436211348
 20
48.7816750734
 30
0.0
 10
32.0613027481
 20
48.6924712234
 30
0.0
 10
32.0703523128
 20
48.5823386236
 30
0.0
 10
32.0720215036
 20
48.5016454393
 30
0.0
 10
32.0722567281
 20
48.4575561875
 30
0.0
  0
LINE
  5
293
100
AcDbEntity
  8
0
100
AcDbLine
 62
7
  6
BYLAYER
 10
31.5168031319
 20
34.8028858437
 11
31.5223306962
 21
34.8008398292
  0
SPLINE
  5
294
100
AcDbEntity
  8
0
100
AcDbSpline
 62
7
  6
BYLAYER
 70
0
 71
3
 72
17
 73
13
 74
0
 42
0.0000001
 43
0.0000001
 44
0.0000000001
 40
0.0
 40
0.0
 40
0.0
 40
0.0
 40
0.2011699908
 40
0.3826952144
 40
0.5430898838
 40
0.6809509923
 40
0.7950354552
 40
0.8430297844
 40
0.8850365163
 40
0.9212295
 40
0.9519795348
 40
1.0
 40
1.0
 40
1.0
 40
1.0
 10
31.5223306962
 20
34.8008398292
 30
0.0
 10
31.5636148385
 20
34.7855461876
 30
0.0
 10
31.6419879538
 20
34.7560027569
 30
0.0
 10
31.7520618478
 20
34.7110942844
 30
0.0
 10
31.8473055888
 20
34.666767469
 30
0.0
 10
31.9268998366
 20
34.6241592546
 30
0.0
 10
31.9826490876
 20
34.5893271473
 30
0.0
 10
32.0184103615
 20
34.5625112508
 30
0.0
 10
32.0392744429
 20
34.5443929766
 30
0.0
 10
32.0557302955
 20
34.5270014301
 30
0.0
 10
32.070482595
 20
34.506736142
 30
0.0
 10
32.0770878926
 20
34.489702186
 30
0.0
 10
32.0770878926
 20
34.4791929544
 30
0.0
  0
SPLINE
  5
295
100
AcDbEntity
  8
0
100
AcDbSpline
 62
7
  6
BYLAYER
 70
0
 71
3
 72
10
 73
6
 74
0
 42
0.0000001
 43
0.0000001
 44
0.0000000001
 40
0.0
 40
0.0
 40
0.0
 40
0.0
 40
0.5535855568
 40
0.7914494053
 40
1.0
 40
1.0
 40
1.0
 40
1.0
 10
8.5646093784
 20
49.1607787934
 30
0.0
 10
8.4699680754
 20
49.1306665147
 30
0.0
 10
8.3354015233
 20
49.0850824632
 30
0.0
 10
8.1683180257
 20
49.019673053
 30
0.0
 10
8.0948796085
 20
48.987635228
 30
0.0
 10
8.0610096711
 20
48.9717380983
 30
0.0
  0
SPLINE
  5
296
100
AcDbEntity
  8
0
100
AcDbSpline
 62
7
  6
BYLAYER
 70
0
 71
3
 72
9
 73
5
 74
0
 42
0.0000001
 43
0.0000001
 44
0.0000000001
 40
0.0
 40
0.0
 40
0.0
 40
0.0
 40
0.2782517624
 40
1.0
 40
1.0
 40
1.0
 40
1.0
 10
8.0610096711
 20
48.9717380983
 30
0.0
 10
8.0436780362
 20
48.9641015703
 30
0.0
 10
7.9827840822
 20
48.9338078726
 30
0.0
 10
7.9273508566
 20
48.8910973275
 30
0.0
 10
7.8956491206
 20
48.8535686534
 30
0.0
  0
SPLINE
  5
297
100
AcDbEntity
  8
0
100
AcDbSpline
 62
7
  6
BYLAYER
 70
0
 71
3
 72
11
 73
7
 74
0
 42
0.0000001
 43
0.0000001
 44
0.0000000001
 40
0.0
 40
0.0
 40
0.0
 40
0.0
 40
0.1811775458
 40
0.401214314
 40
0.6727476841
 40
1.0
 40
1.0
 40
1.0
 40
1.0
 10
7.8956491206
 20
48.8535686534
 30
0.0
 10
7.8833629811
 20
48.832467274
 30
0.0
 10
7.863149307
 20
48.7816859533
 30
0.0
 10
7.8455398545
 20
48.692501417
 30
0.0
 10
7.8365535938
 20
48.5823676572
 30
0.0
 10
7.8349062081
 20
48.5016655429
 30
0.0
 10
7.8346737106
 20
48.4575618803
 30
0.0
  0
SPLINE
  5
298
100
AcDbEntity
  8
0
100
AcDbSpline
 62
7
  6
BYLAYER
 70
0
 71
3
 72
9
 73
5
 74
0
 42
0.0000001
 43
0.0000001
 44
0.0000000001
 40
0.0
 40
0.0
 40
0.0
 40
0.0
 40
0.5132927233
 40
1.0
 40
1.0
 40
1.0
 40
1.0
 10
8.5646093784
 20
49.1607787934
 30
0.0
 10
9.6798879399
 20
49.5151081
 30
0.0
 10
11.8865888193
 20
50.1041947918
 30
0.0
 10
14.1444945283
 20
50.4572194457
 30
0.0
 10
15.2491607211
 20
50.5617610029
 30
0.0
  0
SPLINE
  5
299
100
AcDbEntity
  8
0
100
AcDbSpline
 62
7
  6
BYLAYER
 70
0
 71
3
 72
12
 73
8
 74
0
 42
0.0000001
 43
0.0000001
 44
0.0000000001
 40
0.0
 40
0.0
 40
0.0
 40
0.0
 40
0.2499769334
 40
0.4999602657
 40
0.6249594028
 40
0.7499623849
 40
1.0
 40
1.0
 40
1.0
 40
1.0
 10
19.1226791589
 20
50.7678291194
 30
0.0
 10
19.0504059597
 20
50.7679860249
 30
0.0
 10
18.9058554249
 20
50.7688231336
 30
0.0
 10
18.7251746774
 20
50.7664896978
 30
0.0
 10
18.580641245
 20
50.763989982
 30
0.0
 10
18.4360996112
 20
50.7609796601
 30
0.0
 10
18.3277254303
 20
50.7573380532
 30
0.0
 10
18.2554808559
 20
50.7547500622
 30
0.0
  0
SPLINE
  5
29A
100
AcDbEntity
  8
0
100
AcDbSpline
 62
7
  6
BYLAYER
 70
0
 71
3
 72
9
 73
5
 74
0
 42
0.0000001
 43
0.0000001
 44
0.0000000001
 40
0.0
 40
0.0
 40
0.0
 40
0.0
 40
0.5132959398
 40
1.0
 40
1.0
 40
1.0
 40
1.0
 10
31.3424498743
 20
49.1605525272
 30
0.0
 10
30.2268190069
 20
49.5150315553
 30
0.0
 10
28.0194201731
 20
50.1043425056
 30
0.0
 10
25.7607824416
 20
50.4574362236
 30
0.0
 10
24.6557662552
 20
50.5619632964
 30
0.0
  0
SPLINE
  5
29B
100
AcDbEntity
  8
0
100
AcDbSpline
 62
7
  6
BYLAYER
 70
0
 71
3
 72
16
 73
12
 74
0
 42
0.0000001
 43
0.0000001
 44
0.0000000001
 40
0.0
 40
0.0
 40
0.0
 40
0.0
 40
0.2101450162
 40
0.3949466943
 40
0.5536201898
 40
0.6861917019
 40
0.7935009502
 40
0.8773567375
 40
0.942541728
 40
0.9713896535
 40
1.0
 40
1.0
 40
1.0
 40
1.0
 10
31.772259644
 20
34.3933238849
 30
0.0
 10
31.7956020057
 20
34.3933308793
 30
0.0
 10
31.8394746397
 20
34.3937065154
 30
0.0
 10
31.9009340461
 20
34.3962786712
 30
0.0
 10
31.9535915999
 20
34.4016294936
 30
0.0
 10
31.9971181677
 20
34.4101332943
 30
0.0
 10
32.0314211941
 20
34.4213471933
 30
0.0
 10
32.0567137726
 20
34.4348185594
 30
0.0
 10
32.0709968178
 20
34.4493377855
 30
0.0
 10
32.0762870422
 20
34.4620608096
 30
0.0
 10
32.0770878926
 20
34.4684792057
 30
0.0
 10
32.0770878926
 20
34.4716571687
 30
0.0
  0
LINE
  5
29C
100
AcDbEntity
  8
0
100
AcDbLine
 62
7
  6
BYLAYER
 10
11.8154118237
 20
22.4567490251
 11
11.815324223
 21
22.4672713216
  0
SPLINE
  5
29D
100
AcDbEntity
  8
0
100
AcDbSpline
 62
7
  6
BYLAYER
 70
0
 71
3
 72
17
 73
13
 74
0
 42
0.0000001
 43
0.0000001
 44
0.0000000001
 40
0.0
 40
0.0
 40
0.0
 40
0.0
 40
0.28283128
 40
0.4201736115
 40
0.5535240664
 40
0.6811934153
 40
0.7421368566
 40
0.8005939093
 40
0.8560603035
 40
0.9079597527
 40
0.9559699984
 40
1.0
 40
1.0
 40
1.0
 40
1.0
 10
28.1329867562
 20
22.2680817142
 30
0.0
 10
28.2171337733
 20
22.0963402901
 30
0.0
 10
28.3449658554
 20
21.8425190887
 30
0.0
 10
28.5249022638
 20
21.5142645172
 30
0.0
 10
28.6622046867
 20
21.2824499688
 30
0.0
 10
28.7824639826
 20
21.1007572964
 30
0.0
 10
28.8830743545
 20
20.9673098259
 30
0.0
 10
28.9592503573
 20
20.8767793572
 30
0.0
 10
29.0373131379
 20
20.796123052
 30
0.0
 10
29.1175151835
 20
20.7278915687
 30
0.0
 10
29.1995612266
 20
20.6749321181
 30
0.0
 10
29.2575421443
 20
20.6508078289
 30
0.0
 10
29.2862514619
 20
20.642921798
 30
0.0
  0
SPLINE
  5
29E
100
AcDbEntity
  8
0
100
AcDbSpline
 62
7
  6
BYLAYER
 70
0
 71
3
 72
14
 73
10
 74
0
 42
0.0000001
 43
0.0000001
 44
0.0000000001
 40
0.0
 40
0.0
 40
0.0
 40
0.0
 40
0.1017603061
 40
0.209906861
 40
0.3254680871
 40
0.4485624188
 40
0.5784731882
 40
0.7142265971
 40
1.0
 40
1.0
 40
1.0
 40
1.0
 10
29.4546038986
 20
20.642921798
 30
0.0
 10
29.4798028639
 20
20.6502251121
 30
0.0
 10
29.5299051795
 20
20.6721662474
 30
0.0
 10
29.5986689245
 20
20.720956708
 30
0.0
 10
29.662813841
 20
20.783659481
 30
0.0
 10
29.7224963628
 20
20.8578070401
 30
0.0
 10
29.7783046366
 20
20.941181369
 30
0.0
 10
29.84924832
 20
21.0644756315
 30
0.0
 10
29.89573388
 20
21.162921065
 30
0.0
 10
29.9250005407
 20
21.2305374738
 30
0.0
  0
SPLINE
  5
29F
100
AcDbEntity
  8
0
100
AcDbSpline
 62
7
  6
BYLAYER
 70
0
 71
3
 72
11
 73
7
 74
0
 42
0.0000001
 43
0.0000001
 44
0.0000000001
 40
0.0
 40
0.0
 40
0.0
 40
0.0
 40
0.2500422718
 40
0.500043822
 40
0.7500273005
 40
1.0
 40
1.0
 40
1.0
 40
1.0
 10
18.2554773552
 20
50.7546703545
 30
0.0
 10
18.3262568152
 20
50.7570976425
 30
0.0
 10
18.4677930235
 20
50.7624063267
 30
0.0
 10
18.6801946845
 20
50.7664260496
 30
0.0
 10
18.8925898853
 20
50.7698113611
 30
0.0
 10
19.0342001267
 20
50.7691195032
 30
0.0
 10
19.1050014894
 20
50.7691180665
 30
0.0
  0
LINE
  5
2A0
100
AcDbEntity
  8
0
100
AcDbLine
 62
7
  6
BYLAYER
 10
28.0917350306
 20
22.4672713216
 11
28.0916474298
 21
22.4567490251
  0
SPLINE
  5
2A1
100
AcDbEntity
  8
0
100
AcDbSpline
 62
7
  6
BYLAYER
 70
0
 71
3
 72
14
 73
10
 74
0
 42
0.0000001
 43
0.0000001
 44
0.0000000001
 40
0.0
 40
0.0
 40
0.0
 40
0.0
 40
0.2857720685
 40
0.421524476
 40
0.5514365659
 40
0.6745290108
 40
0.7900913829
 40
0.8982399493
 40
1.0
 40
1.0
 40
1.0
 40
1.0
 10
9.9820591842
 20
21.2305385863
 30
0.0
 10
10.0113259219
 20
21.1629224655
 30
0.0
 10
10.0578100457
 20
21.0644767918
 30
0.0
 10
10.1287543895
 20
20.9411830201
 30
0.0
 10
10.1845600789
 20
20.8578072856
 30
0.0
 10
10.2442435923
 20
20.7836599274
 30
0.0
 10
10.3083909474
 20
20.7209590876
 30
0.0
 10
10.3771546686
 20
20.6721674391
 30
0.0
 10
10.4272571338
 20
20.6502250485
 30
0.0
 10
10.4524560899
 20
20.642921798
 30
0.0
  0
SPLINE
  5
2A2
100
AcDbEntity
  8
0
100
AcDbSpline
 62
7
  6
BYLAYER
 70
0
 71
3
 72
15
 73
11
 74
0
 42
0.0000001
 43
0.0000001
 44
0.0000000001
 40
0.0
 40
0.0
 40
0.0
 40
0.0
 40
0.2675250201
 40
0.3323529534
 40
0.3963835835
 40
0.5221390951
 40
0.6450495427
 40
0.7654155829
 40
0.8835957487
 40
1.0
 40
1.0
 40
1.0
 40
1.0
 10
15.2491607211
 20
50.5617610029
 30
0.0
 10
16.1840428321
 20
50.6502348051
 30
0.0
 10
17.3530289944
 20
50.7002407152
 30
0.0
 10
18.7437695516
 20
50.6556970342
 30
0.0
 10
19.6359012557
 20
50.5999851243
 30
0.0
 10
20.727887354
 20
50.4815087617
 30
0.0
 10
22.0048775039
 20
50.2586678394
 30
0.0
 10
23.2382814983
 20
49.9568805389
 30
0.0
 10
24.425830619
 20
49.5766722478
 30
0.0
 10
25.1907775076
 20
49.2695629782
 30
0.0
 10
25.5640684279
 20
49.1034090909
 30
0.0
  0
SPLINE
  5
2A3
100
AcDbEntity
  8
0
100
AcDbSpline
 62
7
  6
BYLAYER
 70
0
 71
3
 72
13
 73
9
 74
0
 42
0.0000001
 43
0.0000001
 44
0.0000000001
 40
0.0
 40
0.0
 40
0.0
 40
0.0
 40
0.1259303436
 40
0.251866719
 40
0.3777236859
 40
0.5033622625
 40
0.7530894583
 40
1.0
 40
1.0
 40
1.0
 40
1.0
 10
26.7554797616
 20
48.4572934692
 30
0.0
 10
26.7537747852
 20
48.4805218641
 30
0.0
 10
26.7443869618
 20
48.5267117396
 30
0.0
 10
26.7152749134
 20
48.5907001055
 30
0.0
 10
26.6755531134
 20
48.6484472996
 30
0.0
 10
26.6128936716
 20
48.7170538155
 30
0.0
 10
26.5220740555
 20
48.7889050629
 30
0.0
 10
26.4416976865
 20
48.8340656604
 30
0.0
 10
26.4004055764
 20
48.8535686534
 30
0.0
  0
SPLINE
  5
2A4
100
AcDbEntity
  8
0
100
AcDbSpline
 62
7
  6
BYLAYER
 70
0
 71
3
 72
9
 73
5
 74
0
 42
0.0000001
 43
0.0000001
 44
0.0000000001
 40
0.0
 40
0.0
 40
0.0
 40
0.0
 40
0.5115740845
 40
1.0
 40
1.0
 40
1.0
 40
1.0
 10
26.4004055764
 20
48.8535686534
 30
0.0
 10
26.331980709
 20
48.8758444336
 30
0.0
 10
26.1977866604
 20
48.9180570501
 30
0.0
 10
26.0621111324
 20
48.9554148088
 30
0.0
 10
25.9953749963
 20
48.9717380983
 30
0.0
  0
SPLINE
  5
2A5
100
AcDbEntity
  8
0
100
AcDbSpline
 62
7
  6
BYLAYER
 70
0
 71
3
 72
9
 73
5
 74
0
 42
0.0000001
 43
0.0000001
 44
0.0000000001
 40
0.0
 40
0.0
 40
0.0
 40
0.0
 40
0.5254678899
 40
1.0
 40
1.0
 40
1.0
 40
1.0
 10
25.9953749963
 20
48.9717380983
 30
0.0
 10
25.9189193783
 20
48.9916587678
 30
0.0
 10
25.7740908388
 20
49.0322163737
 30
0.0
 10
25.6311694765
 20
49.0791559484
 30
0.0
 10
25.5640684279
 20
49.1034090909
 30
0.0
  0
SPLINE
  5
2A6
100
AcDbEntity
  8
0
100
AcDbSpline
 62
7
  6
BYLAYER
 70
0
 71
3
 72
34
 73
30
 74
0
 42
0.0000001
 43
0.0000001
 44
0.0000000001
 40
0.0
 40
0.0
 40
0.0
 40
0.0
 40
0.0032381439
 40
0.0067714043
 40
0.0140910374
 40
0.0215732138
 40
0.0291631548
 40
0.0368000358
 40
0.0444739284
 40
0.0598981803
 40
0.0753814144
 40
0.0909059298
 40
0.1064593634
 40
0.1220325404
 40
0.153225381
 40
0.1844616281
 40
0.2157272608
 40
0.2470155075
 40
0.2783206648
 40
0.3096394962
 40
0.372309817
 40
0.4350121161
 40
0.4977376089
 40
0.5604820456
 40
0.6232419466
 40
0.6860143453
 40
0.7487966588
 40
0.8743850066
 40
1.0
 40
1.0
 40
1.0
 40
1.0
 10
31.7973679996
 20
35.5348460773
 30
0.0
 10
31.803098842
 20
35.5443621095
 30
0.0
 10
31.8126271223
 20
35.5657153273
 30
0.0
 10
31.8269328582
 20
35.6119023449
 30
0.0
 10
31.8410539618
 20
35.6732712475
 30
0.0
 10
31.8544840413
 20
35.7489100117
 30
0.0
 10
31.8658605866
 20
35.8259869146
 30
0.0
 10
31.8759353092
 20
35.9039016792
 30
0.0
 10
31.8878441523
 20
36.0086668276
 30
0.0
 10
31.9005543915
 20
36.1404161037
 30
0.0
 10
31.9137301821
 20
36.2991579331
 30
0.0
 10
31.9252155641
 20
36.4584750427
 30
0.0
 10
31.9354273171
 20
36.6181865486
 30
0.0
 10
31.9478112704
 20
36.8316152373
 30
0.0
 10
31.9611664603
 20
37.0988723824
 30
0.0
 10
31.9748334052
 20
37.4200028401
 30
0.0
 10
31.9867322671
 20
37.7415308004
 30
0.0
 10
31.997154121
 20
38.0633460082
 30
0.0
 10
32.0064098649
 20
38.3853791561
 30
0.0
 10
32.0174153563
 20
38.8150604139
 30
0.0
 10
32.0289949296
 20
39.3524673014
 30
0.0
 10
32.0402867361
 20
39.9976395191
 30
0.0
 10
32.0495080796
 20
40.6430986584
 30
0.0
 10
32.0569755106
 20
41.288777792
 30
0.0
 10
32.062967215
 20
41.934633039
 30
0.0
 10
32.0676981834
 20
42.5806285722
 30
0.0
 10
32.0725570281
 20
43.4421604233
 30
0.0
 10
32.0762306733
 20
44.5192820688
 30
0.0
 10
32.0770878926
 20
45.3810344022
 30
0.0
 10
32.0770878926
 20
45.8119561166
 30
0.0
  0
SPLINE
  5
2A7
100
AcDbEntity
  8
0
100
AcDbSpline
 62
7
  6
BYLAYER
 70
0
 71
3
 72
35
 73
31
 74
0
 42
0.0000001
 43
0.0000001
 44
0.0000000001
 40
0.0
 40
0.0
 40
0.0
 40
0.0
 40
0.1251179727
 40
0.2502362225
 40
0.3127952613
 40
0.375354027
 40
0.437912291
 40
0.5004697184
 40
0.5630258023
 40
0.6255797374
 40
0.6881301804
 40
0.7194034611
 40
0.7506748383
 40
0.7819436248
 40
0.8132087796
 40
0.8444686226
 40
0.8757202342
 40
0.8913414765
 40
0.9069581928
 40
0.9225685351
 40
0.9381693744
 40
0.9537548122
 40
0.9615384597
 40
0.9693123834
 40
0.9770712223
 40
0.9848038901
 40
0.9886535373
 40
0.9924836284
 40
0.996277929
 40
1.0
 40
1.0
 40
1.0
 40
1.0
 10
26.7554797616
 20
48.4572934692
 30
0.0
 10
26.7813343548
 20
47.9161312509
 30
0.0
 10
26.834652446
 20
46.8338817861
 30
0.0
 10
26.9058415268
 20
45.4813002497
 30
0.0
 10
26.9662356692
 20
44.3994243632
 30
0.0
 10
27.0134620685
 20
43.5881315122
 30
0.0
 10
27.0628890821
 20
42.7769764804
 30
0.0
 10
27.1148608957
 20
41.9659917693
 30
0.0
 10
27.169827935
 20
41.1552226167
 30
0.0
 10
27.2284071238
 20
40.3447360185
 30
0.0
 10
27.2809538298
 20
39.6696342277
 30
0.0
 10
27.3259003548
 20
39.1298204999
 30
0.0
 10
27.3613095152
 20
38.7251390416
 30
0.0
 10
27.3987284833
 20
38.3206732845
 30
0.0
 10
27.4385798271
 20
37.9164889291
 30
0.0
 10
27.4814673613
 20
37.5126890612
 30
0.0
 10
27.52048194
 20
37.1766112459
 30
0.0
 10
27.5544131666
 20
36.9081555695
 30
0.0
 10
27.5815182823
 20
36.7071116316
 30
0.0
 10
27.6106841489
 20
36.5064434395
 30
0.0
 10
27.642520975
 20
36.306316966
 30
0.0
 10
27.6720790072
 20
36.1401631715
 30
0.0
 10
27.6984497382
 20
36.007907872
 30
0.0
 10
27.7199745244
 20
35.9092570765
 30
0.0
 10
27.7438485093
 20
35.8113741492
 30
0.0
 10
27.7665451184
 20
35.7307196196
 30
0.0
 10
27.7874571523
 20
35.6673341029
 30
0.0
 10
27.8049609468
 20
35.6207995553
 30
0.0
 10
27.8251843236
 20
35.5760188451
 30
0.0
 10
27.8416079769
 20
35.5476891751
 30
0.0
 10
27.8513453525
 20
35.5348460774
 30
0.0
  0
SPLINE
  5
2A8
100
AcDbEntity
  8
0
100
AcDbSpline
 62
7
  6
BYLAYER
 70
0
 71
3
 72
11
 73
7
 74
0
 42
0.0000001
 43
0.0000001
 44
0.0000000001
 40
0.0
 40
0.0
 40
0.0
 40
0.0
 40
0.2523223888
 40
0.5015405296
 40
0.7500122814
 40
1.0
 40
1.0
 40
1.0
 40
1.0
 10
25.3352035006
 20
35.0311477
 30
0.0
 10
25.170941332
 20
35.1142205277
 30
0.0
 10
24.8345479593
 20
35.2606533162
 30
0.0
 10
24.3091936458
 20
35.4180204503
 30
0.0
 10
23.7705161782
 20
35.511249553
 30
0.0
 10
23.4065146932
 20
35.5312299793
 30
0.0
 10
23.2241441025
 20
35.5312362913
 30
0.0
  0
SPLINE
  5
2A9
100
AcDbEntity
  8
0
100
AcDbSpline
 62
7
  6
BYLAYER
 70
0
 71
3
 72
17
 73
13
 74
0
 42
0.0000001
 43
0.0000001
 44
0.0000000001
 40
0.0
 40
0.0
 40
0.0
 40
0.0
 40
0.0440298176
 40
0.092038815
 40
0.1439377438
 40
0.1994044552
 40
0.2578606556
 40
0.3188045074
 40
0.4464738451
 40
0.5798247965
 40
0.7171678096
 40
1.0
 40
1.0
 40
1.0
 40
1.0
 10
10.6208085671
 20
20.642921798
 30
0.0
 10
10.6495177465
 20
20.650807853
 30
0.0
 10
10.7074981623
 20
20.6749305661
 30
0.0
 10
10.7895436177
 20
20.7278888468
 30
0.0
 10
10.8697429034
 20
20.7961220723
 30
0.0
 10
10.9478051024
 20
20.8767777449
 30
0.0
 10
11.023983133
 20
20.9673064222
 30
0.0
 10
11.1245927856
 20
21.1007540752
 30
0.0
 10
11.2448537442
 20
21.2824462949
 30
0.0
 10
11.3821561687
 20
21.5142617931
 30
0.0
 10
11.5620925218
 20
21.8425179477
 30
0.0
 10
11.6899253158
 20
22.0963399681
 30
0.0
 10
11.7740725995
 20
22.2680819302
 30
0.0
  0
SPLINE
  5
2AA
100
AcDbEntity
  8
0
100
AcDbSpline
 62
7
  6
BYLAYER
 70
0
 71
3
 72
19
 73
15
 74
0
 42
0.0000001
 43
0.0000001
 44
0.0000000001
 40
0.0
 40
0.0
 40
0.0
 40
0.0
 40
0.1192888965
 40
0.1827747926
 40
0.2480875645
 40
0.314735011
 40
0.3822342586
 40
0.5177900157
 40
0.6507976574
 40
0.715192795
 40
0.777614942
 40
0.8376817175
 40
0.8950088576
 40
1.0
 40
1.0
 40
1.0
 40
1.0
 10
27.8887579905
 20
34.3932809055
 30
0.0
 10
27.7946015289
 20
34.3935705638
 30
0.0
 10
27.6503548528
 20
34.3996180086
 30
0.0
 10
27.4550364166
 20
34.4135335324
 30
0.0
 10
27.3013547177
 20
34.4271139905
 30
0.0
 10
27.144810072
 20
34.4439484796
 30
0.0
 10
26.933659097
 20
34.4711459712
 30
0.0
 10
26.6716441971
 20
34.5129354879
 30
0.0
 10
26.4137216569
 20
34.5637481016
 30
0.0
 10
26.2138360037
 20
34.6096987394
 30
0.0
 10
26.07080298
 20
34.6458093828
 30
0.0
 10
25.9339093833
 20
34.6833405911
 30
0.0
 10
25.7655642201
 20
34.7330313251
 30
0.0
 10
25.6438642484
 20
34.7734661293
 30
0.0
 10
25.566440531
 20
34.8030167915
 30
0.0
  0
SPLINE
  5
2AB
100
AcDbEntity
  8
0
100
AcDbSpline
 62
7
  6
BYLAYER
 70
0
 71
3
 72
19
 73
15
 74
0
 42
0.0000001
 43
0.0000001
 44
0.0000000001
 40
0.0
 40
0.0
 40
0.0
 40
0.0
 40
0.1052918429
 40
0.1626656869
 40
0.2227058598
 40
0.285074409
 40
0.3494189871
 40
0.4823524665
 40
0.6178709359
 40
0.6853724357
 40
0.7520224892
 40
0.8173156624
 40
0.8807573547
 40
1.0
 40
1.0
 40
1.0
 40
1.0
 10
25.566440531
 20
34.8030167915
 30
0.0
 10
25.6435654077
 20
34.7718477208
 30
0.0
 10
25.7643474129
 20
34.7276253455
 30
0.0
 10
25.9321980059
 20
34.6748001548
 30
0.0
 10
26.0689963897
 20
34.636498526
 30
0.0
 10
26.2120919163
 20
34.6004880552
 30
0.0
 10
26.4121156629
 20
34.5549357168
 30
0.0
 10
26.6702430501
 20
34.5045221966
 30
0.0
 10
26.9326719516
 20
34.4643288626
 30
0.0
 10
27.1440836601
 20
34.4378802857
 30
0.0
 10
27.3007778616
 20
34.4211958229
 30
0.0
 10
27.4546019427
 20
34.4081308131
 30
0.0
 10
27.6501959416
 20
34.3966180357
 30
0.0
 10
27.7945515401
 20
34.3935425069
 30
0.0
 10
27.8887579905
 20
34.3932809055
 30
0.0
  0
SPLINE
  5
2AC
100
AcDbEntity
  8
0
100
AcDbSpline
 62
7
  6
BYLAYER
 70
0
 71
3
 72
16
 73
12
 74
0
 42
0.0000001
 43
0.0000001
 44
0.0000000001
 40
0.0
 40
0.0
 40
0.0
 40
0.0
 40
0.0294656084
 40
0.05917739
 40
0.1255111912
 40
0.2094405211
 40
0.3162871633
 40
0.448473745
 40
0.606843309
 40
0.790974739
 40
1.0
 40
1.0
 40
1.0
 40
1.0
 10
32.0770878926
 20
34.4791929544
 30
0.0
 10
32.0770878926
 20
34.4759007333
 30
0.0
 10
32.0762848758
 20
34.469254988
 30
0.0
 10
32.0710504329
 20
34.4560868222
 30
0.0
 10
32.056909952
 20
34.4409328936
 30
0.0
 10
32.0314996331
 20
34.4270393919
 30
0.0
 10
31.9970912568
 20
34.4157684261
 30
0.0
 10
31.9535732633
 20
34.4067089202
 30
0.0
 10
31.9010045985
 20
34.399446839
 30
0.0
 10
31.8395532861
 20
34.3944661996
 30
0.0
 10
31.7956142364
 20
34.3933357047
 30
0.0
 10
31.772259644
 20
34.3933238849
 30
0.0
  0
ELLIPSE
  5
2AD
100
AcDbEntity
  8
0
100
AcDbEllipse
 62
7
  6
BYLAYER
 10
14.6556590858
 20
-9.3357288031
 30
0.0
 11
0.0
 21
28.7445147379
 31
0.0
 40
0.0174550649
 41
1.0242914156
 42
1.0724686148
  0
ELLIPSE
  5
2AE
100
AcDbEntity
  8
0
100
AcDbEllipse
 62
7
  6
BYLAYER
 10
19.9535296268
 20
37.7009217976
 30
0.0
 11
0.0
 21
162.8571428998
 31
0.0
 40
0.0875
 41
-4.6386379301
 42
-4.6312473392
  0
ELLIPSE
  5
2AF
100
AcDbEntity
  8
0
100
AcDbEllipse
 62
7
  6
BYLAYER
 10
19.9535296268
 20
37.7009217976
 30
0.0
 11
0.0
 21
162.8571428998
 31
0.0
 40
0.0875
 41
-1.651937968
 42
-1.6445473771
  0
ELLIPSE
  5
2B0
100
AcDbEntity
  8
0
100
AcDbEllipse
 62
7
  6
BYLAYER
 10
19.9535296268
 20
223.3047759943
 30
0.0
 11
0.0
 21
509.8806585133
 31
0.0
 40
0.0174550649
 41
-4.2712537498
 42
-4.2686494957
  0
ELLIPSE
  5
2B1
100
AcDbEntity
  8
0
100
AcDbEllipse
 62
7
  6
BYLAYER
 10
10.1270710356
 20
8.1028967427
 30
0.0
 11
0.5000250562
 21
0.0
 31
0.0
 40
1.0
 41
3.1415926536
 42
3.5017062496
  0
ELLIPSE
  5
2B2
100
AcDbEntity
  8
0
100
AcDbEllipse
 62
7
  6
BYLAYER
 10
19.9509758995
 20
11.8015128302
 30
0.0
 11
10.9971135921
 21
-0.0
 31
0.0
 40
1.0
 41
-2.7815134241
 42
-2.5427871874
  0
ELLIPSE
  5
2B3
100
AcDbEntity
  8
0
100
AcDbEllipse
 62
7
  6
BYLAYER
 10
29.780063159
 20
8.1029486024
 30
0.0
 11
0.4999731966
 21
0.0
 31
0.0
 40
1.0
 41
-0.2182628097
 42
0.0
  0
ELLIPSE
  5
2B4
100
AcDbEntity
  8
0
100
AcDbEllipse
 62
7
  6
BYLAYER
 10
19.9509758995
 20
11.8015128302
 30
0.0
 11
10.9971135921
 21
-0.0
 31
0.0
 40
1.0
 41
-0.5988054662
 42
-0.3534812045
  0
ELLIPSE
  5
2B5
100
AcDbEntity
  8
0
100
AcDbEllipse
 62
7
  6
BYLAYER
 10
19.9535296268
 20
223.3047759943
 30
0.0
 11
0.0
 21
509.8806585133
 31
0.0
 40
0.0174550649
 41
-2.0145358115
 42
-2.0119315574
  0
ELLIPSE
  5
2B6
100
AcDbEntity
  8
0
100
AcDbEllipse
 62
7
  6
BYLAYER
 10
25.2513910148
 20
-9.3359583769
 30
0.0
 11
0.0
 21
28.7450394449
 31
0.0
 40
0.0174550649
 41
-1.072469455
 42
-1.0242931714
  0
ELLIPSE
  5
2B7
100
AcDbEntity
  8
0
100
AcDbEllipse
 62
7
  6
BYLAYER
 10
19.4709263337
 20
203.5284505591
 30
0.0
 11
-0.0
 21
414.2700652642
 31
0.0
 40
0.0174550649
 41
-4.2142752569
 42
-4.2109749532
  0
ELLIPSE
  5
2B8
100
AcDbEntity
  8
0
100
AcDbEllipse
 62
7
  6
BYLAYER
 10
20.4361329198
 20
203.528450559
 30
0.0
 11
-0.0
 21
414.2700652641
 31
0.0
 40
0.0174550649
 41
-2.072210354
 42
-2.0689100503
  0
ENDSEC
  0
SECTION
  2
OBJECTS
  0
DICTIONARY
  5
C
100
AcDbDictionary
280
0
281
1
  3
ACAD_GROUP
350
D
  3
ACAD_MLINESTYLE
350
17
  3
ACAD_LAYOUT
350
1A
  3
ACAD_PLOTSETTINGS
350
19
  3
ACAD_PLOTSTYLENAME
350
E
  0
DICTIONARY
  5
D
102
{ACAD_REACTORS
330
C
102
}
100
AcDbDictionary
280
0
281
1
  0
ACDBDICTIONARYWDFLT
  5
E
102
{ACAD_REACTORS
330
C
102
}
100
AcDbDictionary
281
1
  3
Normal
350
F
100
AcDbDictionaryWithDefault
340
F
  0
DICTIONARY
  5
17
102
{ACAD_REACTORS
330
C
102
}
100
AcDbDictionary
280
0
281
1
  3
Standard
350
18
  0
DICTIONARY
  5
19
102
{ACAD_REACTORS
330
C
102
}
100
AcDbDictionary
281
1
  0
DICTIONARY
  5
1A
102
{ACAD_REACTORS
330
C
102
}
100
AcDbDictionary
281
1
  3
Model
350
2B9
  3
Layout1
350
2BA
  0
ACDBPLACEHOLDER
  5
F
102
{ACAD_REACTORS
330
E
102
}
  0
MLINESTYLE
  5
18
102
{ACAD_REACTORS
330
17
102
}
100
AcDbMlineStyle
  2
STANDARD
 70
0
  3

 62
256
 51
90.0
 52
90.0
 71
2
 49
0.5
 62
256
  6
BYLAYER
 49
-0.5
 62
256
  6
BYLAYER
  0
LAYOUT
  5
2B9
102
{ACAD_REACTORS
330
1A
102
}
100
AcDbPlotSettings
  1

  2
none_device
  4

  6

 40
0.0
 41
0.0
 42
0.0
 43
0.0
 44
210.0
 45
297.0
 46
0.0
 47
0.0
 48
0.0
 49
0.0
140
0.0
141
0.0
142
1.0
143
1.0
 70
1024
 72
1
 73
0
 74
0
  7

 75
0
147
1.0
148
0.0
149
0.0
100
AcDbLayout
  1
Model
 70
0
 71
0
 10
0.0
 20
0.0
 11
210.0
 21
297.0
 12
0.0
 22
0.0
 32
0.0
 14
0.0
 24
0.0
 34
0.0
 15
0.0
 25
0.0
 35
0.0
146
0.0
 13
0.0
 23
0.0
 33
0.0
 16
1.0
 26
0.0
 36
0.0
 17
0.0
 27
1.0
 37
0.0
 76
0
330
210
345
0
346
0
  0
LAYOUT
  5
2BA
102
{ACAD_REACTORS
330
1A
102
}
100
AcDbPlotSettings
  1

  2
none_device
  4

  6

 40
0.0
 41
0.0
 42
0.0
 43
0.0
 44
210.0
 45
297.0
 46
0.0
 47
0.0
 48
0.0
 49
0.0
140
0.0
141
0.0
142
1.0
143
1.0
 70
0
 72
1
 73
0
 74
0
  7

 75
0
147
1.0
148
0.0
149
0.0
100
AcDbLayout
  1
Layout1
 70
0
 71
1
 10
0.0
 20
0.0
 11
210.0
 21
297.0
 12
0.0
 22
0.0
 32
0.0
 14
0.0
 24
0.0
 34
0.0
 15
0.0
 25
0.0
 35
0.0
146
0.0
 13
0.0
 23
0.0
 33
0.0
 16
1.0
 26
0.0
 36
0.0
 17
0.0
 27
1.0
 37
0.0
 76
0
330
211
345
0
346
0
  0
ENDSEC
  0
EOF
