  0
SECTION
  2
HEADER
  9
$ACADVER
  1
AC1014
  9
$ACADMAINTVER
 70
     0
  9
$DWGCODEPAGE
  3
ANSI_1252
  9
$INSBASE
 10
0.0
 20
0.0
 30
0.0
  9
$EXTMIN
 10
-0.048425
 20
-0.545528
 30
0.0
  9
$EXTMAX
 10
2.874016
 20
0.545528
 30
0.0
  9
$LIMMIN
 10
0.0
 20
0.0
  9
$LIMMAX
 10
0.0
 20
0.0
  9
$ORTHOMODE
 70
     0
  9
$REGENMODE
 70
     1
  9
$FILLMODE
 70
     1
  9
$QTEXTMODE
 70
     0
  9
$MIRRTEXT
 70
     1
  9
$DRAGMODE
 70
     2
  9
$LTSCALE
 40
1.0
  9
$OSMODE
 70
     0
  9
$ATTMODE
 70
     1
  9
$TEXTSIZE
 40
0.2
  9
$TRACEWID
 40
0.05
  9
$TEXTSTYLE
  7
STANDARD
  9
$CLAYER
  8
0
  9
$CELTYPE
  6
CONTINUOUS
  9
$CECOLOR
 62
   256
  9
$CELTSCALE
 40
1.0
  9
$DELOBJ
 70
     1
  9
$DISPSILH
 70
     0
  9
$DIMSCALE
 40
1.0
  9
$DIMASZ
 40
0.18
  9
$DIMEXO
 40
0.0625
  9
$DIMDLI
 40
0.38
  9
$DIMRND
 40
0.0
  9
$DIMDLE
 40
0.0
  9
$DIMEXE
 40
0.18
  9
$DIMTP
 40
0.0
  9
$DIMTM
 40
0.0
  9
$DIMTXT
 40
0.18
  9
$DIMCEN
 40
0.09
  9
$DIMTSZ
 40
0.0
  9
$DIMTOL
 70
     0
  9
$DIMLIM
 70
     0
  9
$DIMTIH
 70
     1
  9
$DIMTOH
 70
     1
  9
$DIMSE1
 70
     0
  9
$DIMSE2
 70
     0
  9
$DIMTAD
 70
     0
  9
$DIMZIN
 70
     0
  9
$DIMBLK
  1

  9
$DIMASO
 70
     1
  9
$DIMSHO
 70
     1
  9
$DIMPOST
  1

  9
$DIMAPOST
  1

  9
$DIMALT
 70
     0
  9
$DIMALTD
 70
     2
  9
$DIMALTF
 40
25.4
  9
$DIMLFAC
 40
1.0
  9
$DIMTOFL
 70
     0
  9
$DIMTVP
 40
0.0
  9
$DIMTIX
 70
     0
  9
$DIMSOXD
 70
     0
  9
$DIMSAH
 70
     0
  9
$DIMBLK1
  1

  9
$DIMBLK2
  1

  9
$DIMSTYLE
  2
STANDARD
  9
$DIMCLRD
 70
     0
  9
$DIMCLRE
 70
     0
  9
$DIMCLRT
 70
     0
  9
$DIMTFAC
 40
1.0
  9
$DIMGAP
 40
0.09
  9
$DIMJUST
 70
     0
  9
$DIMSD1
 70
     0
  9
$DIMSD2
 70
     0
  9
$DIMTOLJ
 70
     1
  9
$DIMTZIN
 70
     0
  9
$DIMALTZ
 70
     0
  9
$DIMALTTZ
 70
     0
  9
$DIMFIT
 70
     3
  9
$DIMUPT
 70
     0
  9
$DIMUNIT
 70
     2
  9
$DIMDEC
 70
     4
  9
$DIMTDEC
 70
     4
  9
$DIMALTU
 70
     2
  9
$DIMALTTD
 70
     2
  9
$DIMTXSTY
  7
STANDARD
  9
$DIMAUNIT
 70
     0
  9
$LUNITS
 70
     2
  9
$LUPREC
 70
     4
  9
$SKETCHINC
 40
0.1
  9
$FILLETRAD
 40
0.0
  9
$AUNITS
 70
     0
  9
$AUPREC
 70
     0
  9
$MENU
  1
acad
  9
$ELEVATION
 40
0.0
  9
$PELEVATION
 40
0.0
  9
$THICKNESS
 40
0.0
  9
$LIMCHECK
 70
     0
  9
$BLIPMODE
 70
     1
  9
$CHAMFERA
 40
0.0
  9
$CHAMFERB
 40
0.0
  9
$CHAMFERC
 40
0.0
  9
$CHAMFERD
 40
0.0
  9
$SKPOLY
 70
     0
  9
$TDCREATE
 40
0.000000000
  9
$TDUPDATE
 40
0.000000000
  9
$TDINDWG
 40
0.0000000000
  9
$TDUSRTIMER
 40
0.0000000000
  9
$USRTIMER
 70
     1
  9
$ANGBASE
 50
0.0
  9
$ANGDIR
 70
     0
  9
$PDMODE
 70
     0
  9
$PDSIZE
 40
0.0
  9
$PLINEWID
 40
0.0
  9
$COORDS
 70
     0
  9
$SPLFRAME
 70
     0
  9
$SPLINETYPE
 70
     6
  9
$SPLINESEGS
 70
     8
  9
$ATTDIA
 70
     0
  9
$ATTREQ
 70
     1
  9
$HANDLING
 70
     1
  9
$HANDSEED
  5
8E1
  9
$SURFTAB1
 70
     6
  9
$SURFTAB2
 70
     6
  9
$SURFTYPE
 70
     6
  9
$SURFU
 70
     6
  9
$SURFV
 70
     6
  9
$UCSNAME
  2

  9
$UCSORG
 10
0.0
 20
0.0
 30
0.0
  9
$UCSXDIR
 10
1.0
 20
0.0
 30
0.0
  9
$UCSYDIR
 10
0.0
 20
1.0
 30
0.0
  9
$PUCSNAME
  2

  9
$PUCSORG
 10
0.0
 20
0.0
 30
0.0
  9
$PUCSXDIR
 10
1.0
 20
0.0
 30
0.0
  9
$PUCSYDIR
 10
0.0
 20
1.0
 30
0.0
  9
$USERI1
 70
     0
  9
$USERI2
 70
     0
  9
$USERI3
 70
     0
  9
$USERI4
 70
     0
  9
$USERI5
 70
     0
  9
$USERR1
 40
0.0
  9
$USERR2
 40
0.0
  9
$USERR3
 40
0.0
  9
$USERR4
 40
0.0
  9
$USERR5
 40
0.0
  9
$WORLDVIEW
 70
     1
  9
$SHADEDGE
 70
     3
  9
$SHADEDIF
 70
    70
  9
$TILEMODE
 70
     1
  9
$MAXACTVP
 70
    16
  9
$PINSBASE
 10
0.0
 20
0.0
 30
0.0
  9
$PLIMCHECK
 70
     0
  9
$PEXTMIN
 10
1.000000E+20
 20
1.000000E+20
 30
1.000000E+20
  9
$PEXTMAX
 10
-1.000000E+20
 20
-1.000000E+20
 30
-1.000000E+20
  9
$PLIMMIN
 10
0.0
 20
0.0
  9
$PLIMMAX
 10
12.0
 20
9.0
  9
$UNITMODE
 70
     0
  9
$VISRETAIN
 70
     0
  9
$PLINEGEN
 70
     1
  9
$PSLTSCALE
 70
     0
  9
$TREEDEPTH
 70
  3020
  9
$PICKSTYLE
 70
     1
  9
$CMLSTYLE
  2
STANDARD
  9
$CMLJUST
 70
     0
  9
$CMLSCALE
 40
1.0
  9
$PROXYGRAPHICS
 70
     0
  9
$MEASUREMENT
 70
     0
  0
ENDSEC
  0
SECTION
  2
CLASSES
  0
CLASS
  1
LWPOLYLINE
  2
AcDbPolyline
  3
"AutoCAD"
 90
        0
280
     0
281
     1
  0
CLASS
  1
IMAGE
  2
AcDbRasterImage
  3
ISM
 90
      127
280
     0
281
     1
  0
CLASS
  1
OLE2FRAME
  2
AcDbOle2Frame
  3
""
 90
        0
280
     0
281
     1
  0
CLASS
  1
HATCH
  2
AcDbHatch
  3
"ACAD_SEDONA"
 90
        0
280
     0
281
     1
  0
CLASS
  1
DICTIONARYVAR
  2
AcDbDictionaryVar
  3
"AutoCAD"
 90
        0
280
     0
281
     0
  0
CLASS
  1
RASTERVARIABLES
  2
AcDbRasterVariables
  3
ISM
 90
        0
280
     0
281
     0
  0
CLASS
  1
IMAGEDEF
  2
AcDbRasterImageDef
  3
ISM
 90
        0
280
     0
281
     0
  0
CLASS
  1
IMAGEDEF_REACTOR
  2
AcDbRasterImageDefReactor
  3
ISM
 90
        1
280
     0
281
     0
  0
CLASS
  1
IDBUFFER
  2
AcDbIdBuffer
  3
"Acad"
 90
        0
280
     0
281
     0
  0
CLASS
  1
SPATIAL_FILTER
  2
AcDbSpatialFilter
  3
"Acad"
 90
        0
280
     0
281
     0
  0
CLASS
  1
XRECORD
  2
AcDbXrecord
  3
"<Built In>"
 90
        0
280
     0
281
     0
  0
CLASS
  1
SORTENTSTABLE
  2
AcDbSortentsTable
  3
"AutoCAD"
 90
        0
280
     0
281
     0
  0
CLASS
  1
LAYER_INDEX
  2
AcDbLayerIndex
  3
"Acad"
 90
        0
280
     0
281
     0
  0
CLASS
  1
SPATIAL_INDEX
  2
AcDbSpatialIndex
  3
"Acad"
 90
        0
280
     0
281
     0
  0
CLASS
  1
OBJECT_PTR
  2
CAseDLPNTableRecord
  3
"ASE-LPNTableRecord"
 90
        1
280
     0
281
     0
  0
CLASS
  1
LAYOUT
  2
AcDbLayout
  3
"AutoCAD 2000"
 90
        0
280
     0
281
     0
  0
CLASS
  1
PLOTSETTINGS
  2
AcDbPlotSettings
  3
"AutoCAD 2000"
 90
        0
280
     0
281
     0
  0
CLASS
  1
ACDBDICTIONARYWDFLT
  2
AcDbDictionaryWithDefault
  3
"AutoCAD 2000"
 90
        0
280
     0
281
     0
  0
CLASS
  1
ACDBPLACEHOLDER
  2
AcDbPlaceHolder
  3
"AutoCAD 2000"
 90
        0
280
     0
281
     0
  0
CLASS
  1
VBA_PROJECT
  2
AcDbVbaProject
  3
"acadvba"
 90
        0
280
     0
281
     0
  0
CLASS
  1
WIPEOUT
  2
AcDbWipeout
  3
WipeOut|AutoCAD Express Tool|expresstools@autodesk.com
 90
      127
280
     0
281
     1
  0
CLASS
  1
WIPEOUTVARIABLES
  2
AcDbWipeoutVariables
  3
WipeOut|AutoCAD Express Tool|expresstools@autodesk.com
 90
        0
280
     0
281
     0
  0
CLASS
  1
RTEXT
  2
RText
  3
RText|AutoCAD Express Tool|expresstools@autodesk.com
 90
        0
280
     0
281
     1
  0
CLASS
  1
ARCALIGNEDTEXT
  2
AcDbArcAlignedText
  3
ATEXT|AutoCAD Express Tool|expresstools@autodesk.com
 90
        0
280
     0
281
     1
  0
ENDSEC
  0
SECTION
  2
TABLES
  0
TABLE
  2
VPORT
  5
7
100
AcDbSymbolTable
 70
     1
  0
VPORT
  5
15
100
AcDbSymbolTableRecord
100
AcDbViewportTableRecord
  2
*ACTIVE
 70
     0
 10
0.0
 20
0.0
 11
1.0
 21
1.0
 12
6.591288
 22
4.579184
 13
0.0
 23
0.0
 14
1.0
 24
1.0
 15
0.0
 25
0.0
 16
0.0
 26
0.0
 36
1.0
 17
0.0
 27
0.0
 37
0.0
 40
9.158369
 41
0.688564
 42
50.0
 43
0.0
 44
0.0
 50
0.0
 51
0.0
 71
     0
 72
   100
 73
     1
 74
     1
 75
     0
 76
     0
 77
     0
 78
     0
  0
ENDTAB
  0
TABLE
  2
LTYPE
  5
4
100
AcDbSymbolTable
 70
     7
  0
LTYPE
  5
11
100
AcDbSymbolTableRecord
100
AcDbLinetypeTableRecord
  2
BYBLOCK
 70
    64
  3

 72
    65
 73
     0
 40
0.0
  0
LTYPE
  5
12
100
AcDbSymbolTableRecord
100
AcDbLinetypeTableRecord
  2
BYLAYER
 70
    64
  3

 72
    65
 73
     0
 40
0.0
  0
LTYPE
  5
13
100
AcDbSymbolTableRecord
100
AcDbLinetypeTableRecord
  2
CONTINUOUS
 70
    64
  3
Solid line
 72
    65
 73
     0
 40
0.0
  0
LTYPE
  5
1F
100
AcDbSymbolTableRecord
100
AcDbLinetypeTableRecord
  2
CENTER
 70
    64
  3
Center ____ _ ____ _ ____ _ ____ _ ____ _ ____
 72
    65
 73
     4
 40
50.8
 49
31.75
 74
     0
 49
-6.35
 74
     0
 49
6.35
 74
     0
 49
-6.35
 74
     0
  0
LTYPE
  5
20
100
AcDbSymbolTableRecord
100
AcDbLinetypeTableRecord
  2
HIDDEN
 70
    64
  3
Hidden __ __ __ __ __ __ __ __ __ __ __ __ __ __
 72
    65
 73
     2
 40
9.525
 49
6.35
 74
     0
 49
-3.175
 74
     0
  0
LTYPE
  5
21
100
AcDbSymbolTableRecord
100
AcDbLinetypeTableRecord
  2
CENTER2
 70
    64
  3
Center (.5x) ___ _ ___ _ ___ _ ___ _ ___ _ ___
 72
    65
 73
     4
 40
28.575
 49
19.05
 74
     0
 49
-3.175
 74
     0
 49
3.175
 74
     0
 49
-3.175
 74
     0
  0
LTYPE
  5
22
100
AcDbSymbolTableRecord
100
AcDbLinetypeTableRecord
  2
HIDDEN2
 70
    64
  3
Hidden (.5x) _ _ _ _ _ _ _ _ _ _ _ _ _ _ _ _ _
 72
    65
 73
     2
 40
4.7625
 49
3.175
 74
     0
 49
-1.5875
 74
     0
  0
ENDTAB
  0
TABLE
  2
LAYER
  5
2
100
AcDbSymbolTable
 70
     7
  0
LAYER
  5
14
100
AcDbSymbolTableRecord
100
AcDbLayerTableRecord
  2
0
 70
     0
 62
     7
  6
CONTINUOUS
  0
LAYER
  5
23
100
AcDbSymbolTableRecord
100
AcDbLayerTableRecord
  2
TRMODEL1
 70
     0
 62
     7
  6
CONTINUOUS
  0
LAYER
  5
24
100
AcDbSymbolTableRecord
100
AcDbLayerTableRecord
  2
TRMODEL3
 70
     0
 62
     7
  6
CONTINUOUS
  0
LAYER
  5
25
100
AcDbSymbolTableRecord
100
AcDbLayerTableRecord
  2
TRDETAIL2
 70
     0
 62
     7
  6
CONTINUOUS
  0
LAYER
  5
26
100
AcDbSymbolTableRecord
100
AcDbLayerTableRecord
  2
TRDETAIL3
 70
     0
 62
     7
  6
CONTINUOUS
  0
LAYER
  5
27
100
AcDbSymbolTableRecord
100
AcDbLayerTableRecord
  2
TRDETAIL4
 70
     0
 62
     7
  6
CONTINUOUS
  0
LAYER
  5
28
100
AcDbSymbolTableRecord
100
AcDbLayerTableRecord
  2
TRDETAIL5
 70
     0
 62
     7
  6
CONTINUOUS
  0
ENDTAB
  0
TABLE
  2
STYLE
  5
3
100
AcDbSymbolTable
 70
     1
  0
STYLE
  5
17
100
AcDbSymbolTableRecord
100
AcDbTextStyleTableRecord
  2
STANDARD
 70
     0
 40
0.0
 41
1.0
 50
0.0
 71
     0
 42
0.0
  3
txt
  4

  0
ENDTAB
  0
TABLE
  2
VIEW
  5
5
100
AcDbSymbolTable
 70
     0
  0
ENDTAB
  0
TABLE
  2
UCS
  5
6
100
AcDbSymbolTable
 70
     0
  0
ENDTAB
  0
TABLE
  2
APPID
  5
8
100
AcDbSymbolTable
 70
     1
  0
APPID
  5
16
100
AcDbSymbolTableRecord
100
AcDbRegAppTableRecord
  2
ACAD
 70
     0
  0
ENDTAB
  0
TABLE
  2
DIMSTYLE
  5
9
100
AcDbSymbolTable
 70
     1
  0
DIMSTYLE
105
18
100
AcDbSymbolTableRecord
100
AcDbDimStyleTableRecord
  2
STANDARD
 70
     0
  3

  4

  5

  6

  7

 40
1.0
 41
0.18
 42
0.0625
 43
0.38
 44
0.18
 45
0.0
 46
0.0
 47
0.0
 48
0.0
 71
     0
 72
     0
 73
     1
 74
     1
 75
     0
 76
     0
 77
     0
 78
     0
140
0.18
141
0.09
142
0.0
143
25.4
144
1.0
145
0.0
146
1.0
147
0.09
170
     0
171
     2
172
     0
173
     0
174
     0
175
     0
176
     0
177
     0
178
     0
270
     2
271
     4
272
     4
273
     2
274
     2
275
     0
280
     0
281
     0
282
     0
283
     1
284
     0
285
     0
286
     0
287
     3
288
     0
340
17
  0
ENDTAB
  0
TABLE
  2
BLOCK_RECORD
  5
1
100
AcDbSymbolTable
 70
     0
  0
BLOCK_RECORD
  5
A
100
AcDbSymbolTableRecord
100
AcDbBlockTableRecord
  2
*MODEL_SPACE
  0
BLOCK_RECORD
  5
B
100
AcDbSymbolTableRecord
100
AcDbBlockTableRecord
  2
*PAPER_SPACE
  0
ENDTAB
  0
ENDSEC
  0
SECTION
  2
BLOCKS
  0
BLOCK
  5
D
100
AcDbEntity
  8
0
100
AcDbBlockBegin
  2
*MODEL_SPACE
 70
     0
 10
0.0
 20
0.0
 30
0.0
  3
*MODEL_SPACE
  1

  0
ENDBLK
  5
E
100
AcDbEntity
  8
0
100
AcDbBlockEnd
  0
BLOCK
  5
F
100
AcDbEntity
 67
     1
  8
0
100
AcDbBlockBegin
  2
*PAPER_SPACE
 70
     0
 10
0.0
 20
0.0
 30
0.0
  3
*PAPER_SPACE
  1

  0
ENDBLK
  5
10
100
AcDbEntity
 67
     1
  8
0
100
AcDbBlockEnd
  0
ENDSEC
  0
SECTION
  2
ENTITIES
  0
LINE
  5
4BF
100
AcDbEntity
  8
TRMODEL1
  6
CONTINUOUS
 62
     7
100
AcDbLine
 10
0.074154
 20
0.354331
 30
0.0
 11
0.074154
 21
-0.354331
 31
0.0
  0
LINE
  5
4C0
100
AcDbEntity
  8
TRMODEL1
  6
CONTINUOUS
 62
     7
100
AcDbLine
 10
1.99435
 20
-0.354331
 30
0.0
 11
1.99435
 21
0.354331
 31
0.0
  0
LINE
  5
4C1
100
AcDbEntity
  8
TRMODEL1
  6
CONTINUOUS
 62
     7
100
AcDbLine
 10
2.834646
 20
-0.212067
 30
0.0
 11
2.834646
 21
0.212067
 31
0.0
  0
LINE
  5
4C2
100
AcDbEntity
  8
TRMODEL1
  6
CONTINUOUS
 62
     7
100
AcDbLine
 10
2.760492
 20
-0.23622
 30
0.0
 11
2.760492
 21
0.23622
 31
0.0
  0
LINE
  5
4C3
100
AcDbEntity
  8
TRMODEL1
  6
CONTINUOUS
 62
     7
100
AcDbLine
 10
2.784646
 20
0.212067
 30
0.0
 11
2.784646
 21
-0.212067
 31
0.0
  0
LINE
  5
4C4
100
AcDbEntity
  8
TRMODEL1
  6
CONTINUOUS
 62
     7
100
AcDbLine
 10
2.465098
 20
0.23622
 30
0.0
 11
2.465098
 21
-0.23622
 31
0.0
  0
LINE
  5
4C5
100
AcDbEntity
  8
TRMODEL1
  6
CONTINUOUS
 62
     7
100
AcDbLine
 10
2.440945
 20
0.212067
 30
0.0
 11
2.440945
 21
-0.212067
 31
0.0
  0
LINE
  5
4C6
100
AcDbEntity
  8
TRMODEL1
  6
CONTINUOUS
 62
     7
100
AcDbLine
 10
2.373445
 20
0.184521
 30
0.0
 11
2.373566
 21
0.183177
 31
0.0
  0
LINE
  5
4C7
100
AcDbEntity
  8
TRMODEL1
  6
CONTINUOUS
 62
     7
100
AcDbLine
 10
2.373566
 20
0.183177
 30
0.0
 11
2.373927
 21
0.181843
 31
0.0
  0
LINE
  5
4C8
100
AcDbEntity
  8
TRMODEL1
  6
CONTINUOUS
 62
     7
100
AcDbLine
 10
2.373927
 20
0.181843
 30
0.0
 11
2.374526
 21
0.180531
 31
0.0
  0
LINE
  5
4C9
100
AcDbEntity
  8
TRMODEL1
  6
CONTINUOUS
 62
     7
100
AcDbLine
 10
2.374526
 20
0.180531
 30
0.0
 11
2.375358
 21
0.179251
 31
0.0
  0
LINE
  5
4CA
100
AcDbEntity
  8
TRMODEL1
  6
CONTINUOUS
 62
     7
100
AcDbLine
 10
2.375358
 20
0.179251
 30
0.0
 11
2.376416
 21
0.178013
 31
0.0
  0
LINE
  5
4CB
100
AcDbEntity
  8
TRMODEL1
  6
CONTINUOUS
 62
     7
100
AcDbLine
 10
2.376416
 20
0.178013
 30
0.0
 11
2.377691
 21
0.176828
 31
0.0
  0
LINE
  5
4CC
100
AcDbEntity
  8
TRMODEL1
  6
CONTINUOUS
 62
     7
100
AcDbLine
 10
2.377691
 20
0.176828
 30
0.0
 11
2.379174
 21
0.175705
 31
0.0
  0
LINE
  5
4CD
100
AcDbEntity
  8
TRMODEL1
  6
CONTINUOUS
 62
     7
100
AcDbLine
 10
2.379174
 20
0.175705
 30
0.0
 11
2.380853
 21
0.174652
 31
0.0
  0
LINE
  5
4CE
100
AcDbEntity
  8
TRMODEL1
  6
CONTINUOUS
 62
     7
100
AcDbLine
 10
2.380853
 20
0.174652
 30
0.0
 11
2.382713
 21
0.173679
 31
0.0
  0
LINE
  5
4CF
100
AcDbEntity
  8
TRMODEL1
  6
CONTINUOUS
 62
     7
100
AcDbLine
 10
2.382713
 20
0.173679
 30
0.0
 11
2.38474
 21
0.172794
 31
0.0
  0
LINE
  5
4D0
100
AcDbEntity
  8
TRMODEL1
  6
CONTINUOUS
 62
     7
100
AcDbLine
 10
2.38474
 20
0.172794
 30
0.0
 11
2.386918
 21
0.172003
 31
0.0
  0
LINE
  5
4D1
100
AcDbEntity
  8
TRMODEL1
  6
CONTINUOUS
 62
     7
100
AcDbLine
 10
2.386918
 20
0.172003
 30
0.0
 11
2.389229
 21
0.171312
 31
0.0
  0
LINE
  5
4D2
100
AcDbEntity
  8
TRMODEL1
  6
CONTINUOUS
 62
     7
100
AcDbLine
 10
2.389229
 20
0.171312
 30
0.0
 11
2.391654
 21
0.170728
 31
0.0
  0
LINE
  5
4D3
100
AcDbEntity
  8
TRMODEL1
  6
CONTINUOUS
 62
     7
100
AcDbLine
 10
2.391654
 20
0.170728
 30
0.0
 11
2.394174
 21
0.170256
 31
0.0
  0
LINE
  5
4D4
100
AcDbEntity
  8
TRMODEL1
  6
CONTINUOUS
 62
     7
100
AcDbLine
 10
2.394174
 20
0.170256
 30
0.0
 11
2.396769
 21
0.169897
 31
0.0
  0
LINE
  5
4D5
100
AcDbEntity
  8
TRMODEL1
  6
CONTINUOUS
 62
     7
100
AcDbLine
 10
2.396769
 20
0.169897
 30
0.0
 11
2.399418
 21
0.169657
 31
0.0
  0
LINE
  5
4D6
100
AcDbEntity
  8
TRMODEL1
  6
CONTINUOUS
 62
     7
100
AcDbLine
 10
2.399418
 20
0.169657
 30
0.0
 11
2.402099
 21
0.169536
 31
0.0
  0
LINE
  5
4D7
100
AcDbEntity
  8
TRMODEL1
  6
CONTINUOUS
 62
     7
100
AcDbLine
 10
2.402099
 20
0.169536
 30
0.0
 11
2.404791
 21
0.169536
 31
0.0
  0
LINE
  5
4D8
100
AcDbEntity
  8
TRMODEL1
  6
CONTINUOUS
 62
     7
100
AcDbLine
 10
2.404791
 20
0.169536
 30
0.0
 11
2.407472
 21
0.169657
 31
0.0
  0
LINE
  5
4D9
100
AcDbEntity
  8
TRMODEL1
  6
CONTINUOUS
 62
     7
100
AcDbLine
 10
2.407472
 20
0.169657
 30
0.0
 11
2.410121
 21
0.169897
 31
0.0
  0
LINE
  5
4DA
100
AcDbEntity
  8
TRMODEL1
  6
CONTINUOUS
 62
     7
100
AcDbLine
 10
2.410121
 20
0.169897
 30
0.0
 11
2.412715
 21
0.170256
 31
0.0
  0
LINE
  5
4DB
100
AcDbEntity
  8
TRMODEL1
  6
CONTINUOUS
 62
     7
100
AcDbLine
 10
2.412715
 20
0.170256
 30
0.0
 11
2.415236
 21
0.170728
 31
0.0
  0
LINE
  5
4DC
100
AcDbEntity
  8
TRMODEL1
  6
CONTINUOUS
 62
     7
100
AcDbLine
 10
2.415236
 20
0.170728
 30
0.0
 11
2.417661
 21
0.171312
 31
0.0
  0
LINE
  5
4DD
100
AcDbEntity
  8
TRMODEL1
  6
CONTINUOUS
 62
     7
100
AcDbLine
 10
2.417661
 20
0.171312
 30
0.0
 11
2.419972
 21
0.172003
 31
0.0
  0
LINE
  5
4DE
100
AcDbEntity
  8
TRMODEL1
  6
CONTINUOUS
 62
     7
100
AcDbLine
 10
2.419972
 20
0.172003
 30
0.0
 11
2.42215
 21
0.172794
 31
0.0
  0
LINE
  5
4DF
100
AcDbEntity
  8
TRMODEL1
  6
CONTINUOUS
 62
     7
100
AcDbLine
 10
2.42215
 20
0.172794
 30
0.0
 11
2.424177
 21
0.173679
 31
0.0
  0
LINE
  5
4E0
100
AcDbEntity
  8
TRMODEL1
  6
CONTINUOUS
 62
     7
100
AcDbLine
 10
2.424177
 20
0.173679
 30
0.0
 11
2.426037
 21
0.174652
 31
0.0
  0
LINE
  5
4E1
100
AcDbEntity
  8
TRMODEL1
  6
CONTINUOUS
 62
     7
100
AcDbLine
 10
2.426037
 20
0.174652
 30
0.0
 11
2.427715
 21
0.175705
 31
0.0
  0
LINE
  5
4E2
100
AcDbEntity
  8
TRMODEL1
  6
CONTINUOUS
 62
     7
100
AcDbLine
 10
2.427715
 20
0.175705
 30
0.0
 11
2.429198
 21
0.176828
 31
0.0
  0
LINE
  5
4E3
100
AcDbEntity
  8
TRMODEL1
  6
CONTINUOUS
 62
     7
100
AcDbLine
 10
2.429198
 20
0.176828
 30
0.0
 11
2.430474
 21
0.178013
 31
0.0
  0
LINE
  5
4E4
100
AcDbEntity
  8
TRMODEL1
  6
CONTINUOUS
 62
     7
100
AcDbLine
 10
2.430474
 20
0.178013
 30
0.0
 11
2.431532
 21
0.179251
 31
0.0
  0
LINE
  5
4E5
100
AcDbEntity
  8
TRMODEL1
  6
CONTINUOUS
 62
     7
100
AcDbLine
 10
2.431532
 20
0.179251
 30
0.0
 11
2.432364
 21
0.180531
 31
0.0
  0
LINE
  5
4E6
100
AcDbEntity
  8
TRMODEL1
  6
CONTINUOUS
 62
     7
100
AcDbLine
 10
2.432364
 20
0.180531
 30
0.0
 11
2.432963
 21
0.181843
 31
0.0
  0
LINE
  5
4E7
100
AcDbEntity
  8
TRMODEL1
  6
CONTINUOUS
 62
     7
100
AcDbLine
 10
2.432963
 20
0.181843
 30
0.0
 11
2.433324
 21
0.183177
 31
0.0
  0
LINE
  5
4E8
100
AcDbEntity
  8
TRMODEL1
  6
CONTINUOUS
 62
     7
100
AcDbLine
 10
2.433324
 20
0.183177
 30
0.0
 11
2.433445
 21
0.184521
 31
0.0
  0
LINE
  5
4E9
100
AcDbEntity
  8
TRMODEL1
  6
CONTINUOUS
 62
     7
100
AcDbLine
 10
2.433445
 20
0.184521
 30
0.0
 11
2.433324
 21
0.185866
 31
0.0
  0
LINE
  5
4EA
100
AcDbEntity
  8
TRMODEL1
  6
CONTINUOUS
 62
     7
100
AcDbLine
 10
2.433324
 20
0.185866
 30
0.0
 11
2.432963
 21
0.1872
 31
0.0
  0
LINE
  5
4EB
100
AcDbEntity
  8
TRMODEL1
  6
CONTINUOUS
 62
     7
100
AcDbLine
 10
2.432963
 20
0.1872
 30
0.0
 11
2.432364
 21
0.188512
 31
0.0
  0
LINE
  5
4EC
100
AcDbEntity
  8
TRMODEL1
  6
CONTINUOUS
 62
     7
100
AcDbLine
 10
2.432364
 20
0.188512
 30
0.0
 11
2.431532
 21
0.189792
 31
0.0
  0
LINE
  5
4ED
100
AcDbEntity
  8
TRMODEL1
  6
CONTINUOUS
 62
     7
100
AcDbLine
 10
2.431532
 20
0.189792
 30
0.0
 11
2.430474
 21
0.19103
 31
0.0
  0
LINE
  5
4EE
100
AcDbEntity
  8
TRMODEL1
  6
CONTINUOUS
 62
     7
100
AcDbLine
 10
2.430474
 20
0.19103
 30
0.0
 11
2.429198
 21
0.192215
 31
0.0
  0
LINE
  5
4EF
100
AcDbEntity
  8
TRMODEL1
  6
CONTINUOUS
 62
     7
100
AcDbLine
 10
2.429198
 20
0.192215
 30
0.0
 11
2.427715
 21
0.193338
 31
0.0
  0
LINE
  5
4F0
100
AcDbEntity
  8
TRMODEL1
  6
CONTINUOUS
 62
     7
100
AcDbLine
 10
2.427715
 20
0.193338
 30
0.0
 11
2.426037
 21
0.19439
 31
0.0
  0
LINE
  5
4F1
100
AcDbEntity
  8
TRMODEL1
  6
CONTINUOUS
 62
     7
100
AcDbLine
 10
2.426037
 20
0.19439
 30
0.0
 11
2.424177
 21
0.195363
 31
0.0
  0
LINE
  5
4F2
100
AcDbEntity
  8
TRMODEL1
  6
CONTINUOUS
 62
     7
100
AcDbLine
 10
2.424177
 20
0.195363
 30
0.0
 11
2.42215
 21
0.196249
 31
0.0
  0
LINE
  5
4F3
100
AcDbEntity
  8
TRMODEL1
  6
CONTINUOUS
 62
     7
100
AcDbLine
 10
2.42215
 20
0.196249
 30
0.0
 11
2.419972
 21
0.19704
 31
0.0
  0
LINE
  5
4F4
100
AcDbEntity
  8
TRMODEL1
  6
CONTINUOUS
 62
     7
100
AcDbLine
 10
2.419972
 20
0.19704
 30
0.0
 11
2.417661
 21
0.19773
 31
0.0
  0
LINE
  5
4F5
100
AcDbEntity
  8
TRMODEL1
  6
CONTINUOUS
 62
     7
100
AcDbLine
 10
2.417661
 20
0.19773
 30
0.0
 11
2.415236
 21
0.198314
 31
0.0
  0
LINE
  5
4F6
100
AcDbEntity
  8
TRMODEL1
  6
CONTINUOUS
 62
     7
100
AcDbLine
 10
2.415236
 20
0.198314
 30
0.0
 11
2.412715
 21
0.198787
 31
0.0
  0
LINE
  5
4F7
100
AcDbEntity
  8
TRMODEL1
  6
CONTINUOUS
 62
     7
100
AcDbLine
 10
2.412715
 20
0.198787
 30
0.0
 11
2.410121
 21
0.199145
 31
0.0
  0
LINE
  5
4F8
100
AcDbEntity
  8
TRMODEL1
  6
CONTINUOUS
 62
     7
100
AcDbLine
 10
2.410121
 20
0.199145
 30
0.0
 11
2.407472
 21
0.199386
 31
0.0
  0
LINE
  5
4F9
100
AcDbEntity
  8
TRMODEL1
  6
CONTINUOUS
 62
     7
100
AcDbLine
 10
2.407472
 20
0.199386
 30
0.0
 11
2.404791
 21
0.199506
 31
0.0
  0
LINE
  5
4FA
100
AcDbEntity
  8
TRMODEL1
  6
CONTINUOUS
 62
     7
100
AcDbLine
 10
2.404791
 20
0.199506
 30
0.0
 11
2.402099
 21
0.199506
 31
0.0
  0
LINE
  5
4FB
100
AcDbEntity
  8
TRMODEL1
  6
CONTINUOUS
 62
     7
100
AcDbLine
 10
2.402099
 20
0.199506
 30
0.0
 11
2.399418
 21
0.199386
 31
0.0
  0
LINE
  5
4FC
100
AcDbEntity
  8
TRMODEL1
  6
CONTINUOUS
 62
     7
100
AcDbLine
 10
2.399418
 20
0.199386
 30
0.0
 11
2.396769
 21
0.199145
 31
0.0
  0
LINE
  5
4FD
100
AcDbEntity
  8
TRMODEL1
  6
CONTINUOUS
 62
     7
100
AcDbLine
 10
2.396769
 20
0.199145
 30
0.0
 11
2.394174
 21
0.198787
 31
0.0
  0
LINE
  5
4FE
100
AcDbEntity
  8
TRMODEL1
  6
CONTINUOUS
 62
     7
100
AcDbLine
 10
2.394174
 20
0.198787
 30
0.0
 11
2.391654
 21
0.198314
 31
0.0
  0
LINE
  5
4FF
100
AcDbEntity
  8
TRMODEL1
  6
CONTINUOUS
 62
     7
100
AcDbLine
 10
2.391654
 20
0.198314
 30
0.0
 11
2.389229
 21
0.19773
 31
0.0
  0
LINE
  5
500
100
AcDbEntity
  8
TRMODEL1
  6
CONTINUOUS
 62
     7
100
AcDbLine
 10
2.389229
 20
0.19773
 30
0.0
 11
2.386918
 21
0.19704
 31
0.0
  0
LINE
  5
501
100
AcDbEntity
  8
TRMODEL1
  6
CONTINUOUS
 62
     7
100
AcDbLine
 10
2.386918
 20
0.19704
 30
0.0
 11
2.38474
 21
0.196249
 31
0.0
  0
LINE
  5
502
100
AcDbEntity
  8
TRMODEL1
  6
CONTINUOUS
 62
     7
100
AcDbLine
 10
2.38474
 20
0.196249
 30
0.0
 11
2.382713
 21
0.195363
 31
0.0
  0
LINE
  5
503
100
AcDbEntity
  8
TRMODEL1
  6
CONTINUOUS
 62
     7
100
AcDbLine
 10
2.382713
 20
0.195363
 30
0.0
 11
2.380853
 21
0.19439
 31
0.0
  0
LINE
  5
504
100
AcDbEntity
  8
TRMODEL1
  6
CONTINUOUS
 62
     7
100
AcDbLine
 10
2.380853
 20
0.19439
 30
0.0
 11
2.379174
 21
0.193338
 31
0.0
  0
LINE
  5
505
100
AcDbEntity
  8
TRMODEL1
  6
CONTINUOUS
 62
     7
100
AcDbLine
 10
2.379174
 20
0.193338
 30
0.0
 11
2.377691
 21
0.192215
 31
0.0
  0
LINE
  5
506
100
AcDbEntity
  8
TRMODEL1
  6
CONTINUOUS
 62
     7
100
AcDbLine
 10
2.377691
 20
0.192215
 30
0.0
 11
2.376416
 21
0.19103
 31
0.0
  0
LINE
  5
507
100
AcDbEntity
  8
TRMODEL1
  6
CONTINUOUS
 62
     7
100
AcDbLine
 10
2.376416
 20
0.19103
 30
0.0
 11
2.375358
 21
0.189792
 31
0.0
  0
LINE
  5
508
100
AcDbEntity
  8
TRMODEL1
  6
CONTINUOUS
 62
     7
100
AcDbLine
 10
2.375358
 20
0.189792
 30
0.0
 11
2.374526
 21
0.188512
 31
0.0
  0
LINE
  5
509
100
AcDbEntity
  8
TRMODEL1
  6
CONTINUOUS
 62
     7
100
AcDbLine
 10
2.374526
 20
0.188512
 30
0.0
 11
2.373927
 21
0.1872
 31
0.0
  0
LINE
  5
50A
100
AcDbEntity
  8
TRMODEL1
  6
CONTINUOUS
 62
     7
100
AcDbLine
 10
2.373927
 20
0.1872
 30
0.0
 11
2.373566
 21
0.185866
 31
0.0
  0
LINE
  5
50B
100
AcDbEntity
  8
TRMODEL1
  6
CONTINUOUS
 62
     7
100
AcDbLine
 10
2.373566
 20
0.185866
 30
0.0
 11
2.373445
 21
0.184521
 31
0.0
  0
LINE
  5
50C
100
AcDbEntity
  8
TRMODEL1
  6
CONTINUOUS
 62
     7
100
AcDbLine
 10
2.433445
 20
0.183655
 30
0.0
 11
2.433417
 21
0.183001
 31
0.0
  0
LINE
  5
50D
100
AcDbEntity
  8
TRMODEL1
  6
CONTINUOUS
 62
     7
100
AcDbLine
 10
2.433417
 20
0.183001
 30
0.0
 11
2.43333
 21
0.182332
 31
0.0
  0
LINE
  5
50E
100
AcDbEntity
  8
TRMODEL1
  6
CONTINUOUS
 62
     7
100
AcDbLine
 10
2.43333
 20
0.182332
 30
0.0
 11
2.433184
 21
0.181651
 31
0.0
  0
LINE
  5
50F
100
AcDbEntity
  8
TRMODEL1
  6
CONTINUOUS
 62
     7
100
AcDbLine
 10
2.433184
 20
0.181651
 30
0.0
 11
2.432977
 21
0.180961
 31
0.0
  0
LINE
  5
510
100
AcDbEntity
  8
TRMODEL1
  6
CONTINUOUS
 62
     7
100
AcDbLine
 10
2.432977
 20
0.180961
 30
0.0
 11
2.432709
 21
0.180264
 31
0.0
  0
LINE
  5
511
100
AcDbEntity
  8
TRMODEL1
  6
CONTINUOUS
 62
     7
100
AcDbLine
 10
2.432709
 20
0.180264
 30
0.0
 11
2.432379
 21
0.179564
 31
0.0
  0
LINE
  5
512
100
AcDbEntity
  8
TRMODEL1
  6
CONTINUOUS
 62
     7
100
AcDbLine
 10
2.432379
 20
0.179564
 30
0.0
 11
2.431987
 21
0.178862
 31
0.0
  0
LINE
  5
513
100
AcDbEntity
  8
TRMODEL1
  6
CONTINUOUS
 62
     7
100
AcDbLine
 10
2.431987
 20
0.178862
 30
0.0
 11
2.431536
 21
0.178163
 31
0.0
  0
LINE
  5
514
100
AcDbEntity
  8
TRMODEL1
  6
CONTINUOUS
 62
     7
100
AcDbLine
 10
2.431536
 20
0.178163
 30
0.0
 11
2.431025
 21
0.177469
 31
0.0
  0
LINE
  5
515
100
AcDbEntity
  8
TRMODEL1
  6
CONTINUOUS
 62
     7
100
AcDbLine
 10
2.431025
 20
0.177469
 30
0.0
 11
2.430457
 21
0.176782
 31
0.0
  0
LINE
  5
516
100
AcDbEntity
  8
TRMODEL1
  6
CONTINUOUS
 62
     7
100
AcDbLine
 10
2.430457
 20
0.176782
 30
0.0
 11
2.429834
 21
0.176105
 31
0.0
  0
LINE
  5
517
100
AcDbEntity
  8
TRMODEL1
  6
CONTINUOUS
 62
     7
100
AcDbLine
 10
2.429834
 20
0.176105
 30
0.0
 11
2.429158
 21
0.17544
 31
0.0
  0
LINE
  5
518
100
AcDbEntity
  8
TRMODEL1
  6
CONTINUOUS
 62
     7
100
AcDbLine
 10
2.429158
 20
0.17544
 30
0.0
 11
2.428432
 21
0.174791
 31
0.0
  0
LINE
  5
519
100
AcDbEntity
  8
TRMODEL1
  6
CONTINUOUS
 62
     7
100
AcDbLine
 10
2.428432
 20
0.174791
 30
0.0
 11
2.42766
 21
0.174159
 31
0.0
  0
LINE
  5
51A
100
AcDbEntity
  8
TRMODEL1
  6
CONTINUOUS
 62
     7
100
AcDbLine
 10
2.42766
 20
0.174159
 30
0.0
 11
2.426847
 21
0.173549
 31
0.0
  0
LINE
  5
51B
100
AcDbEntity
  8
TRMODEL1
  6
CONTINUOUS
 62
     7
100
AcDbLine
 10
2.426847
 20
0.173549
 30
0.0
 11
2.425995
 21
0.172961
 31
0.0
  0
LINE
  5
51C
100
AcDbEntity
  8
TRMODEL1
  6
CONTINUOUS
 62
     7
100
AcDbLine
 10
2.425995
 20
0.172961
 30
0.0
 11
2.425111
 21
0.172399
 31
0.0
  0
LINE
  5
51D
100
AcDbEntity
  8
TRMODEL1
  6
CONTINUOUS
 62
     7
100
AcDbLine
 10
2.425111
 20
0.172399
 30
0.0
 11
2.424195
 21
0.171861
 31
0.0
  0
LINE
  5
51E
100
AcDbEntity
  8
TRMODEL1
  6
CONTINUOUS
 62
     7
100
AcDbLine
 10
2.424195
 20
0.171861
 30
0.0
 11
2.423231
 21
0.171339
 31
0.0
  0
LINE
  5
51F
100
AcDbEntity
  8
TRMODEL1
  6
CONTINUOUS
 62
     7
100
AcDbLine
 10
2.423231
 20
0.171339
 30
0.0
 11
2.422216
 21
0.170833
 31
0.0
  0
LINE
  5
520
100
AcDbEntity
  8
TRMODEL1
  6
CONTINUOUS
 62
     7
100
AcDbLine
 10
2.422216
 20
0.170833
 30
0.0
 11
2.421154
 21
0.170346
 31
0.0
  0
LINE
  5
521
100
AcDbEntity
  8
TRMODEL1
  6
CONTINUOUS
 62
     7
100
AcDbLine
 10
2.421154
 20
0.170346
 30
0.0
 11
2.420047
 21
0.169882
 31
0.0
  0
LINE
  5
522
100
AcDbEntity
  8
TRMODEL1
  6
CONTINUOUS
 62
     7
100
AcDbLine
 10
2.420047
 20
0.169882
 30
0.0
 11
2.418899
 21
0.169444
 31
0.0
  0
LINE
  5
523
100
AcDbEntity
  8
TRMODEL1
  6
CONTINUOUS
 62
     7
100
AcDbLine
 10
2.418899
 20
0.169444
 30
0.0
 11
2.417714
 21
0.169033
 31
0.0
  0
LINE
  5
524
100
AcDbEntity
  8
TRMODEL1
  6
CONTINUOUS
 62
     7
100
AcDbLine
 10
2.417714
 20
0.169033
 30
0.0
 11
2.416496
 21
0.168653
 31
0.0
  0
LINE
  5
525
100
AcDbEntity
  8
TRMODEL1
  6
CONTINUOUS
 62
     7
100
AcDbLine
 10
2.416496
 20
0.168653
 30
0.0
 11
2.415248
 21
0.168305
 31
0.0
  0
LINE
  5
526
100
AcDbEntity
  8
TRMODEL1
  6
CONTINUOUS
 62
     7
100
AcDbLine
 10
2.415248
 20
0.168305
 30
0.0
 11
2.413976
 21
0.167991
 31
0.0
  0
LINE
  5
527
100
AcDbEntity
  8
TRMODEL1
  6
CONTINUOUS
 62
     7
100
AcDbLine
 10
2.413976
 20
0.167991
 30
0.0
 11
2.412682
 21
0.167713
 31
0.0
  0
LINE
  5
528
100
AcDbEntity
  8
TRMODEL1
  6
CONTINUOUS
 62
     7
100
AcDbLine
 10
2.412682
 20
0.167713
 30
0.0
 11
2.411372
 21
0.167471
 31
0.0
  0
LINE
  5
529
100
AcDbEntity
  8
TRMODEL1
  6
CONTINUOUS
 62
     7
100
AcDbLine
 10
2.411372
 20
0.167471
 30
0.0
 11
2.410049
 21
0.167266
 31
0.0
  0
LINE
  5
52A
100
AcDbEntity
  8
TRMODEL1
  6
CONTINUOUS
 62
     7
100
AcDbLine
 10
2.410049
 20
0.167266
 30
0.0
 11
2.40872
 21
0.1671
 31
0.0
  0
LINE
  5
52B
100
AcDbEntity
  8
TRMODEL1
  6
CONTINUOUS
 62
     7
100
AcDbLine
 10
2.40872
 20
0.1671
 30
0.0
 11
2.40739
 21
0.166971
 31
0.0
  0
LINE
  5
52C
100
AcDbEntity
  8
TRMODEL1
  6
CONTINUOUS
 62
     7
100
AcDbLine
 10
2.40739
 20
0.166971
 30
0.0
 11
2.406064
 21
0.16688
 31
0.0
  0
LINE
  5
52D
100
AcDbEntity
  8
TRMODEL1
  6
CONTINUOUS
 62
     7
100
AcDbLine
 10
2.406064
 20
0.16688
 30
0.0
 11
2.404747
 21
0.166826
 31
0.0
  0
LINE
  5
52E
100
AcDbEntity
  8
TRMODEL1
  6
CONTINUOUS
 62
     7
100
AcDbLine
 10
2.404747
 20
0.166826
 30
0.0
 11
2.403445
 21
0.166808
 31
0.0
  0
LINE
  5
52F
100
AcDbEntity
  8
TRMODEL1
  6
CONTINUOUS
 62
     7
100
AcDbLine
 10
2.403445
 20
0.166808
 30
0.0
 11
2.402143
 21
0.166826
 31
0.0
  0
LINE
  5
530
100
AcDbEntity
  8
TRMODEL1
  6
CONTINUOUS
 62
     7
100
AcDbLine
 10
2.402143
 20
0.166826
 30
0.0
 11
2.400826
 21
0.16688
 31
0.0
  0
LINE
  5
531
100
AcDbEntity
  8
TRMODEL1
  6
CONTINUOUS
 62
     7
100
AcDbLine
 10
2.400826
 20
0.16688
 30
0.0
 11
2.3995
 21
0.166971
 31
0.0
  0
LINE
  5
532
100
AcDbEntity
  8
TRMODEL1
  6
CONTINUOUS
 62
     7
100
AcDbLine
 10
2.3995
 20
0.166971
 30
0.0
 11
2.398169
 21
0.1671
 31
0.0
  0
LINE
  5
533
100
AcDbEntity
  8
TRMODEL1
  6
CONTINUOUS
 62
     7
100
AcDbLine
 10
2.398169
 20
0.1671
 30
0.0
 11
2.39684
 21
0.167266
 31
0.0
  0
LINE
  5
534
100
AcDbEntity
  8
TRMODEL1
  6
CONTINUOUS
 62
     7
100
AcDbLine
 10
2.39684
 20
0.167266
 30
0.0
 11
2.395518
 21
0.167471
 31
0.0
  0
LINE
  5
535
100
AcDbEntity
  8
TRMODEL1
  6
CONTINUOUS
 62
     7
100
AcDbLine
 10
2.395518
 20
0.167471
 30
0.0
 11
2.394208
 21
0.167713
 31
0.0
  0
LINE
  5
536
100
AcDbEntity
  8
TRMODEL1
  6
CONTINUOUS
 62
     7
100
AcDbLine
 10
2.394208
 20
0.167713
 30
0.0
 11
2.392914
 21
0.167991
 31
0.0
  0
LINE
  5
537
100
AcDbEntity
  8
TRMODEL1
  6
CONTINUOUS
 62
     7
100
AcDbLine
 10
2.392914
 20
0.167991
 30
0.0
 11
2.391641
 21
0.168305
 31
0.0
  0
LINE
  5
538
100
AcDbEntity
  8
TRMODEL1
  6
CONTINUOUS
 62
     7
100
AcDbLine
 10
2.391641
 20
0.168305
 30
0.0
 11
2.390394
 21
0.168653
 31
0.0
  0
LINE
  5
539
100
AcDbEntity
  8
TRMODEL1
  6
CONTINUOUS
 62
     7
100
AcDbLine
 10
2.390394
 20
0.168653
 30
0.0
 11
2.389176
 21
0.169033
 31
0.0
  0
LINE
  5
53A
100
AcDbEntity
  8
TRMODEL1
  6
CONTINUOUS
 62
     7
100
AcDbLine
 10
2.389176
 20
0.169033
 30
0.0
 11
2.387991
 21
0.169444
 31
0.0
  0
LINE
  5
53B
100
AcDbEntity
  8
TRMODEL1
  6
CONTINUOUS
 62
     7
100
AcDbLine
 10
2.387991
 20
0.169444
 30
0.0
 11
2.386843
 21
0.169882
 31
0.0
  0
LINE
  5
53C
100
AcDbEntity
  8
TRMODEL1
  6
CONTINUOUS
 62
     7
100
AcDbLine
 10
2.386843
 20
0.169882
 30
0.0
 11
2.385736
 21
0.170346
 31
0.0
  0
LINE
  5
53D
100
AcDbEntity
  8
TRMODEL1
  6
CONTINUOUS
 62
     7
100
AcDbLine
 10
2.385736
 20
0.170346
 30
0.0
 11
2.384674
 21
0.170833
 31
0.0
  0
LINE
  5
53E
100
AcDbEntity
  8
TRMODEL1
  6
CONTINUOUS
 62
     7
100
AcDbLine
 10
2.384674
 20
0.170833
 30
0.0
 11
2.383659
 21
0.171339
 31
0.0
  0
LINE
  5
53F
100
AcDbEntity
  8
TRMODEL1
  6
CONTINUOUS
 62
     7
100
AcDbLine
 10
2.383659
 20
0.171339
 30
0.0
 11
2.382695
 21
0.171861
 31
0.0
  0
LINE
  5
540
100
AcDbEntity
  8
TRMODEL1
  6
CONTINUOUS
 62
     7
100
AcDbLine
 10
2.382695
 20
0.171861
 30
0.0
 11
2.381779
 21
0.172399
 31
0.0
  0
LINE
  5
541
100
AcDbEntity
  8
TRMODEL1
  6
CONTINUOUS
 62
     7
100
AcDbLine
 10
2.381779
 20
0.172399
 30
0.0
 11
2.380895
 21
0.172961
 31
0.0
  0
LINE
  5
542
100
AcDbEntity
  8
TRMODEL1
  6
CONTINUOUS
 62
     7
100
AcDbLine
 10
2.380895
 20
0.172961
 30
0.0
 11
2.380043
 21
0.173549
 31
0.0
  0
LINE
  5
543
100
AcDbEntity
  8
TRMODEL1
  6
CONTINUOUS
 62
     7
100
AcDbLine
 10
2.380043
 20
0.173549
 30
0.0
 11
2.379229
 21
0.174159
 31
0.0
  0
LINE
  5
544
100
AcDbEntity
  8
TRMODEL1
  6
CONTINUOUS
 62
     7
100
AcDbLine
 10
2.379229
 20
0.174159
 30
0.0
 11
2.378458
 21
0.174791
 31
0.0
  0
LINE
  5
545
100
AcDbEntity
  8
TRMODEL1
  6
CONTINUOUS
 62
     7
100
AcDbLine
 10
2.378458
 20
0.174791
 30
0.0
 11
2.377732
 21
0.17544
 31
0.0
  0
LINE
  5
546
100
AcDbEntity
  8
TRMODEL1
  6
CONTINUOUS
 62
     7
100
AcDbLine
 10
2.377732
 20
0.17544
 30
0.0
 11
2.377056
 21
0.176105
 31
0.0
  0
LINE
  5
547
100
AcDbEntity
  8
TRMODEL1
  6
CONTINUOUS
 62
     7
100
AcDbLine
 10
2.377056
 20
0.176105
 30
0.0
 11
2.376432
 21
0.176782
 31
0.0
  0
LINE
  5
548
100
AcDbEntity
  8
TRMODEL1
  6
CONTINUOUS
 62
     7
100
AcDbLine
 10
2.376432
 20
0.176782
 30
0.0
 11
2.375865
 21
0.177469
 31
0.0
  0
LINE
  5
549
100
AcDbEntity
  8
TRMODEL1
  6
CONTINUOUS
 62
     7
100
AcDbLine
 10
2.375865
 20
0.177469
 30
0.0
 11
2.375354
 21
0.178163
 31
0.0
  0
LINE
  5
54A
100
AcDbEntity
  8
TRMODEL1
  6
CONTINUOUS
 62
     7
100
AcDbLine
 10
2.375354
 20
0.178163
 30
0.0
 11
2.374902
 21
0.178862
 31
0.0
  0
LINE
  5
54B
100
AcDbEntity
  8
TRMODEL1
  6
CONTINUOUS
 62
     7
100
AcDbLine
 10
2.374902
 20
0.178862
 30
0.0
 11
2.374511
 21
0.179564
 31
0.0
  0
LINE
  5
54C
100
AcDbEntity
  8
TRMODEL1
  6
CONTINUOUS
 62
     7
100
AcDbLine
 10
2.374511
 20
0.179564
 30
0.0
 11
2.374181
 21
0.180264
 31
0.0
  0
LINE
  5
54D
100
AcDbEntity
  8
TRMODEL1
  6
CONTINUOUS
 62
     7
100
AcDbLine
 10
2.374181
 20
0.180264
 30
0.0
 11
2.373912
 21
0.180961
 31
0.0
  0
LINE
  5
54E
100
AcDbEntity
  8
TRMODEL1
  6
CONTINUOUS
 62
     7
100
AcDbLine
 10
2.373912
 20
0.180961
 30
0.0
 11
2.373705
 21
0.181651
 31
0.0
  0
LINE
  5
54F
100
AcDbEntity
  8
TRMODEL1
  6
CONTINUOUS
 62
     7
100
AcDbLine
 10
2.373705
 20
0.181651
 30
0.0
 11
2.373559
 21
0.182332
 31
0.0
  0
LINE
  5
550
100
AcDbEntity
  8
TRMODEL1
  6
CONTINUOUS
 62
     7
100
AcDbLine
 10
2.373559
 20
0.182332
 30
0.0
 11
2.373473
 21
0.183001
 31
0.0
  0
LINE
  5
551
100
AcDbEntity
  8
TRMODEL1
  6
CONTINUOUS
 62
     7
100
AcDbLine
 10
2.373473
 20
0.183001
 30
0.0
 11
2.373445
 21
0.183655
 31
0.0
  0
LINE
  5
552
100
AcDbEntity
  8
TRMODEL1
  6
CONTINUOUS
 62
     7
100
AcDbLine
 10
2.365945
 20
-0.330177
 30
0.0
 11
2.365945
 21
0.330177
 31
0.0
  0
LINE
  5
553
100
AcDbEntity
  8
TRMODEL1
  6
CONTINUOUS
 62
     7
100
AcDbLine
 10
2.018504
 20
-0.330177
 30
0.0
 11
2.018504
 21
0.330177
 31
0.0
  0
LINE
  5
554
100
AcDbEntity
  8
TRMODEL1
  6
CONTINUOUS
 62
     7
100
AcDbLine
 10
0.0
 20
-0.3125
 30
0.0
 11
0.0
 21
0.3125
 31
0.0
  0
LINE
  5
555
100
AcDbEntity
  8
TRMODEL1
  6
CONTINUOUS
 62
     7
100
AcDbLine
 10
0.05
 20
0.330177
 30
0.0
 11
0.05
 21
-0.330177
 31
0.0
  0
LINE
  5
556
100
AcDbEntity
  8
TRMODEL1
  6
CONTINUOUS
 62
     7
100
AcDbLine
 10
0.483071
 20
-0.409146
 30
0.0
 11
0.483105
 21
-0.412896
 31
0.0
  0
LINE
  5
557
100
AcDbEntity
  8
TRMODEL1
  6
CONTINUOUS
 62
     7
100
AcDbLine
 10
0.483105
 20
-0.412896
 30
0.0
 11
0.483208
 21
-0.41664
 31
0.0
  0
LINE
  5
558
100
AcDbEntity
  8
TRMODEL1
  6
CONTINUOUS
 62
     7
100
AcDbLine
 10
0.483208
 20
-0.41664
 30
0.0
 11
0.483379
 21
-0.420378
 31
0.0
  0
LINE
  5
559
100
AcDbEntity
  8
TRMODEL1
  6
CONTINUOUS
 62
     7
100
AcDbLine
 10
0.483379
 20
-0.420378
 30
0.0
 11
0.483618
 21
-0.424113
 31
0.0
  0
LINE
  5
55A
100
AcDbEntity
  8
TRMODEL1
  6
CONTINUOUS
 62
     7
100
AcDbLine
 10
0.483618
 20
-0.424113
 30
0.0
 11
0.483924
 21
-0.427845
 31
0.0
  0
LINE
  5
55B
100
AcDbEntity
  8
TRMODEL1
  6
CONTINUOUS
 62
     7
100
AcDbLine
 10
0.483924
 20
-0.427845
 30
0.0
 11
0.484298
 21
-0.431575
 31
0.0
  0
LINE
  5
55C
100
AcDbEntity
  8
TRMODEL1
  6
CONTINUOUS
 62
     7
100
AcDbLine
 10
0.484298
 20
-0.431575
 30
0.0
 11
0.484738
 21
-0.435307
 31
0.0
  0
LINE
  5
55D
100
AcDbEntity
  8
TRMODEL1
  6
CONTINUOUS
 62
     7
100
AcDbLine
 10
0.484738
 20
-0.435307
 30
0.0
 11
0.485246
 21
-0.439039
 31
0.0
  0
LINE
  5
55E
100
AcDbEntity
  8
TRMODEL1
  6
CONTINUOUS
 62
     7
100
AcDbLine
 10
0.485246
 20
-0.439039
 30
0.0
 11
0.485821
 21
-0.442775
 31
0.0
  0
LINE
  5
55F
100
AcDbEntity
  8
TRMODEL1
  6
CONTINUOUS
 62
     7
100
AcDbLine
 10
0.485821
 20
-0.442775
 30
0.0
 11
0.486463
 21
-0.446515
 31
0.0
  0
LINE
  5
560
100
AcDbEntity
  8
TRMODEL1
  6
CONTINUOUS
 62
     7
100
AcDbLine
 10
0.486463
 20
-0.446515
 30
0.0
 11
0.487172
 21
-0.450261
 31
0.0
  0
LINE
  5
561
100
AcDbEntity
  8
TRMODEL1
  6
CONTINUOUS
 62
     7
100
AcDbLine
 10
0.487172
 20
-0.450261
 30
0.0
 11
0.487948
 21
-0.454014
 31
0.0
  0
LINE
  5
562
100
AcDbEntity
  8
TRMODEL1
  6
CONTINUOUS
 62
     7
100
AcDbLine
 10
0.487948
 20
-0.454014
 30
0.0
 11
0.488791
 21
-0.457776
 31
0.0
  0
LINE
  5
563
100
AcDbEntity
  8
TRMODEL1
  6
CONTINUOUS
 62
     7
100
AcDbLine
 10
0.488791
 20
-0.457776
 30
0.0
 11
0.489702
 21
-0.461547
 31
0.0
  0
LINE
  5
564
100
AcDbEntity
  8
TRMODEL1
  6
CONTINUOUS
 62
     7
100
AcDbLine
 10
0.489702
 20
-0.461547
 30
0.0
 11
0.49068
 21
-0.465329
 31
0.0
  0
LINE
  5
565
100
AcDbEntity
  8
TRMODEL1
  6
CONTINUOUS
 62
     7
100
AcDbLine
 10
0.49068
 20
-0.465329
 30
0.0
 11
0.491726
 21
-0.469124
 31
0.0
  0
LINE
  5
566
100
AcDbEntity
  8
TRMODEL1
  6
CONTINUOUS
 62
     7
100
AcDbLine
 10
0.491726
 20
-0.469124
 30
0.0
 11
0.492841
 21
-0.472933
 31
0.0
  0
LINE
  5
567
100
AcDbEntity
  8
TRMODEL1
  6
CONTINUOUS
 62
     7
100
AcDbLine
 10
0.492841
 20
-0.472933
 30
0.0
 11
0.494024
 21
-0.476757
 31
0.0
  0
LINE
  5
568
100
AcDbEntity
  8
TRMODEL1
  6
CONTINUOUS
 62
     7
100
AcDbLine
 10
0.494024
 20
-0.476757
 30
0.0
 11
0.495276
 21
-0.480598
 31
0.0
  0
LINE
  5
569
100
AcDbEntity
  8
TRMODEL1
  6
CONTINUOUS
 62
     7
100
AcDbLine
 10
0.495276
 20
-0.480598
 30
0.0
 11
0.496598
 21
-0.484457
 31
0.0
  0
LINE
  5
56A
100
AcDbEntity
  8
TRMODEL1
  6
CONTINUOUS
 62
     7
100
AcDbLine
 10
0.496598
 20
-0.484457
 30
0.0
 11
0.49799
 21
-0.488335
 31
0.0
  0
LINE
  5
56B
100
AcDbEntity
  8
TRMODEL1
  6
CONTINUOUS
 62
     7
100
AcDbLine
 10
0.49799
 20
-0.488335
 30
0.0
 11
0.499453
 21
-0.492235
 31
0.0
  0
LINE
  5
56C
100
AcDbEntity
  8
TRMODEL1
  6
CONTINUOUS
 62
     7
100
AcDbLine
 10
0.499453
 20
-0.492235
 30
0.0
 11
0.500987
 21
-0.496157
 31
0.0
  0
LINE
  5
56D
100
AcDbEntity
  8
TRMODEL1
  6
CONTINUOUS
 62
     7
100
AcDbLine
 10
0.500987
 20
-0.496157
 30
0.0
 11
0.502593
 21
-0.500102
 31
0.0
  0
LINE
  5
56E
100
AcDbEntity
  8
TRMODEL1
  6
CONTINUOUS
 62
     7
100
AcDbLine
 10
0.502593
 20
-0.500102
 30
0.0
 11
0.504271
 21
-0.504073
 31
0.0
  0
LINE
  5
56F
100
AcDbEntity
  8
TRMODEL1
  6
CONTINUOUS
 62
     7
100
AcDbLine
 10
0.504271
 20
-0.504073
 30
0.0
 11
0.506024
 21
-0.508071
 31
0.0
  0
LINE
  5
570
100
AcDbEntity
  8
TRMODEL1
  6
CONTINUOUS
 62
     7
100
AcDbLine
 10
0.506024
 20
-0.508071
 30
0.0
 11
0.507851
 21
-0.512097
 31
0.0
  0
LINE
  5
571
100
AcDbEntity
  8
TRMODEL1
  6
CONTINUOUS
 62
     7
100
AcDbLine
 10
0.507851
 20
-0.512097
 30
0.0
 11
0.509753
 21
-0.516154
 31
0.0
  0
LINE
  5
572
100
AcDbEntity
  8
TRMODEL1
  6
CONTINUOUS
 62
     7
100
AcDbLine
 10
0.509753
 20
-0.516154
 30
0.0
 11
0.511731
 21
-0.520242
 31
0.0
  0
LINE
  5
573
100
AcDbEntity
  8
TRMODEL1
  6
CONTINUOUS
 62
     7
100
AcDbLine
 10
0.511731
 20
-0.520242
 30
0.0
 11
0.513787
 21
-0.524363
 31
0.0
  0
LINE
  5
574
100
AcDbEntity
  8
TRMODEL1
  6
CONTINUOUS
 62
     7
100
AcDbLine
 10
0.513787
 20
-0.524363
 30
0.0
 11
0.515921
 21
-0.528519
 31
0.0
  0
LINE
  5
575
100
AcDbEntity
  8
TRMODEL1
  6
CONTINUOUS
 62
     7
100
AcDbLine
 10
0.515921
 20
-0.528519
 30
0.0
 11
0.518135
 21
-0.532712
 31
0.0
  0
LINE
  5
576
100
AcDbEntity
  8
TRMODEL1
  6
CONTINUOUS
 62
     7
100
AcDbLine
 10
0.518135
 20
-0.532712
 30
0.0
 11
0.52043
 21
-0.536943
 31
0.0
  0
LINE
  5
577
100
AcDbEntity
  8
TRMODEL1
  6
CONTINUOUS
 62
     7
100
AcDbLine
 10
0.52043
 20
-0.536943
 30
0.0
 11
0.522807
 21
-0.541215
 31
0.0
  0
LINE
  5
578
100
AcDbEntity
  8
TRMODEL1
  6
CONTINUOUS
 62
     7
100
AcDbLine
 10
0.522807
 20
-0.541215
 30
0.0
 11
0.525268
 21
-0.545528
 31
0.0
  0
LINE
  5
579
100
AcDbEntity
  8
TRMODEL1
  6
CONTINUOUS
 62
     7
100
AcDbLine
 10
0.483071
 20
-0.472441
 30
0.0
 11
0.483071
 21
-0.409146
 31
0.0
  0
LINE
  5
57A
100
AcDbEntity
  8
TRMODEL1
  6
CONTINUOUS
 62
     7
100
AcDbLine
 10
0.525268
 20
0.545528
 30
0.0
 11
0.522807
 21
0.541215
 31
0.0
  0
LINE
  5
57B
100
AcDbEntity
  8
TRMODEL1
  6
CONTINUOUS
 62
     7
100
AcDbLine
 10
0.522807
 20
0.541215
 30
0.0
 11
0.52043
 21
0.536943
 31
0.0
  0
LINE
  5
57C
100
AcDbEntity
  8
TRMODEL1
  6
CONTINUOUS
 62
     7
100
AcDbLine
 10
0.52043
 20
0.536943
 30
0.0
 11
0.518135
 21
0.532712
 31
0.0
  0
LINE
  5
57D
100
AcDbEntity
  8
TRMODEL1
  6
CONTINUOUS
 62
     7
100
AcDbLine
 10
0.518135
 20
0.532712
 30
0.0
 11
0.515921
 21
0.528519
 31
0.0
  0
LINE
  5
57E
100
AcDbEntity
  8
TRMODEL1
  6
CONTINUOUS
 62
     7
100
AcDbLine
 10
0.515921
 20
0.528519
 30
0.0
 11
0.513787
 21
0.524363
 31
0.0
  0
LINE
  5
57F
100
AcDbEntity
  8
TRMODEL1
  6
CONTINUOUS
 62
     7
100
AcDbLine
 10
0.513787
 20
0.524363
 30
0.0
 11
0.511731
 21
0.520242
 31
0.0
  0
LINE
  5
580
100
AcDbEntity
  8
TRMODEL1
  6
CONTINUOUS
 62
     7
100
AcDbLine
 10
0.511731
 20
0.520242
 30
0.0
 11
0.509753
 21
0.516154
 31
0.0
  0
LINE
  5
581
100
AcDbEntity
  8
TRMODEL1
  6
CONTINUOUS
 62
     7
100
AcDbLine
 10
0.509753
 20
0.516154
 30
0.0
 11
0.507851
 21
0.512097
 31
0.0
  0
LINE
  5
582
100
AcDbEntity
  8
TRMODEL1
  6
CONTINUOUS
 62
     7
100
AcDbLine
 10
0.507851
 20
0.512097
 30
0.0
 11
0.506024
 21
0.508071
 31
0.0
  0
LINE
  5
583
100
AcDbEntity
  8
TRMODEL1
  6
CONTINUOUS
 62
     7
100
AcDbLine
 10
0.506024
 20
0.508071
 30
0.0
 11
0.504271
 21
0.504073
 31
0.0
  0
LINE
  5
584
100
AcDbEntity
  8
TRMODEL1
  6
CONTINUOUS
 62
     7
100
AcDbLine
 10
0.504271
 20
0.504073
 30
0.0
 11
0.502593
 21
0.500102
 31
0.0
  0
LINE
  5
585
100
AcDbEntity
  8
TRMODEL1
  6
CONTINUOUS
 62
     7
100
AcDbLine
 10
0.502593
 20
0.500102
 30
0.0
 11
0.500987
 21
0.496157
 31
0.0
  0
LINE
  5
586
100
AcDbEntity
  8
TRMODEL1
  6
CONTINUOUS
 62
     7
100
AcDbLine
 10
0.500987
 20
0.496157
 30
0.0
 11
0.499453
 21
0.492235
 31
0.0
  0
LINE
  5
587
100
AcDbEntity
  8
TRMODEL1
  6
CONTINUOUS
 62
     7
100
AcDbLine
 10
0.499453
 20
0.492235
 30
0.0
 11
0.49799
 21
0.488335
 31
0.0
  0
LINE
  5
588
100
AcDbEntity
  8
TRMODEL1
  6
CONTINUOUS
 62
     7
100
AcDbLine
 10
0.49799
 20
0.488335
 30
0.0
 11
0.496598
 21
0.484457
 31
0.0
  0
LINE
  5
589
100
AcDbEntity
  8
TRMODEL1
  6
CONTINUOUS
 62
     7
100
AcDbLine
 10
0.496598
 20
0.484457
 30
0.0
 11
0.495276
 21
0.480598
 31
0.0
  0
LINE
  5
58A
100
AcDbEntity
  8
TRMODEL1
  6
CONTINUOUS
 62
     7
100
AcDbLine
 10
0.495276
 20
0.480598
 30
0.0
 11
0.494024
 21
0.476757
 31
0.0
  0
LINE
  5
58B
100
AcDbEntity
  8
TRMODEL1
  6
CONTINUOUS
 62
     7
100
AcDbLine
 10
0.494024
 20
0.476757
 30
0.0
 11
0.492841
 21
0.472933
 31
0.0
  0
LINE
  5
58C
100
AcDbEntity
  8
TRMODEL1
  6
CONTINUOUS
 62
     7
100
AcDbLine
 10
0.492841
 20
0.472933
 30
0.0
 11
0.491726
 21
0.469124
 31
0.0
  0
LINE
  5
58D
100
AcDbEntity
  8
TRMODEL1
  6
CONTINUOUS
 62
     7
100
AcDbLine
 10
0.491726
 20
0.469124
 30
0.0
 11
0.49068
 21
0.465329
 31
0.0
  0
LINE
  5
58E
100
AcDbEntity
  8
TRMODEL1
  6
CONTINUOUS
 62
     7
100
AcDbLine
 10
0.49068
 20
0.465329
 30
0.0
 11
0.489702
 21
0.461547
 31
0.0
  0
LINE
  5
58F
100
AcDbEntity
  8
TRMODEL1
  6
CONTINUOUS
 62
     7
100
AcDbLine
 10
0.489702
 20
0.461547
 30
0.0
 11
0.488791
 21
0.457776
 31
0.0
  0
LINE
  5
590
100
AcDbEntity
  8
TRMODEL1
  6
CONTINUOUS
 62
     7
100
AcDbLine
 10
0.488791
 20
0.457776
 30
0.0
 11
0.487948
 21
0.454014
 31
0.0
  0
LINE
  5
591
100
AcDbEntity
  8
TRMODEL1
  6
CONTINUOUS
 62
     7
100
AcDbLine
 10
0.487948
 20
0.454014
 30
0.0
 11
0.487172
 21
0.450261
 31
0.0
  0
LINE
  5
592
100
AcDbEntity
  8
TRMODEL1
  6
CONTINUOUS
 62
     7
100
AcDbLine
 10
0.487172
 20
0.450261
 30
0.0
 11
0.486463
 21
0.446515
 31
0.0
  0
LINE
  5
593
100
AcDbEntity
  8
TRMODEL1
  6
CONTINUOUS
 62
     7
100
AcDbLine
 10
0.486463
 20
0.446515
 30
0.0
 11
0.485821
 21
0.442775
 31
0.0
  0
LINE
  5
594
100
AcDbEntity
  8
TRMODEL1
  6
CONTINUOUS
 62
     7
100
AcDbLine
 10
0.485821
 20
0.442775
 30
0.0
 11
0.485246
 21
0.439039
 31
0.0
  0
LINE
  5
595
100
AcDbEntity
  8
TRMODEL1
  6
CONTINUOUS
 62
     7
100
AcDbLine
 10
0.485246
 20
0.439039
 30
0.0
 11
0.484738
 21
0.435307
 31
0.0
  0
LINE
  5
596
100
AcDbEntity
  8
TRMODEL1
  6
CONTINUOUS
 62
     7
100
AcDbLine
 10
0.484738
 20
0.435307
 30
0.0
 11
0.484298
 21
0.431575
 31
0.0
  0
LINE
  5
597
100
AcDbEntity
  8
TRMODEL1
  6
CONTINUOUS
 62
     7
100
AcDbLine
 10
0.484298
 20
0.431575
 30
0.0
 11
0.483924
 21
0.427845
 31
0.0
  0
LINE
  5
598
100
AcDbEntity
  8
TRMODEL1
  6
CONTINUOUS
 62
     7
100
AcDbLine
 10
0.483924
 20
0.427845
 30
0.0
 11
0.483618
 21
0.424113
 31
0.0
  0
LINE
  5
599
100
AcDbEntity
  8
TRMODEL1
  6
CONTINUOUS
 62
     7
100
AcDbLine
 10
0.483618
 20
0.424113
 30
0.0
 11
0.483379
 21
0.420378
 31
0.0
  0
LINE
  5
59A
100
AcDbEntity
  8
TRMODEL1
  6
CONTINUOUS
 62
     7
100
AcDbLine
 10
0.483379
 20
0.420378
 30
0.0
 11
0.483208
 21
0.41664
 31
0.0
  0
LINE
  5
59B
100
AcDbEntity
  8
TRMODEL1
  6
CONTINUOUS
 62
     7
100
AcDbLine
 10
0.483208
 20
0.41664
 30
0.0
 11
0.483105
 21
0.412896
 31
0.0
  0
LINE
  5
59C
100
AcDbEntity
  8
TRMODEL1
  6
CONTINUOUS
 62
     7
100
AcDbLine
 10
0.483105
 20
0.412896
 30
0.0
 11
0.483071
 21
0.409146
 31
0.0
  0
LINE
  5
59D
100
AcDbEntity
  8
TRMODEL1
  6
CONTINUOUS
 62
     7
100
AcDbLine
 10
0.483071
 20
0.409146
 30
0.0
 11
0.483071
 21
0.472441
 31
0.0
  0
LINE
  5
59E
100
AcDbEntity
  8
TRMODEL1
  6
CONTINUOUS
 62
     7
100
AcDbLine
 10
0.483071
 20
0.0
 30
0.0
 11
0.483105
 21
-0.007501
 31
0.0
  0
LINE
  5
59F
100
AcDbEntity
  8
TRMODEL1
  6
CONTINUOUS
 62
     7
100
AcDbLine
 10
0.483105
 20
-0.007501
 30
0.0
 11
0.483208
 21
-0.014988
 31
0.0
  0
LINE
  5
5A0
100
AcDbEntity
  8
TRMODEL1
  6
CONTINUOUS
 62
     7
100
AcDbLine
 10
0.483208
 20
-0.014988
 30
0.0
 11
0.483379
 21
-0.022464
 31
0.0
  0
LINE
  5
5A1
100
AcDbEntity
  8
TRMODEL1
  6
CONTINUOUS
 62
     7
100
AcDbLine
 10
0.483379
 20
-0.022464
 30
0.0
 11
0.483618
 21
-0.029933
 31
0.0
  0
LINE
  5
5A2
100
AcDbEntity
  8
TRMODEL1
  6
CONTINUOUS
 62
     7
100
AcDbLine
 10
0.483618
 20
-0.029933
 30
0.0
 11
0.483924
 21
-0.037397
 31
0.0
  0
LINE
  5
5A3
100
AcDbEntity
  8
TRMODEL1
  6
CONTINUOUS
 62
     7
100
AcDbLine
 10
0.483924
 20
-0.037397
 30
0.0
 11
0.484298
 21
-0.044859
 31
0.0
  0
LINE
  5
5A4
100
AcDbEntity
  8
TRMODEL1
  6
CONTINUOUS
 62
     7
100
AcDbLine
 10
0.484298
 20
-0.044859
 30
0.0
 11
0.484738
 21
-0.052321
 31
0.0
  0
LINE
  5
5A5
100
AcDbEntity
  8
TRMODEL1
  6
CONTINUOUS
 62
     7
100
AcDbLine
 10
0.484738
 20
-0.052321
 30
0.0
 11
0.485246
 21
-0.059787
 31
0.0
  0
LINE
  5
5A6
100
AcDbEntity
  8
TRMODEL1
  6
CONTINUOUS
 62
     7
100
AcDbLine
 10
0.485246
 20
-0.059787
 30
0.0
 11
0.485821
 21
-0.067259
 31
0.0
  0
LINE
  5
5A7
100
AcDbEntity
  8
TRMODEL1
  6
CONTINUOUS
 62
     7
100
AcDbLine
 10
0.485821
 20
-0.067259
 30
0.0
 11
0.486463
 21
-0.074739
 31
0.0
  0
LINE
  5
5A8
100
AcDbEntity
  8
TRMODEL1
  6
CONTINUOUS
 62
     7
100
AcDbLine
 10
0.486463
 20
-0.074739
 30
0.0
 11
0.487172
 21
-0.082231
 31
0.0
  0
LINE
  5
5A9
100
AcDbEntity
  8
TRMODEL1
  6
CONTINUOUS
 62
     7
100
AcDbLine
 10
0.487172
 20
-0.082231
 30
0.0
 11
0.487948
 21
-0.089737
 31
0.0
  0
LINE
  5
5AA
100
AcDbEntity
  8
TRMODEL1
  6
CONTINUOUS
 62
     7
100
AcDbLine
 10
0.487948
 20
-0.089737
 30
0.0
 11
0.488791
 21
-0.09726
 31
0.0
  0
LINE
  5
5AB
100
AcDbEntity
  8
TRMODEL1
  6
CONTINUOUS
 62
     7
100
AcDbLine
 10
0.488791
 20
-0.09726
 30
0.0
 11
0.489702
 21
-0.104802
 31
0.0
  0
LINE
  5
5AC
100
AcDbEntity
  8
TRMODEL1
  6
CONTINUOUS
 62
     7
100
AcDbLine
 10
0.489702
 20
-0.104802
 30
0.0
 11
0.49068
 21
-0.112367
 31
0.0
  0
LINE
  5
5AD
100
AcDbEntity
  8
TRMODEL1
  6
CONTINUOUS
 62
     7
100
AcDbLine
 10
0.49068
 20
-0.112367
 30
0.0
 11
0.491726
 21
-0.119957
 31
0.0
  0
LINE
  5
5AE
100
AcDbEntity
  8
TRMODEL1
  6
CONTINUOUS
 62
     7
100
AcDbLine
 10
0.491726
 20
-0.119957
 30
0.0
 11
0.492841
 21
-0.127575
 31
0.0
  0
LINE
  5
5AF
100
AcDbEntity
  8
TRMODEL1
  6
CONTINUOUS
 62
     7
100
AcDbLine
 10
0.492841
 20
-0.127575
 30
0.0
 11
0.494024
 21
-0.135223
 31
0.0
  0
LINE
  5
5B0
100
AcDbEntity
  8
TRMODEL1
  6
CONTINUOUS
 62
     7
100
AcDbLine
 10
0.494024
 20
-0.135223
 30
0.0
 11
0.495276
 21
-0.142905
 31
0.0
  0
LINE
  5
5B1
100
AcDbEntity
  8
TRMODEL1
  6
CONTINUOUS
 62
     7
100
AcDbLine
 10
0.495276
 20
-0.142905
 30
0.0
 11
0.496598
 21
-0.150622
 31
0.0
  0
LINE
  5
5B2
100
AcDbEntity
  8
TRMODEL1
  6
CONTINUOUS
 62
     7
100
AcDbLine
 10
0.496598
 20
-0.150622
 30
0.0
 11
0.49799
 21
-0.158379
 31
0.0
  0
LINE
  5
5B3
100
AcDbEntity
  8
TRMODEL1
  6
CONTINUOUS
 62
     7
100
AcDbLine
 10
0.49799
 20
-0.158379
 30
0.0
 11
0.499453
 21
-0.166178
 31
0.0
  0
LINE
  5
5B4
100
AcDbEntity
  8
TRMODEL1
  6
CONTINUOUS
 62
     7
100
AcDbLine
 10
0.499453
 20
-0.166178
 30
0.0
 11
0.500987
 21
-0.174021
 31
0.0
  0
LINE
  5
5B5
100
AcDbEntity
  8
TRMODEL1
  6
CONTINUOUS
 62
     7
100
AcDbLine
 10
0.500987
 20
-0.174021
 30
0.0
 11
0.502593
 21
-0.181913
 31
0.0
  0
LINE
  5
5B6
100
AcDbEntity
  8
TRMODEL1
  6
CONTINUOUS
 62
     7
100
AcDbLine
 10
0.502593
 20
-0.181913
 30
0.0
 11
0.504271
 21
-0.189855
 31
0.0
  0
LINE
  5
5B7
100
AcDbEntity
  8
TRMODEL1
  6
CONTINUOUS
 62
     7
100
AcDbLine
 10
0.504271
 20
-0.189855
 30
0.0
 11
0.506024
 21
-0.19785
 31
0.0
  0
LINE
  5
5B8
100
AcDbEntity
  8
TRMODEL1
  6
CONTINUOUS
 62
     7
100
AcDbLine
 10
0.506024
 20
-0.19785
 30
0.0
 11
0.507851
 21
-0.205903
 31
0.0
  0
LINE
  5
5B9
100
AcDbEntity
  8
TRMODEL1
  6
CONTINUOUS
 62
     7
100
AcDbLine
 10
0.507851
 20
-0.205903
 30
0.0
 11
0.509753
 21
-0.214016
 31
0.0
  0
LINE
  5
5BA
100
AcDbEntity
  8
TRMODEL1
  6
CONTINUOUS
 62
     7
100
AcDbLine
 10
0.509753
 20
-0.214016
 30
0.0
 11
0.511731
 21
-0.222192
 31
0.0
  0
LINE
  5
5BB
100
AcDbEntity
  8
TRMODEL1
  6
CONTINUOUS
 62
     7
100
AcDbLine
 10
0.511731
 20
-0.222192
 30
0.0
 11
0.513787
 21
-0.230434
 31
0.0
  0
LINE
  5
5BC
100
AcDbEntity
  8
TRMODEL1
  6
CONTINUOUS
 62
     7
100
AcDbLine
 10
0.513787
 20
-0.230434
 30
0.0
 11
0.515921
 21
-0.238747
 31
0.0
  0
LINE
  5
5BD
100
AcDbEntity
  8
TRMODEL1
  6
CONTINUOUS
 62
     7
100
AcDbLine
 10
0.515921
 20
-0.238747
 30
0.0
 11
0.518135
 21
-0.247132
 31
0.0
  0
LINE
  5
5BE
100
AcDbEntity
  8
TRMODEL1
  6
CONTINUOUS
 62
     7
100
AcDbLine
 10
0.518135
 20
-0.247132
 30
0.0
 11
0.52043
 21
-0.255595
 31
0.0
  0
LINE
  5
5BF
100
AcDbEntity
  8
TRMODEL1
  6
CONTINUOUS
 62
     7
100
AcDbLine
 10
0.52043
 20
-0.255595
 30
0.0
 11
0.522807
 21
-0.264137
 31
0.0
  0
LINE
  5
5C0
100
AcDbEntity
  8
TRMODEL1
  6
CONTINUOUS
 62
     7
100
AcDbLine
 10
0.522807
 20
-0.264137
 30
0.0
 11
0.525268
 21
-0.272764
 31
0.0
  0
LINE
  5
5C1
100
AcDbEntity
  8
TRMODEL1
  6
CONTINUOUS
 62
     7
100
AcDbLine
 10
0.483071
 20
-0.409146
 30
0.0
 11
0.483071
 21
0.0
 31
0.0
  0
LINE
  5
5C2
100
AcDbEntity
  8
TRMODEL1
  6
CONTINUOUS
 62
     7
100
AcDbLine
 10
0.525268
 20
-0.272764
 30
0.0
 11
0.522807
 21
-0.277077
 31
0.0
  0
LINE
  5
5C3
100
AcDbEntity
  8
TRMODEL1
  6
CONTINUOUS
 62
     7
100
AcDbLine
 10
0.522807
 20
-0.277077
 30
0.0
 11
0.52043
 21
-0.281349
 31
0.0
  0
LINE
  5
5C4
100
AcDbEntity
  8
TRMODEL1
  6
CONTINUOUS
 62
     7
100
AcDbLine
 10
0.52043
 20
-0.281349
 30
0.0
 11
0.518135
 21
-0.28558
 31
0.0
  0
LINE
  5
5C5
100
AcDbEntity
  8
TRMODEL1
  6
CONTINUOUS
 62
     7
100
AcDbLine
 10
0.518135
 20
-0.28558
 30
0.0
 11
0.515921
 21
-0.289772
 31
0.0
  0
LINE
  5
5C6
100
AcDbEntity
  8
TRMODEL1
  6
CONTINUOUS
 62
     7
100
AcDbLine
 10
0.515921
 20
-0.289772
 30
0.0
 11
0.513787
 21
-0.293929
 31
0.0
  0
LINE
  5
5C7
100
AcDbEntity
  8
TRMODEL1
  6
CONTINUOUS
 62
     7
100
AcDbLine
 10
0.513787
 20
-0.293929
 30
0.0
 11
0.511731
 21
-0.29805
 31
0.0
  0
LINE
  5
5C8
100
AcDbEntity
  8
TRMODEL1
  6
CONTINUOUS
 62
     7
100
AcDbLine
 10
0.511731
 20
-0.29805
 30
0.0
 11
0.509753
 21
-0.302138
 31
0.0
  0
LINE
  5
5C9
100
AcDbEntity
  8
TRMODEL1
  6
CONTINUOUS
 62
     7
100
AcDbLine
 10
0.509753
 20
-0.302138
 30
0.0
 11
0.507851
 21
-0.306194
 31
0.0
  0
LINE
  5
5CA
100
AcDbEntity
  8
TRMODEL1
  6
CONTINUOUS
 62
     7
100
AcDbLine
 10
0.507851
 20
-0.306194
 30
0.0
 11
0.506024
 21
-0.310221
 31
0.0
  0
LINE
  5
5CB
100
AcDbEntity
  8
TRMODEL1
  6
CONTINUOUS
 62
     7
100
AcDbLine
 10
0.506024
 20
-0.310221
 30
0.0
 11
0.504271
 21
-0.314219
 31
0.0
  0
LINE
  5
5CC
100
AcDbEntity
  8
TRMODEL1
  6
CONTINUOUS
 62
     7
100
AcDbLine
 10
0.504271
 20
-0.314219
 30
0.0
 11
0.502593
 21
-0.31819
 31
0.0
  0
LINE
  5
5CD
100
AcDbEntity
  8
TRMODEL1
  6
CONTINUOUS
 62
     7
100
AcDbLine
 10
0.502593
 20
-0.31819
 30
0.0
 11
0.500987
 21
-0.322135
 31
0.0
  0
LINE
  5
5CE
100
AcDbEntity
  8
TRMODEL1
  6
CONTINUOUS
 62
     7
100
AcDbLine
 10
0.500987
 20
-0.322135
 30
0.0
 11
0.499453
 21
-0.326057
 31
0.0
  0
LINE
  5
5CF
100
AcDbEntity
  8
TRMODEL1
  6
CONTINUOUS
 62
     7
100
AcDbLine
 10
0.499453
 20
-0.326057
 30
0.0
 11
0.49799
 21
-0.329956
 31
0.0
  0
LINE
  5
5D0
100
AcDbEntity
  8
TRMODEL1
  6
CONTINUOUS
 62
     7
100
AcDbLine
 10
0.49799
 20
-0.329956
 30
0.0
 11
0.496598
 21
-0.333835
 31
0.0
  0
LINE
  5
5D1
100
AcDbEntity
  8
TRMODEL1
  6
CONTINUOUS
 62
     7
100
AcDbLine
 10
0.496598
 20
-0.333835
 30
0.0
 11
0.495276
 21
-0.337694
 31
0.0
  0
LINE
  5
5D2
100
AcDbEntity
  8
TRMODEL1
  6
CONTINUOUS
 62
     7
100
AcDbLine
 10
0.495276
 20
-0.337694
 30
0.0
 11
0.494024
 21
-0.341534
 31
0.0
  0
LINE
  5
5D3
100
AcDbEntity
  8
TRMODEL1
  6
CONTINUOUS
 62
     7
100
AcDbLine
 10
0.494024
 20
-0.341534
 30
0.0
 11
0.492841
 21
-0.345358
 31
0.0
  0
LINE
  5
5D4
100
AcDbEntity
  8
TRMODEL1
  6
CONTINUOUS
 62
     7
100
AcDbLine
 10
0.492841
 20
-0.345358
 30
0.0
 11
0.491726
 21
-0.349167
 31
0.0
  0
LINE
  5
5D5
100
AcDbEntity
  8
TRMODEL1
  6
CONTINUOUS
 62
     7
100
AcDbLine
 10
0.491726
 20
-0.349167
 30
0.0
 11
0.49068
 21
-0.352962
 31
0.0
  0
LINE
  5
5D6
100
AcDbEntity
  8
TRMODEL1
  6
CONTINUOUS
 62
     7
100
AcDbLine
 10
0.49068
 20
-0.352962
 30
0.0
 11
0.489702
 21
-0.356745
 31
0.0
  0
LINE
  5
5D7
100
AcDbEntity
  8
TRMODEL1
  6
CONTINUOUS
 62
     7
100
AcDbLine
 10
0.489702
 20
-0.356745
 30
0.0
 11
0.488791
 21
-0.360516
 31
0.0
  0
LINE
  5
5D8
100
AcDbEntity
  8
TRMODEL1
  6
CONTINUOUS
 62
     7
100
AcDbLine
 10
0.488791
 20
-0.360516
 30
0.0
 11
0.487948
 21
-0.364277
 31
0.0
  0
LINE
  5
5D9
100
AcDbEntity
  8
TRMODEL1
  6
CONTINUOUS
 62
     7
100
AcDbLine
 10
0.487948
 20
-0.364277
 30
0.0
 11
0.487172
 21
-0.36803
 31
0.0
  0
LINE
  5
5DA
100
AcDbEntity
  8
TRMODEL1
  6
CONTINUOUS
 62
     7
100
AcDbLine
 10
0.487172
 20
-0.36803
 30
0.0
 11
0.486463
 21
-0.371776
 31
0.0
  0
LINE
  5
5DB
100
AcDbEntity
  8
TRMODEL1
  6
CONTINUOUS
 62
     7
100
AcDbLine
 10
0.486463
 20
-0.371776
 30
0.0
 11
0.485821
 21
-0.375516
 31
0.0
  0
LINE
  5
5DC
100
AcDbEntity
  8
TRMODEL1
  6
CONTINUOUS
 62
     7
100
AcDbLine
 10
0.485821
 20
-0.375516
 30
0.0
 11
0.485246
 21
-0.379252
 31
0.0
  0
LINE
  5
5DD
100
AcDbEntity
  8
TRMODEL1
  6
CONTINUOUS
 62
     7
100
AcDbLine
 10
0.485246
 20
-0.379252
 30
0.0
 11
0.484738
 21
-0.382985
 31
0.0
  0
LINE
  5
5DE
100
AcDbEntity
  8
TRMODEL1
  6
CONTINUOUS
 62
     7
100
AcDbLine
 10
0.484738
 20
-0.382985
 30
0.0
 11
0.484298
 21
-0.386716
 31
0.0
  0
LINE
  5
5DF
100
AcDbEntity
  8
TRMODEL1
  6
CONTINUOUS
 62
     7
100
AcDbLine
 10
0.484298
 20
-0.386716
 30
0.0
 11
0.483924
 21
-0.390447
 31
0.0
  0
LINE
  5
5E0
100
AcDbEntity
  8
TRMODEL1
  6
CONTINUOUS
 62
     7
100
AcDbLine
 10
0.483924
 20
-0.390447
 30
0.0
 11
0.483618
 21
-0.394179
 31
0.0
  0
LINE
  5
5E1
100
AcDbEntity
  8
TRMODEL1
  6
CONTINUOUS
 62
     7
100
AcDbLine
 10
0.483618
 20
-0.394179
 30
0.0
 11
0.483379
 21
-0.397914
 31
0.0
  0
LINE
  5
5E2
100
AcDbEntity
  8
TRMODEL1
  6
CONTINUOUS
 62
     7
100
AcDbLine
 10
0.483379
 20
-0.397914
 30
0.0
 11
0.483208
 21
-0.401652
 31
0.0
  0
LINE
  5
5E3
100
AcDbEntity
  8
TRMODEL1
  6
CONTINUOUS
 62
     7
100
AcDbLine
 10
0.483208
 20
-0.401652
 30
0.0
 11
0.483105
 21
-0.405396
 31
0.0
  0
LINE
  5
5E4
100
AcDbEntity
  8
TRMODEL1
  6
CONTINUOUS
 62
     7
100
AcDbLine
 10
0.483105
 20
-0.405396
 30
0.0
 11
0.483071
 21
-0.409146
 31
0.0
  0
LINE
  5
5E5
100
AcDbEntity
  8
TRMODEL1
  6
CONTINUOUS
 62
     7
100
AcDbLine
 10
0.525268
 20
0.272764
 30
0.0
 11
0.522807
 21
0.264137
 31
0.0
  0
LINE
  5
5E6
100
AcDbEntity
  8
TRMODEL1
  6
CONTINUOUS
 62
     7
100
AcDbLine
 10
0.522807
 20
0.264137
 30
0.0
 11
0.52043
 21
0.255595
 31
0.0
  0
LINE
  5
5E7
100
AcDbEntity
  8
TRMODEL1
  6
CONTINUOUS
 62
     7
100
AcDbLine
 10
0.52043
 20
0.255595
 30
0.0
 11
0.518135
 21
0.247132
 31
0.0
  0
LINE
  5
5E8
100
AcDbEntity
  8
TRMODEL1
  6
CONTINUOUS
 62
     7
100
AcDbLine
 10
0.518135
 20
0.247132
 30
0.0
 11
0.515921
 21
0.238747
 31
0.0
  0
LINE
  5
5E9
100
AcDbEntity
  8
TRMODEL1
  6
CONTINUOUS
 62
     7
100
AcDbLine
 10
0.515921
 20
0.238747
 30
0.0
 11
0.513787
 21
0.230434
 31
0.0
  0
LINE
  5
5EA
100
AcDbEntity
  8
TRMODEL1
  6
CONTINUOUS
 62
     7
100
AcDbLine
 10
0.513787
 20
0.230434
 30
0.0
 11
0.511731
 21
0.222192
 31
0.0
  0
LINE
  5
5EB
100
AcDbEntity
  8
TRMODEL1
  6
CONTINUOUS
 62
     7
100
AcDbLine
 10
0.511731
 20
0.222192
 30
0.0
 11
0.509753
 21
0.214016
 31
0.0
  0
LINE
  5
5EC
100
AcDbEntity
  8
TRMODEL1
  6
CONTINUOUS
 62
     7
100
AcDbLine
 10
0.509753
 20
0.214016
 30
0.0
 11
0.507851
 21
0.205903
 31
0.0
  0
LINE
  5
5ED
100
AcDbEntity
  8
TRMODEL1
  6
CONTINUOUS
 62
     7
100
AcDbLine
 10
0.507851
 20
0.205903
 30
0.0
 11
0.506024
 21
0.19785
 31
0.0
  0
LINE
  5
5EE
100
AcDbEntity
  8
TRMODEL1
  6
CONTINUOUS
 62
     7
100
AcDbLine
 10
0.506024
 20
0.19785
 30
0.0
 11
0.504271
 21
0.189855
 31
0.0
  0
LINE
  5
5EF
100
AcDbEntity
  8
TRMODEL1
  6
CONTINUOUS
 62
     7
100
AcDbLine
 10
0.504271
 20
0.189855
 30
0.0
 11
0.502593
 21
0.181913
 31
0.0
  0
LINE
  5
5F0
100
AcDbEntity
  8
TRMODEL1
  6
CONTINUOUS
 62
     7
100
AcDbLine
 10
0.502593
 20
0.181913
 30
0.0
 11
0.500987
 21
0.174021
 31
0.0
  0
LINE
  5
5F1
100
AcDbEntity
  8
TRMODEL1
  6
CONTINUOUS
 62
     7
100
AcDbLine
 10
0.500987
 20
0.174021
 30
0.0
 11
0.499453
 21
0.166178
 31
0.0
  0
LINE
  5
5F2
100
AcDbEntity
  8
TRMODEL1
  6
CONTINUOUS
 62
     7
100
AcDbLine
 10
0.499453
 20
0.166178
 30
0.0
 11
0.49799
 21
0.158379
 31
0.0
  0
LINE
  5
5F3
100
AcDbEntity
  8
TRMODEL1
  6
CONTINUOUS
 62
     7
100
AcDbLine
 10
0.49799
 20
0.158379
 30
0.0
 11
0.496598
 21
0.150622
 31
0.0
  0
LINE
  5
5F4
100
AcDbEntity
  8
TRMODEL1
  6
CONTINUOUS
 62
     7
100
AcDbLine
 10
0.496598
 20
0.150622
 30
0.0
 11
0.495276
 21
0.142905
 31
0.0
  0
LINE
  5
5F5
100
AcDbEntity
  8
TRMODEL1
  6
CONTINUOUS
 62
     7
100
AcDbLine
 10
0.495276
 20
0.142905
 30
0.0
 11
0.494024
 21
0.135223
 31
0.0
  0
LINE
  5
5F6
100
AcDbEntity
  8
TRMODEL1
  6
CONTINUOUS
 62
     7
100
AcDbLine
 10
0.494024
 20
0.135223
 30
0.0
 11
0.492841
 21
0.127575
 31
0.0
  0
LINE
  5
5F7
100
AcDbEntity
  8
TRMODEL1
  6
CONTINUOUS
 62
     7
100
AcDbLine
 10
0.492841
 20
0.127575
 30
0.0
 11
0.491726
 21
0.119957
 31
0.0
  0
LINE
  5
5F8
100
AcDbEntity
  8
TRMODEL1
  6
CONTINUOUS
 62
     7
100
AcDbLine
 10
0.491726
 20
0.119957
 30
0.0
 11
0.49068
 21
0.112367
 31
0.0
  0
LINE
  5
5F9
100
AcDbEntity
  8
TRMODEL1
  6
CONTINUOUS
 62
     7
100
AcDbLine
 10
0.49068
 20
0.112367
 30
0.0
 11
0.489702
 21
0.104802
 31
0.0
  0
LINE
  5
5FA
100
AcDbEntity
  8
TRMODEL1
  6
CONTINUOUS
 62
     7
100
AcDbLine
 10
0.489702
 20
0.104802
 30
0.0
 11
0.488791
 21
0.09726
 31
0.0
  0
LINE
  5
5FB
100
AcDbEntity
  8
TRMODEL1
  6
CONTINUOUS
 62
     7
100
AcDbLine
 10
0.488791
 20
0.09726
 30
0.0
 11
0.487948
 21
0.089737
 31
0.0
  0
LINE
  5
5FC
100
AcDbEntity
  8
TRMODEL1
  6
CONTINUOUS
 62
     7
100
AcDbLine
 10
0.487948
 20
0.089737
 30
0.0
 11
0.487172
 21
0.082231
 31
0.0
  0
LINE
  5
5FD
100
AcDbEntity
  8
TRMODEL1
  6
CONTINUOUS
 62
     7
100
AcDbLine
 10
0.487172
 20
0.082231
 30
0.0
 11
0.486463
 21
0.074739
 31
0.0
  0
LINE
  5
5FE
100
AcDbEntity
  8
TRMODEL1
  6
CONTINUOUS
 62
     7
100
AcDbLine
 10
0.486463
 20
0.074739
 30
0.0
 11
0.485821
 21
0.067259
 31
0.0
  0
LINE
  5
5FF
100
AcDbEntity
  8
TRMODEL1
  6
CONTINUOUS
 62
     7
100
AcDbLine
 10
0.485821
 20
0.067259
 30
0.0
 11
0.485246
 21
0.059787
 31
0.0
  0
LINE
  5
600
100
AcDbEntity
  8
TRMODEL1
  6
CONTINUOUS
 62
     7
100
AcDbLine
 10
0.485246
 20
0.059787
 30
0.0
 11
0.484738
 21
0.052321
 31
0.0
  0
LINE
  5
601
100
AcDbEntity
  8
TRMODEL1
  6
CONTINUOUS
 62
     7
100
AcDbLine
 10
0.484738
 20
0.052321
 30
0.0
 11
0.484298
 21
0.044859
 31
0.0
  0
LINE
  5
602
100
AcDbEntity
  8
TRMODEL1
  6
CONTINUOUS
 62
     7
100
AcDbLine
 10
0.484298
 20
0.044859
 30
0.0
 11
0.483924
 21
0.037397
 31
0.0
  0
LINE
  5
603
100
AcDbEntity
  8
TRMODEL1
  6
CONTINUOUS
 62
     7
100
AcDbLine
 10
0.483924
 20
0.037397
 30
0.0
 11
0.483618
 21
0.029933
 31
0.0
  0
LINE
  5
604
100
AcDbEntity
  8
TRMODEL1
  6
CONTINUOUS
 62
     7
100
AcDbLine
 10
0.483618
 20
0.029933
 30
0.0
 11
0.483379
 21
0.022464
 31
0.0
  0
LINE
  5
605
100
AcDbEntity
  8
TRMODEL1
  6
CONTINUOUS
 62
     7
100
AcDbLine
 10
0.483379
 20
0.022464
 30
0.0
 11
0.483208
 21
0.014988
 31
0.0
  0
LINE
  5
606
100
AcDbEntity
  8
TRMODEL1
  6
CONTINUOUS
 62
     7
100
AcDbLine
 10
0.483208
 20
0.014988
 30
0.0
 11
0.483105
 21
0.007501
 31
0.0
  0
LINE
  5
607
100
AcDbEntity
  8
TRMODEL1
  6
CONTINUOUS
 62
     7
100
AcDbLine
 10
0.483105
 20
0.007501
 30
0.0
 11
0.483071
 21
0.0
 31
0.0
  0
LINE
  5
608
100
AcDbEntity
  8
TRMODEL1
  6
CONTINUOUS
 62
     7
100
AcDbLine
 10
0.483071
 20
0.409146
 30
0.0
 11
0.483105
 21
0.405396
 31
0.0
  0
LINE
  5
609
100
AcDbEntity
  8
TRMODEL1
  6
CONTINUOUS
 62
     7
100
AcDbLine
 10
0.483105
 20
0.405396
 30
0.0
 11
0.483208
 21
0.401652
 31
0.0
  0
LINE
  5
60A
100
AcDbEntity
  8
TRMODEL1
  6
CONTINUOUS
 62
     7
100
AcDbLine
 10
0.483208
 20
0.401652
 30
0.0
 11
0.483379
 21
0.397914
 31
0.0
  0
LINE
  5
60B
100
AcDbEntity
  8
TRMODEL1
  6
CONTINUOUS
 62
     7
100
AcDbLine
 10
0.483379
 20
0.397914
 30
0.0
 11
0.483618
 21
0.394179
 31
0.0
  0
LINE
  5
60C
100
AcDbEntity
  8
TRMODEL1
  6
CONTINUOUS
 62
     7
100
AcDbLine
 10
0.483618
 20
0.394179
 30
0.0
 11
0.483924
 21
0.390447
 31
0.0
  0
LINE
  5
60D
100
AcDbEntity
  8
TRMODEL1
  6
CONTINUOUS
 62
     7
100
AcDbLine
 10
0.483924
 20
0.390447
 30
0.0
 11
0.484298
 21
0.386716
 31
0.0
  0
LINE
  5
60E
100
AcDbEntity
  8
TRMODEL1
  6
CONTINUOUS
 62
     7
100
AcDbLine
 10
0.484298
 20
0.386716
 30
0.0
 11
0.484738
 21
0.382985
 31
0.0
  0
LINE
  5
60F
100
AcDbEntity
  8
TRMODEL1
  6
CONTINUOUS
 62
     7
100
AcDbLine
 10
0.484738
 20
0.382985
 30
0.0
 11
0.485246
 21
0.379252
 31
0.0
  0
LINE
  5
610
100
AcDbEntity
  8
TRMODEL1
  6
CONTINUOUS
 62
     7
100
AcDbLine
 10
0.485246
 20
0.379252
 30
0.0
 11
0.485821
 21
0.375516
 31
0.0
  0
LINE
  5
611
100
AcDbEntity
  8
TRMODEL1
  6
CONTINUOUS
 62
     7
100
AcDbLine
 10
0.485821
 20
0.375516
 30
0.0
 11
0.486463
 21
0.371776
 31
0.0
  0
LINE
  5
612
100
AcDbEntity
  8
TRMODEL1
  6
CONTINUOUS
 62
     7
100
AcDbLine
 10
0.486463
 20
0.371776
 30
0.0
 11
0.487172
 21
0.36803
 31
0.0
  0
LINE
  5
613
100
AcDbEntity
  8
TRMODEL1
  6
CONTINUOUS
 62
     7
100
AcDbLine
 10
0.487172
 20
0.36803
 30
0.0
 11
0.487948
 21
0.364277
 31
0.0
  0
LINE
  5
614
100
AcDbEntity
  8
TRMODEL1
  6
CONTINUOUS
 62
     7
100
AcDbLine
 10
0.487948
 20
0.364277
 30
0.0
 11
0.488791
 21
0.360516
 31
0.0
  0
LINE
  5
615
100
AcDbEntity
  8
TRMODEL1
  6
CONTINUOUS
 62
     7
100
AcDbLine
 10
0.488791
 20
0.360516
 30
0.0
 11
0.489702
 21
0.356745
 31
0.0
  0
LINE
  5
616
100
AcDbEntity
  8
TRMODEL1
  6
CONTINUOUS
 62
     7
100
AcDbLine
 10
0.489702
 20
0.356745
 30
0.0
 11
0.49068
 21
0.352962
 31
0.0
  0
LINE
  5
617
100
AcDbEntity
  8
TRMODEL1
  6
CONTINUOUS
 62
     7
100
AcDbLine
 10
0.49068
 20
0.352962
 30
0.0
 11
0.491726
 21
0.349167
 31
0.0
  0
LINE
  5
618
100
AcDbEntity
  8
TRMODEL1
  6
CONTINUOUS
 62
     7
100
AcDbLine
 10
0.491726
 20
0.349167
 30
0.0
 11
0.492841
 21
0.345358
 31
0.0
  0
LINE
  5
619
100
AcDbEntity
  8
TRMODEL1
  6
CONTINUOUS
 62
     7
100
AcDbLine
 10
0.492841
 20
0.345358
 30
0.0
 11
0.494024
 21
0.341534
 31
0.0
  0
LINE
  5
61A
100
AcDbEntity
  8
TRMODEL1
  6
CONTINUOUS
 62
     7
100
AcDbLine
 10
0.494024
 20
0.341534
 30
0.0
 11
0.495276
 21
0.337694
 31
0.0
  0
LINE
  5
61B
100
AcDbEntity
  8
TRMODEL1
  6
CONTINUOUS
 62
     7
100
AcDbLine
 10
0.495276
 20
0.337694
 30
0.0
 11
0.496598
 21
0.333835
 31
0.0
  0
LINE
  5
61C
100
AcDbEntity
  8
TRMODEL1
  6
CONTINUOUS
 62
     7
100
AcDbLine
 10
0.496598
 20
0.333835
 30
0.0
 11
0.49799
 21
0.329956
 31
0.0
  0
LINE
  5
61D
100
AcDbEntity
  8
TRMODEL1
  6
CONTINUOUS
 62
     7
100
AcDbLine
 10
0.49799
 20
0.329956
 30
0.0
 11
0.499453
 21
0.326057
 31
0.0
  0
LINE
  5
61E
100
AcDbEntity
  8
TRMODEL1
  6
CONTINUOUS
 62
     7
100
AcDbLine
 10
0.499453
 20
0.326057
 30
0.0
 11
0.500987
 21
0.322135
 31
0.0
  0
LINE
  5
61F
100
AcDbEntity
  8
TRMODEL1
  6
CONTINUOUS
 62
     7
100
AcDbLine
 10
0.500987
 20
0.322135
 30
0.0
 11
0.502593
 21
0.31819
 31
0.0
  0
LINE
  5
620
100
AcDbEntity
  8
TRMODEL1
  6
CONTINUOUS
 62
     7
100
AcDbLine
 10
0.502593
 20
0.31819
 30
0.0
 11
0.504271
 21
0.314219
 31
0.0
  0
LINE
  5
621
100
AcDbEntity
  8
TRMODEL1
  6
CONTINUOUS
 62
     7
100
AcDbLine
 10
0.504271
 20
0.314219
 30
0.0
 11
0.506024
 21
0.310221
 31
0.0
  0
LINE
  5
622
100
AcDbEntity
  8
TRMODEL1
  6
CONTINUOUS
 62
     7
100
AcDbLine
 10
0.506024
 20
0.310221
 30
0.0
 11
0.507851
 21
0.306194
 31
0.0
  0
LINE
  5
623
100
AcDbEntity
  8
TRMODEL1
  6
CONTINUOUS
 62
     7
100
AcDbLine
 10
0.507851
 20
0.306194
 30
0.0
 11
0.509753
 21
0.302138
 31
0.0
  0
LINE
  5
624
100
AcDbEntity
  8
TRMODEL1
  6
CONTINUOUS
 62
     7
100
AcDbLine
 10
0.509753
 20
0.302138
 30
0.0
 11
0.511731
 21
0.29805
 31
0.0
  0
LINE
  5
625
100
AcDbEntity
  8
TRMODEL1
  6
CONTINUOUS
 62
     7
100
AcDbLine
 10
0.511731
 20
0.29805
 30
0.0
 11
0.513787
 21
0.293929
 31
0.0
  0
LINE
  5
626
100
AcDbEntity
  8
TRMODEL1
  6
CONTINUOUS
 62
     7
100
AcDbLine
 10
0.513787
 20
0.293929
 30
0.0
 11
0.515921
 21
0.289772
 31
0.0
  0
LINE
  5
627
100
AcDbEntity
  8
TRMODEL1
  6
CONTINUOUS
 62
     7
100
AcDbLine
 10
0.515921
 20
0.289772
 30
0.0
 11
0.518135
 21
0.28558
 31
0.0
  0
LINE
  5
628
100
AcDbEntity
  8
TRMODEL1
  6
CONTINUOUS
 62
     7
100
AcDbLine
 10
0.518135
 20
0.28558
 30
0.0
 11
0.52043
 21
0.281349
 31
0.0
  0
LINE
  5
629
100
AcDbEntity
  8
TRMODEL1
  6
CONTINUOUS
 62
     7
100
AcDbLine
 10
0.52043
 20
0.281349
 30
0.0
 11
0.522807
 21
0.277077
 31
0.0
  0
LINE
  5
62A
100
AcDbEntity
  8
TRMODEL1
  6
CONTINUOUS
 62
     7
100
AcDbLine
 10
0.522807
 20
0.277077
 30
0.0
 11
0.525268
 21
0.272764
 31
0.0
  0
LINE
  5
62B
100
AcDbEntity
  8
TRMODEL1
  6
CONTINUOUS
 62
     7
100
AcDbLine
 10
0.483071
 20
0.0
 30
0.0
 11
0.483071
 21
0.409146
 31
0.0
  0
LINE
  5
62C
100
AcDbEntity
  8
TRMODEL1
  6
CONTINUOUS
 62
     7
100
AcDbLine
 10
0.525268
 20
-0.272764
 30
0.0
 11
0.598354
 21
-0.272764
 31
0.0
  0
LINE
  5
62D
100
AcDbEntity
  8
TRMODEL1
  6
CONTINUOUS
 62
     7
100
AcDbLine
 10
0.598354
 20
-0.272764
 30
0.0
 11
0.600815
 21
-0.264137
 31
0.0
  0
LINE
  5
62E
100
AcDbEntity
  8
TRMODEL1
  6
CONTINUOUS
 62
     7
100
AcDbLine
 10
0.600815
 20
-0.264137
 30
0.0
 11
0.603192
 21
-0.255595
 31
0.0
  0
LINE
  5
62F
100
AcDbEntity
  8
TRMODEL1
  6
CONTINUOUS
 62
     7
100
AcDbLine
 10
0.603192
 20
-0.255595
 30
0.0
 11
0.605487
 21
-0.247132
 31
0.0
  0
LINE
  5
630
100
AcDbEntity
  8
TRMODEL1
  6
CONTINUOUS
 62
     7
100
AcDbLine
 10
0.605487
 20
-0.247132
 30
0.0
 11
0.607701
 21
-0.238747
 31
0.0
  0
LINE
  5
631
100
AcDbEntity
  8
TRMODEL1
  6
CONTINUOUS
 62
     7
100
AcDbLine
 10
0.607701
 20
-0.238747
 30
0.0
 11
0.609835
 21
-0.230434
 31
0.0
  0
LINE
  5
632
100
AcDbEntity
  8
TRMODEL1
  6
CONTINUOUS
 62
     7
100
AcDbLine
 10
0.609835
 20
-0.230434
 30
0.0
 11
0.611891
 21
-0.222192
 31
0.0
  0
LINE
  5
633
100
AcDbEntity
  8
TRMODEL1
  6
CONTINUOUS
 62
     7
100
AcDbLine
 10
0.611891
 20
-0.222192
 30
0.0
 11
0.613869
 21
-0.214016
 31
0.0
  0
LINE
  5
634
100
AcDbEntity
  8
TRMODEL1
  6
CONTINUOUS
 62
     7
100
AcDbLine
 10
0.613869
 20
-0.214016
 30
0.0
 11
0.615771
 21
-0.205903
 31
0.0
  0
LINE
  5
635
100
AcDbEntity
  8
TRMODEL1
  6
CONTINUOUS
 62
     7
100
AcDbLine
 10
0.615771
 20
-0.205903
 30
0.0
 11
0.617598
 21
-0.19785
 31
0.0
  0
LINE
  5
636
100
AcDbEntity
  8
TRMODEL1
  6
CONTINUOUS
 62
     7
100
AcDbLine
 10
0.617598
 20
-0.19785
 30
0.0
 11
0.619351
 21
-0.189855
 31
0.0
  0
LINE
  5
637
100
AcDbEntity
  8
TRMODEL1
  6
CONTINUOUS
 62
     7
100
AcDbLine
 10
0.619351
 20
-0.189855
 30
0.0
 11
0.621029
 21
-0.181913
 31
0.0
  0
LINE
  5
638
100
AcDbEntity
  8
TRMODEL1
  6
CONTINUOUS
 62
     7
100
AcDbLine
 10
0.621029
 20
-0.181913
 30
0.0
 11
0.622635
 21
-0.174021
 31
0.0
  0
LINE
  5
639
100
AcDbEntity
  8
TRMODEL1
  6
CONTINUOUS
 62
     7
100
AcDbLine
 10
0.622635
 20
-0.174021
 30
0.0
 11
0.624169
 21
-0.166178
 31
0.0
  0
LINE
  5
63A
100
AcDbEntity
  8
TRMODEL1
  6
CONTINUOUS
 62
     7
100
AcDbLine
 10
0.624169
 20
-0.166178
 30
0.0
 11
0.625632
 21
-0.158379
 31
0.0
  0
LINE
  5
63B
100
AcDbEntity
  8
TRMODEL1
  6
CONTINUOUS
 62
     7
100
AcDbLine
 10
0.625632
 20
-0.158379
 30
0.0
 11
0.627024
 21
-0.150622
 31
0.0
  0
LINE
  5
63C
100
AcDbEntity
  8
TRMODEL1
  6
CONTINUOUS
 62
     7
100
AcDbLine
 10
0.627024
 20
-0.150622
 30
0.0
 11
0.628346
 21
-0.142905
 31
0.0
  0
LINE
  5
63D
100
AcDbEntity
  8
TRMODEL1
  6
CONTINUOUS
 62
     7
100
AcDbLine
 10
0.628346
 20
-0.142905
 30
0.0
 11
0.629598
 21
-0.135223
 31
0.0
  0
LINE
  5
63E
100
AcDbEntity
  8
TRMODEL1
  6
CONTINUOUS
 62
     7
100
AcDbLine
 10
0.629598
 20
-0.135223
 30
0.0
 11
0.630781
 21
-0.127575
 31
0.0
  0
LINE
  5
63F
100
AcDbEntity
  8
TRMODEL1
  6
CONTINUOUS
 62
     7
100
AcDbLine
 10
0.630781
 20
-0.127575
 30
0.0
 11
0.631896
 21
-0.119957
 31
0.0
  0
LINE
  5
640
100
AcDbEntity
  8
TRMODEL1
  6
CONTINUOUS
 62
     7
100
AcDbLine
 10
0.631896
 20
-0.119957
 30
0.0
 11
0.632942
 21
-0.112367
 31
0.0
  0
LINE
  5
641
100
AcDbEntity
  8
TRMODEL1
  6
CONTINUOUS
 62
     7
100
AcDbLine
 10
0.632942
 20
-0.112367
 30
0.0
 11
0.633921
 21
-0.104802
 31
0.0
  0
LINE
  5
642
100
AcDbEntity
  8
TRMODEL1
  6
CONTINUOUS
 62
     7
100
AcDbLine
 10
0.633921
 20
-0.104802
 30
0.0
 11
0.634831
 21
-0.09726
 31
0.0
  0
LINE
  5
643
100
AcDbEntity
  8
TRMODEL1
  6
CONTINUOUS
 62
     7
100
AcDbLine
 10
0.634831
 20
-0.09726
 30
0.0
 11
0.635674
 21
-0.089737
 31
0.0
  0
LINE
  5
644
100
AcDbEntity
  8
TRMODEL1
  6
CONTINUOUS
 62
     7
100
AcDbLine
 10
0.635674
 20
-0.089737
 30
0.0
 11
0.63645
 21
-0.082231
 31
0.0
  0
LINE
  5
645
100
AcDbEntity
  8
TRMODEL1
  6
CONTINUOUS
 62
     7
100
AcDbLine
 10
0.63645
 20
-0.082231
 30
0.0
 11
0.637159
 21
-0.074739
 31
0.0
  0
LINE
  5
646
100
AcDbEntity
  8
TRMODEL1
  6
CONTINUOUS
 62
     7
100
AcDbLine
 10
0.637159
 20
-0.074739
 30
0.0
 11
0.637801
 21
-0.067259
 31
0.0
  0
LINE
  5
647
100
AcDbEntity
  8
TRMODEL1
  6
CONTINUOUS
 62
     7
100
AcDbLine
 10
0.637801
 20
-0.067259
 30
0.0
 11
0.638376
 21
-0.059787
 31
0.0
  0
LINE
  5
648
100
AcDbEntity
  8
TRMODEL1
  6
CONTINUOUS
 62
     7
100
AcDbLine
 10
0.638376
 20
-0.059787
 30
0.0
 11
0.638884
 21
-0.052321
 31
0.0
  0
LINE
  5
649
100
AcDbEntity
  8
TRMODEL1
  6
CONTINUOUS
 62
     7
100
AcDbLine
 10
0.638884
 20
-0.052321
 30
0.0
 11
0.639324
 21
-0.044859
 31
0.0
  0
LINE
  5
64A
100
AcDbEntity
  8
TRMODEL1
  6
CONTINUOUS
 62
     7
100
AcDbLine
 10
0.639324
 20
-0.044859
 30
0.0
 11
0.639698
 21
-0.037397
 31
0.0
  0
LINE
  5
64B
100
AcDbEntity
  8
TRMODEL1
  6
CONTINUOUS
 62
     7
100
AcDbLine
 10
0.639698
 20
-0.037397
 30
0.0
 11
0.640004
 21
-0.029933
 31
0.0
  0
LINE
  5
64C
100
AcDbEntity
  8
TRMODEL1
  6
CONTINUOUS
 62
     7
100
AcDbLine
 10
0.640004
 20
-0.029933
 30
0.0
 11
0.640243
 21
-0.022464
 31
0.0
  0
LINE
  5
64D
100
AcDbEntity
  8
TRMODEL1
  6
CONTINUOUS
 62
     7
100
AcDbLine
 10
0.640243
 20
-0.022464
 30
0.0
 11
0.640414
 21
-0.014988
 31
0.0
  0
LINE
  5
64E
100
AcDbEntity
  8
TRMODEL1
  6
CONTINUOUS
 62
     7
100
AcDbLine
 10
0.640414
 20
-0.014988
 30
0.0
 11
0.640517
 21
-0.007501
 31
0.0
  0
LINE
  5
64F
100
AcDbEntity
  8
TRMODEL1
  6
CONTINUOUS
 62
     7
100
AcDbLine
 10
0.640517
 20
-0.007501
 30
0.0
 11
0.640551
 21
0.0
 31
0.0
  0
LINE
  5
650
100
AcDbEntity
  8
TRMODEL1
  6
CONTINUOUS
 62
     7
100
AcDbLine
 10
0.640551
 20
0.0
 30
0.0
 11
0.640517
 21
0.007501
 31
0.0
  0
LINE
  5
651
100
AcDbEntity
  8
TRMODEL1
  6
CONTINUOUS
 62
     7
100
AcDbLine
 10
0.640517
 20
0.007501
 30
0.0
 11
0.640414
 21
0.014988
 31
0.0
  0
LINE
  5
652
100
AcDbEntity
  8
TRMODEL1
  6
CONTINUOUS
 62
     7
100
AcDbLine
 10
0.640414
 20
0.014988
 30
0.0
 11
0.640243
 21
0.022464
 31
0.0
  0
LINE
  5
653
100
AcDbEntity
  8
TRMODEL1
  6
CONTINUOUS
 62
     7
100
AcDbLine
 10
0.640243
 20
0.022464
 30
0.0
 11
0.640004
 21
0.029933
 31
0.0
  0
LINE
  5
654
100
AcDbEntity
  8
TRMODEL1
  6
CONTINUOUS
 62
     7
100
AcDbLine
 10
0.640004
 20
0.029933
 30
0.0
 11
0.639698
 21
0.037397
 31
0.0
  0
LINE
  5
655
100
AcDbEntity
  8
TRMODEL1
  6
CONTINUOUS
 62
     7
100
AcDbLine
 10
0.639698
 20
0.037397
 30
0.0
 11
0.639324
 21
0.044859
 31
0.0
  0
LINE
  5
656
100
AcDbEntity
  8
TRMODEL1
  6
CONTINUOUS
 62
     7
100
AcDbLine
 10
0.639324
 20
0.044859
 30
0.0
 11
0.638884
 21
0.052321
 31
0.0
  0
LINE
  5
657
100
AcDbEntity
  8
TRMODEL1
  6
CONTINUOUS
 62
     7
100
AcDbLine
 10
0.638884
 20
0.052321
 30
0.0
 11
0.638376
 21
0.059787
 31
0.0
  0
LINE
  5
658
100
AcDbEntity
  8
TRMODEL1
  6
CONTINUOUS
 62
     7
100
AcDbLine
 10
0.638376
 20
0.059787
 30
0.0
 11
0.637801
 21
0.067259
 31
0.0
  0
LINE
  5
659
100
AcDbEntity
  8
TRMODEL1
  6
CONTINUOUS
 62
     7
100
AcDbLine
 10
0.637801
 20
0.067259
 30
0.0
 11
0.637159
 21
0.074739
 31
0.0
  0
LINE
  5
65A
100
AcDbEntity
  8
TRMODEL1
  6
CONTINUOUS
 62
     7
100
AcDbLine
 10
0.637159
 20
0.074739
 30
0.0
 11
0.63645
 21
0.082231
 31
0.0
  0
LINE
  5
65B
100
AcDbEntity
  8
TRMODEL1
  6
CONTINUOUS
 62
     7
100
AcDbLine
 10
0.63645
 20
0.082231
 30
0.0
 11
0.635674
 21
0.089737
 31
0.0
  0
LINE
  5
65C
100
AcDbEntity
  8
TRMODEL1
  6
CONTINUOUS
 62
     7
100
AcDbLine
 10
0.635674
 20
0.089737
 30
0.0
 11
0.634831
 21
0.09726
 31
0.0
  0
LINE
  5
65D
100
AcDbEntity
  8
TRMODEL1
  6
CONTINUOUS
 62
     7
100
AcDbLine
 10
0.634831
 20
0.09726
 30
0.0
 11
0.633921
 21
0.104802
 31
0.0
  0
LINE
  5
65E
100
AcDbEntity
  8
TRMODEL1
  6
CONTINUOUS
 62
     7
100
AcDbLine
 10
0.633921
 20
0.104802
 30
0.0
 11
0.632942
 21
0.112367
 31
0.0
  0
LINE
  5
65F
100
AcDbEntity
  8
TRMODEL1
  6
CONTINUOUS
 62
     7
100
AcDbLine
 10
0.632942
 20
0.112367
 30
0.0
 11
0.631896
 21
0.119957
 31
0.0
  0
LINE
  5
660
100
AcDbEntity
  8
TRMODEL1
  6
CONTINUOUS
 62
     7
100
AcDbLine
 10
0.631896
 20
0.119957
 30
0.0
 11
0.630781
 21
0.127575
 31
0.0
  0
LINE
  5
661
100
AcDbEntity
  8
TRMODEL1
  6
CONTINUOUS
 62
     7
100
AcDbLine
 10
0.630781
 20
0.127575
 30
0.0
 11
0.629598
 21
0.135223
 31
0.0
  0
LINE
  5
662
100
AcDbEntity
  8
TRMODEL1
  6
CONTINUOUS
 62
     7
100
AcDbLine
 10
0.629598
 20
0.135223
 30
0.0
 11
0.628346
 21
0.142905
 31
0.0
  0
LINE
  5
663
100
AcDbEntity
  8
TRMODEL1
  6
CONTINUOUS
 62
     7
100
AcDbLine
 10
0.628346
 20
0.142905
 30
0.0
 11
0.627024
 21
0.150622
 31
0.0
  0
LINE
  5
664
100
AcDbEntity
  8
TRMODEL1
  6
CONTINUOUS
 62
     7
100
AcDbLine
 10
0.627024
 20
0.150622
 30
0.0
 11
0.625632
 21
0.158379
 31
0.0
  0
LINE
  5
665
100
AcDbEntity
  8
TRMODEL1
  6
CONTINUOUS
 62
     7
100
AcDbLine
 10
0.625632
 20
0.158379
 30
0.0
 11
0.624169
 21
0.166178
 31
0.0
  0
LINE
  5
666
100
AcDbEntity
  8
TRMODEL1
  6
CONTINUOUS
 62
     7
100
AcDbLine
 10
0.624169
 20
0.166178
 30
0.0
 11
0.622635
 21
0.174021
 31
0.0
  0
LINE
  5
667
100
AcDbEntity
  8
TRMODEL1
  6
CONTINUOUS
 62
     7
100
AcDbLine
 10
0.622635
 20
0.174021
 30
0.0
 11
0.621029
 21
0.181913
 31
0.0
  0
LINE
  5
668
100
AcDbEntity
  8
TRMODEL1
  6
CONTINUOUS
 62
     7
100
AcDbLine
 10
0.621029
 20
0.181913
 30
0.0
 11
0.619351
 21
0.189855
 31
0.0
  0
LINE
  5
669
100
AcDbEntity
  8
TRMODEL1
  6
CONTINUOUS
 62
     7
100
AcDbLine
 10
0.619351
 20
0.189855
 30
0.0
 11
0.617598
 21
0.19785
 31
0.0
  0
LINE
  5
66A
100
AcDbEntity
  8
TRMODEL1
  6
CONTINUOUS
 62
     7
100
AcDbLine
 10
0.617598
 20
0.19785
 30
0.0
 11
0.615771
 21
0.205903
 31
0.0
  0
LINE
  5
66B
100
AcDbEntity
  8
TRMODEL1
  6
CONTINUOUS
 62
     7
100
AcDbLine
 10
0.615771
 20
0.205903
 30
0.0
 11
0.613869
 21
0.214016
 31
0.0
  0
LINE
  5
66C
100
AcDbEntity
  8
TRMODEL1
  6
CONTINUOUS
 62
     7
100
AcDbLine
 10
0.613869
 20
0.214016
 30
0.0
 11
0.611891
 21
0.222192
 31
0.0
  0
LINE
  5
66D
100
AcDbEntity
  8
TRMODEL1
  6
CONTINUOUS
 62
     7
100
AcDbLine
 10
0.611891
 20
0.222192
 30
0.0
 11
0.609835
 21
0.230434
 31
0.0
  0
LINE
  5
66E
100
AcDbEntity
  8
TRMODEL1
  6
CONTINUOUS
 62
     7
100
AcDbLine
 10
0.609835
 20
0.230434
 30
0.0
 11
0.607701
 21
0.238747
 31
0.0
  0
LINE
  5
66F
100
AcDbEntity
  8
TRMODEL1
  6
CONTINUOUS
 62
     7
100
AcDbLine
 10
0.607701
 20
0.238747
 30
0.0
 11
0.605487
 21
0.247132
 31
0.0
  0
LINE
  5
670
100
AcDbEntity
  8
TRMODEL1
  6
CONTINUOUS
 62
     7
100
AcDbLine
 10
0.605487
 20
0.247132
 30
0.0
 11
0.603192
 21
0.255595
 31
0.0
  0
LINE
  5
671
100
AcDbEntity
  8
TRMODEL1
  6
CONTINUOUS
 62
     7
100
AcDbLine
 10
0.603192
 20
0.255595
 30
0.0
 11
0.600815
 21
0.264137
 31
0.0
  0
LINE
  5
672
100
AcDbEntity
  8
TRMODEL1
  6
CONTINUOUS
 62
     7
100
AcDbLine
 10
0.600815
 20
0.264137
 30
0.0
 11
0.598354
 21
0.272764
 31
0.0
  0
LINE
  5
673
100
AcDbEntity
  8
TRMODEL1
  6
CONTINUOUS
 62
     7
100
AcDbLine
 10
0.525268
 20
0.272764
 30
0.0
 11
0.598354
 21
0.272764
 31
0.0
  0
LINE
  5
674
100
AcDbEntity
  8
TRMODEL1
  6
CONTINUOUS
 62
     7
100
AcDbLine
 10
0.525268
 20
-0.545528
 30
0.0
 11
0.598354
 21
-0.545528
 31
0.0
  0
LINE
  5
675
100
AcDbEntity
  8
TRMODEL1
  6
CONTINUOUS
 62
     7
100
AcDbLine
 10
0.598354
 20
-0.545528
 30
0.0
 11
0.600815
 21
-0.541215
 31
0.0
  0
LINE
  5
676
100
AcDbEntity
  8
TRMODEL1
  6
CONTINUOUS
 62
     7
100
AcDbLine
 10
0.600815
 20
-0.541215
 30
0.0
 11
0.603192
 21
-0.536943
 31
0.0
  0
LINE
  5
677
100
AcDbEntity
  8
TRMODEL1
  6
CONTINUOUS
 62
     7
100
AcDbLine
 10
0.603192
 20
-0.536943
 30
0.0
 11
0.605487
 21
-0.532712
 31
0.0
  0
LINE
  5
678
100
AcDbEntity
  8
TRMODEL1
  6
CONTINUOUS
 62
     7
100
AcDbLine
 10
0.605487
 20
-0.532712
 30
0.0
 11
0.607701
 21
-0.528519
 31
0.0
  0
LINE
  5
679
100
AcDbEntity
  8
TRMODEL1
  6
CONTINUOUS
 62
     7
100
AcDbLine
 10
0.607701
 20
-0.528519
 30
0.0
 11
0.609835
 21
-0.524363
 31
0.0
  0
LINE
  5
67A
100
AcDbEntity
  8
TRMODEL1
  6
CONTINUOUS
 62
     7
100
AcDbLine
 10
0.609835
 20
-0.524363
 30
0.0
 11
0.611891
 21
-0.520242
 31
0.0
  0
LINE
  5
67B
100
AcDbEntity
  8
TRMODEL1
  6
CONTINUOUS
 62
     7
100
AcDbLine
 10
0.611891
 20
-0.520242
 30
0.0
 11
0.613869
 21
-0.516154
 31
0.0
  0
LINE
  5
67C
100
AcDbEntity
  8
TRMODEL1
  6
CONTINUOUS
 62
     7
100
AcDbLine
 10
0.613869
 20
-0.516154
 30
0.0
 11
0.615771
 21
-0.512097
 31
0.0
  0
LINE
  5
67D
100
AcDbEntity
  8
TRMODEL1
  6
CONTINUOUS
 62
     7
100
AcDbLine
 10
0.615771
 20
-0.512097
 30
0.0
 11
0.617598
 21
-0.508071
 31
0.0
  0
LINE
  5
67E
100
AcDbEntity
  8
TRMODEL1
  6
CONTINUOUS
 62
     7
100
AcDbLine
 10
0.617598
 20
-0.508071
 30
0.0
 11
0.619351
 21
-0.504073
 31
0.0
  0
LINE
  5
67F
100
AcDbEntity
  8
TRMODEL1
  6
CONTINUOUS
 62
     7
100
AcDbLine
 10
0.619351
 20
-0.504073
 30
0.0
 11
0.621029
 21
-0.500102
 31
0.0
  0
LINE
  5
680
100
AcDbEntity
  8
TRMODEL1
  6
CONTINUOUS
 62
     7
100
AcDbLine
 10
0.621029
 20
-0.500102
 30
0.0
 11
0.622635
 21
-0.496157
 31
0.0
  0
LINE
  5
681
100
AcDbEntity
  8
TRMODEL1
  6
CONTINUOUS
 62
     7
100
AcDbLine
 10
0.622635
 20
-0.496157
 30
0.0
 11
0.624169
 21
-0.492235
 31
0.0
  0
LINE
  5
682
100
AcDbEntity
  8
TRMODEL1
  6
CONTINUOUS
 62
     7
100
AcDbLine
 10
0.624169
 20
-0.492235
 30
0.0
 11
0.625632
 21
-0.488335
 31
0.0
  0
LINE
  5
683
100
AcDbEntity
  8
TRMODEL1
  6
CONTINUOUS
 62
     7
100
AcDbLine
 10
0.625632
 20
-0.488335
 30
0.0
 11
0.627024
 21
-0.484457
 31
0.0
  0
LINE
  5
684
100
AcDbEntity
  8
TRMODEL1
  6
CONTINUOUS
 62
     7
100
AcDbLine
 10
0.627024
 20
-0.484457
 30
0.0
 11
0.628346
 21
-0.480598
 31
0.0
  0
LINE
  5
685
100
AcDbEntity
  8
TRMODEL1
  6
CONTINUOUS
 62
     7
100
AcDbLine
 10
0.628346
 20
-0.480598
 30
0.0
 11
0.629598
 21
-0.476757
 31
0.0
  0
LINE
  5
686
100
AcDbEntity
  8
TRMODEL1
  6
CONTINUOUS
 62
     7
100
AcDbLine
 10
0.629598
 20
-0.476757
 30
0.0
 11
0.630781
 21
-0.472933
 31
0.0
  0
LINE
  5
687
100
AcDbEntity
  8
TRMODEL1
  6
CONTINUOUS
 62
     7
100
AcDbLine
 10
0.630781
 20
-0.472933
 30
0.0
 11
0.631896
 21
-0.469124
 31
0.0
  0
LINE
  5
688
100
AcDbEntity
  8
TRMODEL1
  6
CONTINUOUS
 62
     7
100
AcDbLine
 10
0.631896
 20
-0.469124
 30
0.0
 11
0.632942
 21
-0.465329
 31
0.0
  0
LINE
  5
689
100
AcDbEntity
  8
TRMODEL1
  6
CONTINUOUS
 62
     7
100
AcDbLine
 10
0.632942
 20
-0.465329
 30
0.0
 11
0.633921
 21
-0.461547
 31
0.0
  0
LINE
  5
68A
100
AcDbEntity
  8
TRMODEL1
  6
CONTINUOUS
 62
     7
100
AcDbLine
 10
0.633921
 20
-0.461547
 30
0.0
 11
0.634831
 21
-0.457776
 31
0.0
  0
LINE
  5
68B
100
AcDbEntity
  8
TRMODEL1
  6
CONTINUOUS
 62
     7
100
AcDbLine
 10
0.634831
 20
-0.457776
 30
0.0
 11
0.635674
 21
-0.454014
 31
0.0
  0
LINE
  5
68C
100
AcDbEntity
  8
TRMODEL1
  6
CONTINUOUS
 62
     7
100
AcDbLine
 10
0.635674
 20
-0.454014
 30
0.0
 11
0.63645
 21
-0.450261
 31
0.0
  0
LINE
  5
68D
100
AcDbEntity
  8
TRMODEL1
  6
CONTINUOUS
 62
     7
100
AcDbLine
 10
0.63645
 20
-0.450261
 30
0.0
 11
0.637159
 21
-0.446515
 31
0.0
  0
LINE
  5
68E
100
AcDbEntity
  8
TRMODEL1
  6
CONTINUOUS
 62
     7
100
AcDbLine
 10
0.637159
 20
-0.446515
 30
0.0
 11
0.637801
 21
-0.442775
 31
0.0
  0
LINE
  5
68F
100
AcDbEntity
  8
TRMODEL1
  6
CONTINUOUS
 62
     7
100
AcDbLine
 10
0.637801
 20
-0.442775
 30
0.0
 11
0.638376
 21
-0.439039
 31
0.0
  0
LINE
  5
690
100
AcDbEntity
  8
TRMODEL1
  6
CONTINUOUS
 62
     7
100
AcDbLine
 10
0.638376
 20
-0.439039
 30
0.0
 11
0.638884
 21
-0.435307
 31
0.0
  0
LINE
  5
691
100
AcDbEntity
  8
TRMODEL1
  6
CONTINUOUS
 62
     7
100
AcDbLine
 10
0.638884
 20
-0.435307
 30
0.0
 11
0.639324
 21
-0.431575
 31
0.0
  0
LINE
  5
692
100
AcDbEntity
  8
TRMODEL1
  6
CONTINUOUS
 62
     7
100
AcDbLine
 10
0.639324
 20
-0.431575
 30
0.0
 11
0.639698
 21
-0.427845
 31
0.0
  0
LINE
  5
693
100
AcDbEntity
  8
TRMODEL1
  6
CONTINUOUS
 62
     7
100
AcDbLine
 10
0.639698
 20
-0.427845
 30
0.0
 11
0.640004
 21
-0.424113
 31
0.0
  0
LINE
  5
694
100
AcDbEntity
  8
TRMODEL1
  6
CONTINUOUS
 62
     7
100
AcDbLine
 10
0.640004
 20
-0.424113
 30
0.0
 11
0.640243
 21
-0.420378
 31
0.0
  0
LINE
  5
695
100
AcDbEntity
  8
TRMODEL1
  6
CONTINUOUS
 62
     7
100
AcDbLine
 10
0.640243
 20
-0.420378
 30
0.0
 11
0.640414
 21
-0.41664
 31
0.0
  0
LINE
  5
696
100
AcDbEntity
  8
TRMODEL1
  6
CONTINUOUS
 62
     7
100
AcDbLine
 10
0.640414
 20
-0.41664
 30
0.0
 11
0.640517
 21
-0.412896
 31
0.0
  0
LINE
  5
697
100
AcDbEntity
  8
TRMODEL1
  6
CONTINUOUS
 62
     7
100
AcDbLine
 10
0.640517
 20
-0.412896
 30
0.0
 11
0.640551
 21
-0.409146
 31
0.0
  0
LINE
  5
698
100
AcDbEntity
  8
TRMODEL1
  6
CONTINUOUS
 62
     7
100
AcDbLine
 10
0.640551
 20
-0.409146
 30
0.0
 11
0.640517
 21
-0.405396
 31
0.0
  0
LINE
  5
699
100
AcDbEntity
  8
TRMODEL1
  6
CONTINUOUS
 62
     7
100
AcDbLine
 10
0.640517
 20
-0.405396
 30
0.0
 11
0.640414
 21
-0.401652
 31
0.0
  0
LINE
  5
69A
100
AcDbEntity
  8
TRMODEL1
  6
CONTINUOUS
 62
     7
100
AcDbLine
 10
0.640414
 20
-0.401652
 30
0.0
 11
0.640243
 21
-0.397914
 31
0.0
  0
LINE
  5
69B
100
AcDbEntity
  8
TRMODEL1
  6
CONTINUOUS
 62
     7
100
AcDbLine
 10
0.640243
 20
-0.397914
 30
0.0
 11
0.640004
 21
-0.394179
 31
0.0
  0
LINE
  5
69C
100
AcDbEntity
  8
TRMODEL1
  6
CONTINUOUS
 62
     7
100
AcDbLine
 10
0.640004
 20
-0.394179
 30
0.0
 11
0.639698
 21
-0.390447
 31
0.0
  0
LINE
  5
69D
100
AcDbEntity
  8
TRMODEL1
  6
CONTINUOUS
 62
     7
100
AcDbLine
 10
0.639698
 20
-0.390447
 30
0.0
 11
0.639324
 21
-0.386716
 31
0.0
  0
LINE
  5
69E
100
AcDbEntity
  8
TRMODEL1
  6
CONTINUOUS
 62
     7
100
AcDbLine
 10
0.639324
 20
-0.386716
 30
0.0
 11
0.638884
 21
-0.382985
 31
0.0
  0
LINE
  5
69F
100
AcDbEntity
  8
TRMODEL1
  6
CONTINUOUS
 62
     7
100
AcDbLine
 10
0.638884
 20
-0.382985
 30
0.0
 11
0.638376
 21
-0.379252
 31
0.0
  0
LINE
  5
6A0
100
AcDbEntity
  8
TRMODEL1
  6
CONTINUOUS
 62
     7
100
AcDbLine
 10
0.638376
 20
-0.379252
 30
0.0
 11
0.637801
 21
-0.375516
 31
0.0
  0
LINE
  5
6A1
100
AcDbEntity
  8
TRMODEL1
  6
CONTINUOUS
 62
     7
100
AcDbLine
 10
0.637801
 20
-0.375516
 30
0.0
 11
0.637159
 21
-0.371776
 31
0.0
  0
LINE
  5
6A2
100
AcDbEntity
  8
TRMODEL1
  6
CONTINUOUS
 62
     7
100
AcDbLine
 10
0.637159
 20
-0.371776
 30
0.0
 11
0.63645
 21
-0.36803
 31
0.0
  0
LINE
  5
6A3
100
AcDbEntity
  8
TRMODEL1
  6
CONTINUOUS
 62
     7
100
AcDbLine
 10
0.63645
 20
-0.36803
 30
0.0
 11
0.635674
 21
-0.364277
 31
0.0
  0
LINE
  5
6A4
100
AcDbEntity
  8
TRMODEL1
  6
CONTINUOUS
 62
     7
100
AcDbLine
 10
0.635674
 20
-0.364277
 30
0.0
 11
0.634831
 21
-0.360516
 31
0.0
  0
LINE
  5
6A5
100
AcDbEntity
  8
TRMODEL1
  6
CONTINUOUS
 62
     7
100
AcDbLine
 10
0.634831
 20
-0.360516
 30
0.0
 11
0.633921
 21
-0.356745
 31
0.0
  0
LINE
  5
6A6
100
AcDbEntity
  8
TRMODEL1
  6
CONTINUOUS
 62
     7
100
AcDbLine
 10
0.633921
 20
-0.356745
 30
0.0
 11
0.632942
 21
-0.352962
 31
0.0
  0
LINE
  5
6A7
100
AcDbEntity
  8
TRMODEL1
  6
CONTINUOUS
 62
     7
100
AcDbLine
 10
0.632942
 20
-0.352962
 30
0.0
 11
0.631896
 21
-0.349167
 31
0.0
  0
LINE
  5
6A8
100
AcDbEntity
  8
TRMODEL1
  6
CONTINUOUS
 62
     7
100
AcDbLine
 10
0.631896
 20
-0.349167
 30
0.0
 11
0.630781
 21
-0.345358
 31
0.0
  0
LINE
  5
6A9
100
AcDbEntity
  8
TRMODEL1
  6
CONTINUOUS
 62
     7
100
AcDbLine
 10
0.630781
 20
-0.345358
 30
0.0
 11
0.629598
 21
-0.341534
 31
0.0
  0
LINE
  5
6AA
100
AcDbEntity
  8
TRMODEL1
  6
CONTINUOUS
 62
     7
100
AcDbLine
 10
0.629598
 20
-0.341534
 30
0.0
 11
0.628346
 21
-0.337694
 31
0.0
  0
LINE
  5
6AB
100
AcDbEntity
  8
TRMODEL1
  6
CONTINUOUS
 62
     7
100
AcDbLine
 10
0.628346
 20
-0.337694
 30
0.0
 11
0.627024
 21
-0.333835
 31
0.0
  0
LINE
  5
6AC
100
AcDbEntity
  8
TRMODEL1
  6
CONTINUOUS
 62
     7
100
AcDbLine
 10
0.627024
 20
-0.333835
 30
0.0
 11
0.625632
 21
-0.329956
 31
0.0
  0
LINE
  5
6AD
100
AcDbEntity
  8
TRMODEL1
  6
CONTINUOUS
 62
     7
100
AcDbLine
 10
0.625632
 20
-0.329956
 30
0.0
 11
0.624169
 21
-0.326057
 31
0.0
  0
LINE
  5
6AE
100
AcDbEntity
  8
TRMODEL1
  6
CONTINUOUS
 62
     7
100
AcDbLine
 10
0.624169
 20
-0.326057
 30
0.0
 11
0.622635
 21
-0.322135
 31
0.0
  0
LINE
  5
6AF
100
AcDbEntity
  8
TRMODEL1
  6
CONTINUOUS
 62
     7
100
AcDbLine
 10
0.622635
 20
-0.322135
 30
0.0
 11
0.621029
 21
-0.31819
 31
0.0
  0
LINE
  5
6B0
100
AcDbEntity
  8
TRMODEL1
  6
CONTINUOUS
 62
     7
100
AcDbLine
 10
0.621029
 20
-0.31819
 30
0.0
 11
0.619351
 21
-0.314219
 31
0.0
  0
LINE
  5
6B1
100
AcDbEntity
  8
TRMODEL1
  6
CONTINUOUS
 62
     7
100
AcDbLine
 10
0.619351
 20
-0.314219
 30
0.0
 11
0.617598
 21
-0.310221
 31
0.0
  0
LINE
  5
6B2
100
AcDbEntity
  8
TRMODEL1
  6
CONTINUOUS
 62
     7
100
AcDbLine
 10
0.617598
 20
-0.310221
 30
0.0
 11
0.615771
 21
-0.306194
 31
0.0
  0
LINE
  5
6B3
100
AcDbEntity
  8
TRMODEL1
  6
CONTINUOUS
 62
     7
100
AcDbLine
 10
0.615771
 20
-0.306194
 30
0.0
 11
0.613869
 21
-0.302138
 31
0.0
  0
LINE
  5
6B4
100
AcDbEntity
  8
TRMODEL1
  6
CONTINUOUS
 62
     7
100
AcDbLine
 10
0.613869
 20
-0.302138
 30
0.0
 11
0.611891
 21
-0.29805
 31
0.0
  0
LINE
  5
6B5
100
AcDbEntity
  8
TRMODEL1
  6
CONTINUOUS
 62
     7
100
AcDbLine
 10
0.611891
 20
-0.29805
 30
0.0
 11
0.609835
 21
-0.293929
 31
0.0
  0
LINE
  5
6B6
100
AcDbEntity
  8
TRMODEL1
  6
CONTINUOUS
 62
     7
100
AcDbLine
 10
0.609835
 20
-0.293929
 30
0.0
 11
0.607701
 21
-0.289772
 31
0.0
  0
LINE
  5
6B7
100
AcDbEntity
  8
TRMODEL1
  6
CONTINUOUS
 62
     7
100
AcDbLine
 10
0.607701
 20
-0.289772
 30
0.0
 11
0.605487
 21
-0.28558
 31
0.0
  0
LINE
  5
6B8
100
AcDbEntity
  8
TRMODEL1
  6
CONTINUOUS
 62
     7
100
AcDbLine
 10
0.605487
 20
-0.28558
 30
0.0
 11
0.603192
 21
-0.281349
 31
0.0
  0
LINE
  5
6B9
100
AcDbEntity
  8
TRMODEL1
  6
CONTINUOUS
 62
     7
100
AcDbLine
 10
0.603192
 20
-0.281349
 30
0.0
 11
0.600815
 21
-0.277077
 31
0.0
  0
LINE
  5
6BA
100
AcDbEntity
  8
TRMODEL1
  6
CONTINUOUS
 62
     7
100
AcDbLine
 10
0.600815
 20
-0.277077
 30
0.0
 11
0.598354
 21
-0.272764
 31
0.0
  0
LINE
  5
6BB
100
AcDbEntity
  8
TRMODEL1
  6
CONTINUOUS
 62
     7
100
AcDbLine
 10
0.640551
 20
-0.409146
 30
0.0
 11
0.640551
 21
-0.472441
 31
0.0
  0
LINE
  5
6BC
100
AcDbEntity
  8
TRMODEL1
  6
CONTINUOUS
 62
     7
100
AcDbLine
 10
0.640551
 20
0.0
 30
0.0
 11
0.640551
 21
-0.409146
 31
0.0
  0
LINE
  5
6BD
100
AcDbEntity
  8
TRMODEL1
  6
CONTINUOUS
 62
     7
100
AcDbLine
 10
0.640551
 20
0.409146
 30
0.0
 11
0.640517
 21
0.412896
 31
0.0
  0
LINE
  5
6BE
100
AcDbEntity
  8
TRMODEL1
  6
CONTINUOUS
 62
     7
100
AcDbLine
 10
0.640517
 20
0.412896
 30
0.0
 11
0.640414
 21
0.41664
 31
0.0
  0
LINE
  5
6BF
100
AcDbEntity
  8
TRMODEL1
  6
CONTINUOUS
 62
     7
100
AcDbLine
 10
0.640414
 20
0.41664
 30
0.0
 11
0.640243
 21
0.420378
 31
0.0
  0
LINE
  5
6C0
100
AcDbEntity
  8
TRMODEL1
  6
CONTINUOUS
 62
     7
100
AcDbLine
 10
0.640243
 20
0.420378
 30
0.0
 11
0.640004
 21
0.424113
 31
0.0
  0
LINE
  5
6C1
100
AcDbEntity
  8
TRMODEL1
  6
CONTINUOUS
 62
     7
100
AcDbLine
 10
0.640004
 20
0.424113
 30
0.0
 11
0.639698
 21
0.427845
 31
0.0
  0
LINE
  5
6C2
100
AcDbEntity
  8
TRMODEL1
  6
CONTINUOUS
 62
     7
100
AcDbLine
 10
0.639698
 20
0.427845
 30
0.0
 11
0.639324
 21
0.431575
 31
0.0
  0
LINE
  5
6C3
100
AcDbEntity
  8
TRMODEL1
  6
CONTINUOUS
 62
     7
100
AcDbLine
 10
0.639324
 20
0.431575
 30
0.0
 11
0.638884
 21
0.435307
 31
0.0
  0
LINE
  5
6C4
100
AcDbEntity
  8
TRMODEL1
  6
CONTINUOUS
 62
     7
100
AcDbLine
 10
0.638884
 20
0.435307
 30
0.0
 11
0.638376
 21
0.439039
 31
0.0
  0
LINE
  5
6C5
100
AcDbEntity
  8
TRMODEL1
  6
CONTINUOUS
 62
     7
100
AcDbLine
 10
0.638376
 20
0.439039
 30
0.0
 11
0.637801
 21
0.442775
 31
0.0
  0
LINE
  5
6C6
100
AcDbEntity
  8
TRMODEL1
  6
CONTINUOUS
 62
     7
100
AcDbLine
 10
0.637801
 20
0.442775
 30
0.0
 11
0.637159
 21
0.446515
 31
0.0
  0
LINE
  5
6C7
100
AcDbEntity
  8
TRMODEL1
  6
CONTINUOUS
 62
     7
100
AcDbLine
 10
0.637159
 20
0.446515
 30
0.0
 11
0.63645
 21
0.450261
 31
0.0
  0
LINE
  5
6C8
100
AcDbEntity
  8
TRMODEL1
  6
CONTINUOUS
 62
     7
100
AcDbLine
 10
0.63645
 20
0.450261
 30
0.0
 11
0.635674
 21
0.454014
 31
0.0
  0
LINE
  5
6C9
100
AcDbEntity
  8
TRMODEL1
  6
CONTINUOUS
 62
     7
100
AcDbLine
 10
0.635674
 20
0.454014
 30
0.0
 11
0.634831
 21
0.457776
 31
0.0
  0
LINE
  5
6CA
100
AcDbEntity
  8
TRMODEL1
  6
CONTINUOUS
 62
     7
100
AcDbLine
 10
0.634831
 20
0.457776
 30
0.0
 11
0.633921
 21
0.461547
 31
0.0
  0
LINE
  5
6CB
100
AcDbEntity
  8
TRMODEL1
  6
CONTINUOUS
 62
     7
100
AcDbLine
 10
0.633921
 20
0.461547
 30
0.0
 11
0.632942
 21
0.465329
 31
0.0
  0
LINE
  5
6CC
100
AcDbEntity
  8
TRMODEL1
  6
CONTINUOUS
 62
     7
100
AcDbLine
 10
0.632942
 20
0.465329
 30
0.0
 11
0.631896
 21
0.469124
 31
0.0
  0
LINE
  5
6CD
100
AcDbEntity
  8
TRMODEL1
  6
CONTINUOUS
 62
     7
100
AcDbLine
 10
0.631896
 20
0.469124
 30
0.0
 11
0.630781
 21
0.472933
 31
0.0
  0
LINE
  5
6CE
100
AcDbEntity
  8
TRMODEL1
  6
CONTINUOUS
 62
     7
100
AcDbLine
 10
0.630781
 20
0.472933
 30
0.0
 11
0.629598
 21
0.476757
 31
0.0
  0
LINE
  5
6CF
100
AcDbEntity
  8
TRMODEL1
  6
CONTINUOUS
 62
     7
100
AcDbLine
 10
0.629598
 20
0.476757
 30
0.0
 11
0.628346
 21
0.480598
 31
0.0
  0
LINE
  5
6D0
100
AcDbEntity
  8
TRMODEL1
  6
CONTINUOUS
 62
     7
100
AcDbLine
 10
0.628346
 20
0.480598
 30
0.0
 11
0.627024
 21
0.484457
 31
0.0
  0
LINE
  5
6D1
100
AcDbEntity
  8
TRMODEL1
  6
CONTINUOUS
 62
     7
100
AcDbLine
 10
0.627024
 20
0.484457
 30
0.0
 11
0.625632
 21
0.488335
 31
0.0
  0
LINE
  5
6D2
100
AcDbEntity
  8
TRMODEL1
  6
CONTINUOUS
 62
     7
100
AcDbLine
 10
0.625632
 20
0.488335
 30
0.0
 11
0.624169
 21
0.492235
 31
0.0
  0
LINE
  5
6D3
100
AcDbEntity
  8
TRMODEL1
  6
CONTINUOUS
 62
     7
100
AcDbLine
 10
0.624169
 20
0.492235
 30
0.0
 11
0.622635
 21
0.496157
 31
0.0
  0
LINE
  5
6D4
100
AcDbEntity
  8
TRMODEL1
  6
CONTINUOUS
 62
     7
100
AcDbLine
 10
0.622635
 20
0.496157
 30
0.0
 11
0.621029
 21
0.500102
 31
0.0
  0
LINE
  5
6D5
100
AcDbEntity
  8
TRMODEL1
  6
CONTINUOUS
 62
     7
100
AcDbLine
 10
0.621029
 20
0.500102
 30
0.0
 11
0.619351
 21
0.504073
 31
0.0
  0
LINE
  5
6D6
100
AcDbEntity
  8
TRMODEL1
  6
CONTINUOUS
 62
     7
100
AcDbLine
 10
0.619351
 20
0.504073
 30
0.0
 11
0.617598
 21
0.508071
 31
0.0
  0
LINE
  5
6D7
100
AcDbEntity
  8
TRMODEL1
  6
CONTINUOUS
 62
     7
100
AcDbLine
 10
0.617598
 20
0.508071
 30
0.0
 11
0.615771
 21
0.512097
 31
0.0
  0
LINE
  5
6D8
100
AcDbEntity
  8
TRMODEL1
  6
CONTINUOUS
 62
     7
100
AcDbLine
 10
0.615771
 20
0.512097
 30
0.0
 11
0.613869
 21
0.516154
 31
0.0
  0
LINE
  5
6D9
100
AcDbEntity
  8
TRMODEL1
  6
CONTINUOUS
 62
     7
100
AcDbLine
 10
0.613869
 20
0.516154
 30
0.0
 11
0.611891
 21
0.520242
 31
0.0
  0
LINE
  5
6DA
100
AcDbEntity
  8
TRMODEL1
  6
CONTINUOUS
 62
     7
100
AcDbLine
 10
0.611891
 20
0.520242
 30
0.0
 11
0.609835
 21
0.524363
 31
0.0
  0
LINE
  5
6DB
100
AcDbEntity
  8
TRMODEL1
  6
CONTINUOUS
 62
     7
100
AcDbLine
 10
0.609835
 20
0.524363
 30
0.0
 11
0.607701
 21
0.528519
 31
0.0
  0
LINE
  5
6DC
100
AcDbEntity
  8
TRMODEL1
  6
CONTINUOUS
 62
     7
100
AcDbLine
 10
0.607701
 20
0.528519
 30
0.0
 11
0.605487
 21
0.532712
 31
0.0
  0
LINE
  5
6DD
100
AcDbEntity
  8
TRMODEL1
  6
CONTINUOUS
 62
     7
100
AcDbLine
 10
0.605487
 20
0.532712
 30
0.0
 11
0.603192
 21
0.536943
 31
0.0
  0
LINE
  5
6DE
100
AcDbEntity
  8
TRMODEL1
  6
CONTINUOUS
 62
     7
100
AcDbLine
 10
0.603192
 20
0.536943
 30
0.0
 11
0.600815
 21
0.541215
 31
0.0
  0
LINE
  5
6DF
100
AcDbEntity
  8
TRMODEL1
  6
CONTINUOUS
 62
     7
100
AcDbLine
 10
0.600815
 20
0.541215
 30
0.0
 11
0.598354
 21
0.545528
 31
0.0
  0
LINE
  5
6E0
100
AcDbEntity
  8
TRMODEL1
  6
CONTINUOUS
 62
     7
100
AcDbLine
 10
0.640551
 20
0.472441
 30
0.0
 11
0.640551
 21
0.409146
 31
0.0
  0
LINE
  5
6E1
100
AcDbEntity
  8
TRMODEL1
  6
CONTINUOUS
 62
     7
100
AcDbLine
 10
0.598354
 20
0.272764
 30
0.0
 11
0.600815
 21
0.277077
 31
0.0
  0
LINE
  5
6E2
100
AcDbEntity
  8
TRMODEL1
  6
CONTINUOUS
 62
     7
100
AcDbLine
 10
0.600815
 20
0.277077
 30
0.0
 11
0.603192
 21
0.281349
 31
0.0
  0
LINE
  5
6E3
100
AcDbEntity
  8
TRMODEL1
  6
CONTINUOUS
 62
     7
100
AcDbLine
 10
0.603192
 20
0.281349
 30
0.0
 11
0.605487
 21
0.28558
 31
0.0
  0
LINE
  5
6E4
100
AcDbEntity
  8
TRMODEL1
  6
CONTINUOUS
 62
     7
100
AcDbLine
 10
0.605487
 20
0.28558
 30
0.0
 11
0.607701
 21
0.289772
 31
0.0
  0
LINE
  5
6E5
100
AcDbEntity
  8
TRMODEL1
  6
CONTINUOUS
 62
     7
100
AcDbLine
 10
0.607701
 20
0.289772
 30
0.0
 11
0.609835
 21
0.293929
 31
0.0
  0
LINE
  5
6E6
100
AcDbEntity
  8
TRMODEL1
  6
CONTINUOUS
 62
     7
100
AcDbLine
 10
0.609835
 20
0.293929
 30
0.0
 11
0.611891
 21
0.29805
 31
0.0
  0
LINE
  5
6E7
100
AcDbEntity
  8
TRMODEL1
  6
CONTINUOUS
 62
     7
100
AcDbLine
 10
0.611891
 20
0.29805
 30
0.0
 11
0.613869
 21
0.302138
 31
0.0
  0
LINE
  5
6E8
100
AcDbEntity
  8
TRMODEL1
  6
CONTINUOUS
 62
     7
100
AcDbLine
 10
0.613869
 20
0.302138
 30
0.0
 11
0.615771
 21
0.306194
 31
0.0
  0
LINE
  5
6E9
100
AcDbEntity
  8
TRMODEL1
  6
CONTINUOUS
 62
     7
100
AcDbLine
 10
0.615771
 20
0.306194
 30
0.0
 11
0.617598
 21
0.310221
 31
0.0
  0
LINE
  5
6EA
100
AcDbEntity
  8
TRMODEL1
  6
CONTINUOUS
 62
     7
100
AcDbLine
 10
0.617598
 20
0.310221
 30
0.0
 11
0.619351
 21
0.314219
 31
0.0
  0
LINE
  5
6EB
100
AcDbEntity
  8
TRMODEL1
  6
CONTINUOUS
 62
     7
100
AcDbLine
 10
0.619351
 20
0.314219
 30
0.0
 11
0.621029
 21
0.31819
 31
0.0
  0
LINE
  5
6EC
100
AcDbEntity
  8
TRMODEL1
  6
CONTINUOUS
 62
     7
100
AcDbLine
 10
0.621029
 20
0.31819
 30
0.0
 11
0.622635
 21
0.322135
 31
0.0
  0
LINE
  5
6ED
100
AcDbEntity
  8
TRMODEL1
  6
CONTINUOUS
 62
     7
100
AcDbLine
 10
0.622635
 20
0.322135
 30
0.0
 11
0.624169
 21
0.326057
 31
0.0
  0
LINE
  5
6EE
100
AcDbEntity
  8
TRMODEL1
  6
CONTINUOUS
 62
     7
100
AcDbLine
 10
0.624169
 20
0.326057
 30
0.0
 11
0.625632
 21
0.329956
 31
0.0
  0
LINE
  5
6EF
100
AcDbEntity
  8
TRMODEL1
  6
CONTINUOUS
 62
     7
100
AcDbLine
 10
0.625632
 20
0.329956
 30
0.0
 11
0.627024
 21
0.333835
 31
0.0
  0
LINE
  5
6F0
100
AcDbEntity
  8
TRMODEL1
  6
CONTINUOUS
 62
     7
100
AcDbLine
 10
0.627024
 20
0.333835
 30
0.0
 11
0.628346
 21
0.337694
 31
0.0
  0
LINE
  5
6F1
100
AcDbEntity
  8
TRMODEL1
  6
CONTINUOUS
 62
     7
100
AcDbLine
 10
0.628346
 20
0.337694
 30
0.0
 11
0.629598
 21
0.341534
 31
0.0
  0
LINE
  5
6F2
100
AcDbEntity
  8
TRMODEL1
  6
CONTINUOUS
 62
     7
100
AcDbLine
 10
0.629598
 20
0.341534
 30
0.0
 11
0.630781
 21
0.345358
 31
0.0
  0
LINE
  5
6F3
100
AcDbEntity
  8
TRMODEL1
  6
CONTINUOUS
 62
     7
100
AcDbLine
 10
0.630781
 20
0.345358
 30
0.0
 11
0.631896
 21
0.349167
 31
0.0
  0
LINE
  5
6F4
100
AcDbEntity
  8
TRMODEL1
  6
CONTINUOUS
 62
     7
100
AcDbLine
 10
0.631896
 20
0.349167
 30
0.0
 11
0.632942
 21
0.352962
 31
0.0
  0
LINE
  5
6F5
100
AcDbEntity
  8
TRMODEL1
  6
CONTINUOUS
 62
     7
100
AcDbLine
 10
0.632942
 20
0.352962
 30
0.0
 11
0.633921
 21
0.356745
 31
0.0
  0
LINE
  5
6F6
100
AcDbEntity
  8
TRMODEL1
  6
CONTINUOUS
 62
     7
100
AcDbLine
 10
0.633921
 20
0.356745
 30
0.0
 11
0.634831
 21
0.360516
 31
0.0
  0
LINE
  5
6F7
100
AcDbEntity
  8
TRMODEL1
  6
CONTINUOUS
 62
     7
100
AcDbLine
 10
0.634831
 20
0.360516
 30
0.0
 11
0.635674
 21
0.364277
 31
0.0
  0
LINE
  5
6F8
100
AcDbEntity
  8
TRMODEL1
  6
CONTINUOUS
 62
     7
100
AcDbLine
 10
0.635674
 20
0.364277
 30
0.0
 11
0.63645
 21
0.36803
 31
0.0
  0
LINE
  5
6F9
100
AcDbEntity
  8
TRMODEL1
  6
CONTINUOUS
 62
     7
100
AcDbLine
 10
0.63645
 20
0.36803
 30
0.0
 11
0.637159
 21
0.371776
 31
0.0
  0
LINE
  5
6FA
100
AcDbEntity
  8
TRMODEL1
  6
CONTINUOUS
 62
     7
100
AcDbLine
 10
0.637159
 20
0.371776
 30
0.0
 11
0.637801
 21
0.375516
 31
0.0
  0
LINE
  5
6FB
100
AcDbEntity
  8
TRMODEL1
  6
CONTINUOUS
 62
     7
100
AcDbLine
 10
0.637801
 20
0.375516
 30
0.0
 11
0.638376
 21
0.379252
 31
0.0
  0
LINE
  5
6FC
100
AcDbEntity
  8
TRMODEL1
  6
CONTINUOUS
 62
     7
100
AcDbLine
 10
0.638376
 20
0.379252
 30
0.0
 11
0.638884
 21
0.382985
 31
0.0
  0
LINE
  5
6FD
100
AcDbEntity
  8
TRMODEL1
  6
CONTINUOUS
 62
     7
100
AcDbLine
 10
0.638884
 20
0.382985
 30
0.0
 11
0.639324
 21
0.386716
 31
0.0
  0
LINE
  5
6FE
100
AcDbEntity
  8
TRMODEL1
  6
CONTINUOUS
 62
     7
100
AcDbLine
 10
0.639324
 20
0.386716
 30
0.0
 11
0.639698
 21
0.390447
 31
0.0
  0
LINE
  5
6FF
100
AcDbEntity
  8
TRMODEL1
  6
CONTINUOUS
 62
     7
100
AcDbLine
 10
0.639698
 20
0.390447
 30
0.0
 11
0.640004
 21
0.394179
 31
0.0
  0
LINE
  5
700
100
AcDbEntity
  8
TRMODEL1
  6
CONTINUOUS
 62
     7
100
AcDbLine
 10
0.640004
 20
0.394179
 30
0.0
 11
0.640243
 21
0.397914
 31
0.0
  0
LINE
  5
701
100
AcDbEntity
  8
TRMODEL1
  6
CONTINUOUS
 62
     7
100
AcDbLine
 10
0.640243
 20
0.397914
 30
0.0
 11
0.640414
 21
0.401652
 31
0.0
  0
LINE
  5
702
100
AcDbEntity
  8
TRMODEL1
  6
CONTINUOUS
 62
     7
100
AcDbLine
 10
0.640414
 20
0.401652
 30
0.0
 11
0.640517
 21
0.405396
 31
0.0
  0
LINE
  5
703
100
AcDbEntity
  8
TRMODEL1
  6
CONTINUOUS
 62
     7
100
AcDbLine
 10
0.640517
 20
0.405396
 30
0.0
 11
0.640551
 21
0.409146
 31
0.0
  0
LINE
  5
704
100
AcDbEntity
  8
TRMODEL1
  6
CONTINUOUS
 62
     7
100
AcDbLine
 10
0.640551
 20
0.409146
 30
0.0
 11
0.640551
 21
0.0
 31
0.0
  0
LINE
  5
705
100
AcDbEntity
  8
TRMODEL1
  6
CONTINUOUS
 62
     7
100
AcDbLine
 10
0.525268
 20
0.545528
 30
0.0
 11
0.598354
 21
0.545528
 31
0.0
  0
LINE
  5
706
100
AcDbEntity
  8
TRMODEL1
  6
CONTINUOUS
 62
     7
100
AcDbLine
 10
0.955512
 20
0.409146
 30
0.0
 11
0.955477
 21
0.412896
 31
0.0
  0
LINE
  5
707
100
AcDbEntity
  8
TRMODEL1
  6
CONTINUOUS
 62
     7
100
AcDbLine
 10
0.955477
 20
0.412896
 30
0.0
 11
0.955375
 21
0.41664
 31
0.0
  0
LINE
  5
708
100
AcDbEntity
  8
TRMODEL1
  6
CONTINUOUS
 62
     7
100
AcDbLine
 10
0.955375
 20
0.41664
 30
0.0
 11
0.955204
 21
0.420378
 31
0.0
  0
LINE
  5
709
100
AcDbEntity
  8
TRMODEL1
  6
CONTINUOUS
 62
     7
100
AcDbLine
 10
0.955204
 20
0.420378
 30
0.0
 11
0.954965
 21
0.424113
 31
0.0
  0
LINE
  5
70A
100
AcDbEntity
  8
TRMODEL1
  6
CONTINUOUS
 62
     7
100
AcDbLine
 10
0.954965
 20
0.424113
 30
0.0
 11
0.954659
 21
0.427845
 31
0.0
  0
LINE
  5
70B
100
AcDbEntity
  8
TRMODEL1
  6
CONTINUOUS
 62
     7
100
AcDbLine
 10
0.954659
 20
0.427845
 30
0.0
 11
0.954285
 21
0.431575
 31
0.0
  0
LINE
  5
70C
100
AcDbEntity
  8
TRMODEL1
  6
CONTINUOUS
 62
     7
100
AcDbLine
 10
0.954285
 20
0.431575
 30
0.0
 11
0.953844
 21
0.435307
 31
0.0
  0
LINE
  5
70D
100
AcDbEntity
  8
TRMODEL1
  6
CONTINUOUS
 62
     7
100
AcDbLine
 10
0.953844
 20
0.435307
 30
0.0
 11
0.953336
 21
0.439039
 31
0.0
  0
LINE
  5
70E
100
AcDbEntity
  8
TRMODEL1
  6
CONTINUOUS
 62
     7
100
AcDbLine
 10
0.953336
 20
0.439039
 30
0.0
 11
0.952762
 21
0.442775
 31
0.0
  0
LINE
  5
70F
100
AcDbEntity
  8
TRMODEL1
  6
CONTINUOUS
 62
     7
100
AcDbLine
 10
0.952762
 20
0.442775
 30
0.0
 11
0.95212
 21
0.446515
 31
0.0
  0
LINE
  5
710
100
AcDbEntity
  8
TRMODEL1
  6
CONTINUOUS
 62
     7
100
AcDbLine
 10
0.95212
 20
0.446515
 30
0.0
 11
0.951411
 21
0.450261
 31
0.0
  0
LINE
  5
711
100
AcDbEntity
  8
TRMODEL1
  6
CONTINUOUS
 62
     7
100
AcDbLine
 10
0.951411
 20
0.450261
 30
0.0
 11
0.950635
 21
0.454014
 31
0.0
  0
LINE
  5
712
100
AcDbEntity
  8
TRMODEL1
  6
CONTINUOUS
 62
     7
100
AcDbLine
 10
0.950635
 20
0.454014
 30
0.0
 11
0.949792
 21
0.457776
 31
0.0
  0
LINE
  5
713
100
AcDbEntity
  8
TRMODEL1
  6
CONTINUOUS
 62
     7
100
AcDbLine
 10
0.949792
 20
0.457776
 30
0.0
 11
0.948881
 21
0.461547
 31
0.0
  0
LINE
  5
714
100
AcDbEntity
  8
TRMODEL1
  6
CONTINUOUS
 62
     7
100
AcDbLine
 10
0.948881
 20
0.461547
 30
0.0
 11
0.947903
 21
0.465329
 31
0.0
  0
LINE
  5
715
100
AcDbEntity
  8
TRMODEL1
  6
CONTINUOUS
 62
     7
100
AcDbLine
 10
0.947903
 20
0.465329
 30
0.0
 11
0.946857
 21
0.469124
 31
0.0
  0
LINE
  5
716
100
AcDbEntity
  8
TRMODEL1
  6
CONTINUOUS
 62
     7
100
AcDbLine
 10
0.946857
 20
0.469124
 30
0.0
 11
0.945742
 21
0.472933
 31
0.0
  0
LINE
  5
717
100
AcDbEntity
  8
TRMODEL1
  6
CONTINUOUS
 62
     7
100
AcDbLine
 10
0.945742
 20
0.472933
 30
0.0
 11
0.944559
 21
0.476757
 31
0.0
  0
LINE
  5
718
100
AcDbEntity
  8
TRMODEL1
  6
CONTINUOUS
 62
     7
100
AcDbLine
 10
0.944559
 20
0.476757
 30
0.0
 11
0.943307
 21
0.480598
 31
0.0
  0
LINE
  5
719
100
AcDbEntity
  8
TRMODEL1
  6
CONTINUOUS
 62
     7
100
AcDbLine
 10
0.943307
 20
0.480598
 30
0.0
 11
0.941985
 21
0.484457
 31
0.0
  0
LINE
  5
71A
100
AcDbEntity
  8
TRMODEL1
  6
CONTINUOUS
 62
     7
100
AcDbLine
 10
0.941985
 20
0.484457
 30
0.0
 11
0.940593
 21
0.488335
 31
0.0
  0
LINE
  5
71B
100
AcDbEntity
  8
TRMODEL1
  6
CONTINUOUS
 62
     7
100
AcDbLine
 10
0.940593
 20
0.488335
 30
0.0
 11
0.93913
 21
0.492235
 31
0.0
  0
LINE
  5
71C
100
AcDbEntity
  8
TRMODEL1
  6
CONTINUOUS
 62
     7
100
AcDbLine
 10
0.93913
 20
0.492235
 30
0.0
 11
0.937596
 21
0.496157
 31
0.0
  0
LINE
  5
71D
100
AcDbEntity
  8
TRMODEL1
  6
CONTINUOUS
 62
     7
100
AcDbLine
 10
0.937596
 20
0.496157
 30
0.0
 11
0.93599
 21
0.500102
 31
0.0
  0
LINE
  5
71E
100
AcDbEntity
  8
TRMODEL1
  6
CONTINUOUS
 62
     7
100
AcDbLine
 10
0.93599
 20
0.500102
 30
0.0
 11
0.934311
 21
0.504073
 31
0.0
  0
LINE
  5
71F
100
AcDbEntity
  8
TRMODEL1
  6
CONTINUOUS
 62
     7
100
AcDbLine
 10
0.934311
 20
0.504073
 30
0.0
 11
0.932559
 21
0.508071
 31
0.0
  0
LINE
  5
720
100
AcDbEntity
  8
TRMODEL1
  6
CONTINUOUS
 62
     7
100
AcDbLine
 10
0.932559
 20
0.508071
 30
0.0
 11
0.930732
 21
0.512097
 31
0.0
  0
LINE
  5
721
100
AcDbEntity
  8
TRMODEL1
  6
CONTINUOUS
 62
     7
100
AcDbLine
 10
0.930732
 20
0.512097
 30
0.0
 11
0.92883
 21
0.516154
 31
0.0
  0
LINE
  5
722
100
AcDbEntity
  8
TRMODEL1
  6
CONTINUOUS
 62
     7
100
AcDbLine
 10
0.92883
 20
0.516154
 30
0.0
 11
0.926851
 21
0.520242
 31
0.0
  0
LINE
  5
723
100
AcDbEntity
  8
TRMODEL1
  6
CONTINUOUS
 62
     7
100
AcDbLine
 10
0.926851
 20
0.520242
 30
0.0
 11
0.924796
 21
0.524363
 31
0.0
  0
LINE
  5
724
100
AcDbEntity
  8
TRMODEL1
  6
CONTINUOUS
 62
     7
100
AcDbLine
 10
0.924796
 20
0.524363
 30
0.0
 11
0.922661
 21
0.528519
 31
0.0
  0
LINE
  5
725
100
AcDbEntity
  8
TRMODEL1
  6
CONTINUOUS
 62
     7
100
AcDbLine
 10
0.922661
 20
0.528519
 30
0.0
 11
0.920447
 21
0.532712
 31
0.0
  0
LINE
  5
726
100
AcDbEntity
  8
TRMODEL1
  6
CONTINUOUS
 62
     7
100
AcDbLine
 10
0.920447
 20
0.532712
 30
0.0
 11
0.918153
 21
0.536943
 31
0.0
  0
LINE
  5
727
100
AcDbEntity
  8
TRMODEL1
  6
CONTINUOUS
 62
     7
100
AcDbLine
 10
0.918153
 20
0.536943
 30
0.0
 11
0.915776
 21
0.541215
 31
0.0
  0
LINE
  5
728
100
AcDbEntity
  8
TRMODEL1
  6
CONTINUOUS
 62
     7
100
AcDbLine
 10
0.915776
 20
0.541215
 30
0.0
 11
0.913315
 21
0.545528
 31
0.0
  0
LINE
  5
729
100
AcDbEntity
  8
TRMODEL1
  6
CONTINUOUS
 62
     7
100
AcDbLine
 10
0.955512
 20
0.472441
 30
0.0
 11
0.955512
 21
0.409146
 31
0.0
  0
LINE
  5
72A
100
AcDbEntity
  8
TRMODEL1
  6
CONTINUOUS
 62
     7
100
AcDbLine
 10
0.913315
 20
-0.545528
 30
0.0
 11
0.915776
 21
-0.541215
 31
0.0
  0
LINE
  5
72B
100
AcDbEntity
  8
TRMODEL1
  6
CONTINUOUS
 62
     7
100
AcDbLine
 10
0.915776
 20
-0.541215
 30
0.0
 11
0.918153
 21
-0.536943
 31
0.0
  0
LINE
  5
72C
100
AcDbEntity
  8
TRMODEL1
  6
CONTINUOUS
 62
     7
100
AcDbLine
 10
0.918153
 20
-0.536943
 30
0.0
 11
0.920447
 21
-0.532712
 31
0.0
  0
LINE
  5
72D
100
AcDbEntity
  8
TRMODEL1
  6
CONTINUOUS
 62
     7
100
AcDbLine
 10
0.920447
 20
-0.532712
 30
0.0
 11
0.922661
 21
-0.528519
 31
0.0
  0
LINE
  5
72E
100
AcDbEntity
  8
TRMODEL1
  6
CONTINUOUS
 62
     7
100
AcDbLine
 10
0.922661
 20
-0.528519
 30
0.0
 11
0.924796
 21
-0.524363
 31
0.0
  0
LINE
  5
72F
100
AcDbEntity
  8
TRMODEL1
  6
CONTINUOUS
 62
     7
100
AcDbLine
 10
0.924796
 20
-0.524363
 30
0.0
 11
0.926851
 21
-0.520242
 31
0.0
  0
LINE
  5
730
100
AcDbEntity
  8
TRMODEL1
  6
CONTINUOUS
 62
     7
100
AcDbLine
 10
0.926851
 20
-0.520242
 30
0.0
 11
0.92883
 21
-0.516154
 31
0.0
  0
LINE
  5
731
100
AcDbEntity
  8
TRMODEL1
  6
CONTINUOUS
 62
     7
100
AcDbLine
 10
0.92883
 20
-0.516154
 30
0.0
 11
0.930732
 21
-0.512097
 31
0.0
  0
LINE
  5
732
100
AcDbEntity
  8
TRMODEL1
  6
CONTINUOUS
 62
     7
100
AcDbLine
 10
0.930732
 20
-0.512097
 30
0.0
 11
0.932559
 21
-0.508071
 31
0.0
  0
LINE
  5
733
100
AcDbEntity
  8
TRMODEL1
  6
CONTINUOUS
 62
     7
100
AcDbLine
 10
0.932559
 20
-0.508071
 30
0.0
 11
0.934311
 21
-0.504073
 31
0.0
  0
LINE
  5
734
100
AcDbEntity
  8
TRMODEL1
  6
CONTINUOUS
 62
     7
100
AcDbLine
 10
0.934311
 20
-0.504073
 30
0.0
 11
0.93599
 21
-0.500102
 31
0.0
  0
LINE
  5
735
100
AcDbEntity
  8
TRMODEL1
  6
CONTINUOUS
 62
     7
100
AcDbLine
 10
0.93599
 20
-0.500102
 30
0.0
 11
0.937596
 21
-0.496157
 31
0.0
  0
LINE
  5
736
100
AcDbEntity
  8
TRMODEL1
  6
CONTINUOUS
 62
     7
100
AcDbLine
 10
0.937596
 20
-0.496157
 30
0.0
 11
0.93913
 21
-0.492235
 31
0.0
  0
LINE
  5
737
100
AcDbEntity
  8
TRMODEL1
  6
CONTINUOUS
 62
     7
100
AcDbLine
 10
0.93913
 20
-0.492235
 30
0.0
 11
0.940593
 21
-0.488335
 31
0.0
  0
LINE
  5
738
100
AcDbEntity
  8
TRMODEL1
  6
CONTINUOUS
 62
     7
100
AcDbLine
 10
0.940593
 20
-0.488335
 30
0.0
 11
0.941985
 21
-0.484457
 31
0.0
  0
LINE
  5
739
100
AcDbEntity
  8
TRMODEL1
  6
CONTINUOUS
 62
     7
100
AcDbLine
 10
0.941985
 20
-0.484457
 30
0.0
 11
0.943307
 21
-0.480598
 31
0.0
  0
LINE
  5
73A
100
AcDbEntity
  8
TRMODEL1
  6
CONTINUOUS
 62
     7
100
AcDbLine
 10
0.943307
 20
-0.480598
 30
0.0
 11
0.944559
 21
-0.476757
 31
0.0
  0
LINE
  5
73B
100
AcDbEntity
  8
TRMODEL1
  6
CONTINUOUS
 62
     7
100
AcDbLine
 10
0.944559
 20
-0.476757
 30
0.0
 11
0.945742
 21
-0.472933
 31
0.0
  0
LINE
  5
73C
100
AcDbEntity
  8
TRMODEL1
  6
CONTINUOUS
 62
     7
100
AcDbLine
 10
0.945742
 20
-0.472933
 30
0.0
 11
0.946857
 21
-0.469124
 31
0.0
  0
LINE
  5
73D
100
AcDbEntity
  8
TRMODEL1
  6
CONTINUOUS
 62
     7
100
AcDbLine
 10
0.946857
 20
-0.469124
 30
0.0
 11
0.947903
 21
-0.465329
 31
0.0
  0
LINE
  5
73E
100
AcDbEntity
  8
TRMODEL1
  6
CONTINUOUS
 62
     7
100
AcDbLine
 10
0.947903
 20
-0.465329
 30
0.0
 11
0.948881
 21
-0.461547
 31
0.0
  0
LINE
  5
73F
100
AcDbEntity
  8
TRMODEL1
  6
CONTINUOUS
 62
     7
100
AcDbLine
 10
0.948881
 20
-0.461547
 30
0.0
 11
0.949792
 21
-0.457776
 31
0.0
  0
LINE
  5
740
100
AcDbEntity
  8
TRMODEL1
  6
CONTINUOUS
 62
     7
100
AcDbLine
 10
0.949792
 20
-0.457776
 30
0.0
 11
0.950635
 21
-0.454014
 31
0.0
  0
LINE
  5
741
100
AcDbEntity
  8
TRMODEL1
  6
CONTINUOUS
 62
     7
100
AcDbLine
 10
0.950635
 20
-0.454014
 30
0.0
 11
0.951411
 21
-0.450261
 31
0.0
  0
LINE
  5
742
100
AcDbEntity
  8
TRMODEL1
  6
CONTINUOUS
 62
     7
100
AcDbLine
 10
0.951411
 20
-0.450261
 30
0.0
 11
0.95212
 21
-0.446515
 31
0.0
  0
LINE
  5
743
100
AcDbEntity
  8
TRMODEL1
  6
CONTINUOUS
 62
     7
100
AcDbLine
 10
0.95212
 20
-0.446515
 30
0.0
 11
0.952762
 21
-0.442775
 31
0.0
  0
LINE
  5
744
100
AcDbEntity
  8
TRMODEL1
  6
CONTINUOUS
 62
     7
100
AcDbLine
 10
0.952762
 20
-0.442775
 30
0.0
 11
0.953336
 21
-0.439039
 31
0.0
  0
LINE
  5
745
100
AcDbEntity
  8
TRMODEL1
  6
CONTINUOUS
 62
     7
100
AcDbLine
 10
0.953336
 20
-0.439039
 30
0.0
 11
0.953844
 21
-0.435307
 31
0.0
  0
LINE
  5
746
100
AcDbEntity
  8
TRMODEL1
  6
CONTINUOUS
 62
     7
100
AcDbLine
 10
0.953844
 20
-0.435307
 30
0.0
 11
0.954285
 21
-0.431575
 31
0.0
  0
LINE
  5
747
100
AcDbEntity
  8
TRMODEL1
  6
CONTINUOUS
 62
     7
100
AcDbLine
 10
0.954285
 20
-0.431575
 30
0.0
 11
0.954659
 21
-0.427845
 31
0.0
  0
LINE
  5
748
100
AcDbEntity
  8
TRMODEL1
  6
CONTINUOUS
 62
     7
100
AcDbLine
 10
0.954659
 20
-0.427845
 30
0.0
 11
0.954965
 21
-0.424113
 31
0.0
  0
LINE
  5
749
100
AcDbEntity
  8
TRMODEL1
  6
CONTINUOUS
 62
     7
100
AcDbLine
 10
0.954965
 20
-0.424113
 30
0.0
 11
0.955204
 21
-0.420378
 31
0.0
  0
LINE
  5
74A
100
AcDbEntity
  8
TRMODEL1
  6
CONTINUOUS
 62
     7
100
AcDbLine
 10
0.955204
 20
-0.420378
 30
0.0
 11
0.955375
 21
-0.41664
 31
0.0
  0
LINE
  5
74B
100
AcDbEntity
  8
TRMODEL1
  6
CONTINUOUS
 62
     7
100
AcDbLine
 10
0.955375
 20
-0.41664
 30
0.0
 11
0.955477
 21
-0.412896
 31
0.0
  0
LINE
  5
74C
100
AcDbEntity
  8
TRMODEL1
  6
CONTINUOUS
 62
     7
100
AcDbLine
 10
0.955477
 20
-0.412896
 30
0.0
 11
0.955512
 21
-0.409146
 31
0.0
  0
LINE
  5
74D
100
AcDbEntity
  8
TRMODEL1
  6
CONTINUOUS
 62
     7
100
AcDbLine
 10
0.955512
 20
-0.409146
 30
0.0
 11
0.955512
 21
-0.472441
 31
0.0
  0
LINE
  5
74E
100
AcDbEntity
  8
TRMODEL1
  6
CONTINUOUS
 62
     7
100
AcDbLine
 10
0.955512
 20
0.0
 30
0.0
 11
0.955477
 21
0.007501
 31
0.0
  0
LINE
  5
74F
100
AcDbEntity
  8
TRMODEL1
  6
CONTINUOUS
 62
     7
100
AcDbLine
 10
0.955477
 20
0.007501
 30
0.0
 11
0.955375
 21
0.014988
 31
0.0
  0
LINE
  5
750
100
AcDbEntity
  8
TRMODEL1
  6
CONTINUOUS
 62
     7
100
AcDbLine
 10
0.955375
 20
0.014988
 30
0.0
 11
0.955204
 21
0.022464
 31
0.0
  0
LINE
  5
751
100
AcDbEntity
  8
TRMODEL1
  6
CONTINUOUS
 62
     7
100
AcDbLine
 10
0.955204
 20
0.022464
 30
0.0
 11
0.954965
 21
0.029933
 31
0.0
  0
LINE
  5
752
100
AcDbEntity
  8
TRMODEL1
  6
CONTINUOUS
 62
     7
100
AcDbLine
 10
0.954965
 20
0.029933
 30
0.0
 11
0.954659
 21
0.037397
 31
0.0
  0
LINE
  5
753
100
AcDbEntity
  8
TRMODEL1
  6
CONTINUOUS
 62
     7
100
AcDbLine
 10
0.954659
 20
0.037397
 30
0.0
 11
0.954285
 21
0.044859
 31
0.0
  0
LINE
  5
754
100
AcDbEntity
  8
TRMODEL1
  6
CONTINUOUS
 62
     7
100
AcDbLine
 10
0.954285
 20
0.044859
 30
0.0
 11
0.953844
 21
0.052321
 31
0.0
  0
LINE
  5
755
100
AcDbEntity
  8
TRMODEL1
  6
CONTINUOUS
 62
     7
100
AcDbLine
 10
0.953844
 20
0.052321
 30
0.0
 11
0.953336
 21
0.059787
 31
0.0
  0
LINE
  5
756
100
AcDbEntity
  8
TRMODEL1
  6
CONTINUOUS
 62
     7
100
AcDbLine
 10
0.953336
 20
0.059787
 30
0.0
 11
0.952762
 21
0.067259
 31
0.0
  0
LINE
  5
757
100
AcDbEntity
  8
TRMODEL1
  6
CONTINUOUS
 62
     7
100
AcDbLine
 10
0.952762
 20
0.067259
 30
0.0
 11
0.95212
 21
0.074739
 31
0.0
  0
LINE
  5
758
100
AcDbEntity
  8
TRMODEL1
  6
CONTINUOUS
 62
     7
100
AcDbLine
 10
0.95212
 20
0.074739
 30
0.0
 11
0.951411
 21
0.082231
 31
0.0
  0
LINE
  5
759
100
AcDbEntity
  8
TRMODEL1
  6
CONTINUOUS
 62
     7
100
AcDbLine
 10
0.951411
 20
0.082231
 30
0.0
 11
0.950635
 21
0.089737
 31
0.0
  0
LINE
  5
75A
100
AcDbEntity
  8
TRMODEL1
  6
CONTINUOUS
 62
     7
100
AcDbLine
 10
0.950635
 20
0.089737
 30
0.0
 11
0.949792
 21
0.09726
 31
0.0
  0
LINE
  5
75B
100
AcDbEntity
  8
TRMODEL1
  6
CONTINUOUS
 62
     7
100
AcDbLine
 10
0.949792
 20
0.09726
 30
0.0
 11
0.948881
 21
0.104802
 31
0.0
  0
LINE
  5
75C
100
AcDbEntity
  8
TRMODEL1
  6
CONTINUOUS
 62
     7
100
AcDbLine
 10
0.948881
 20
0.104802
 30
0.0
 11
0.947903
 21
0.112367
 31
0.0
  0
LINE
  5
75D
100
AcDbEntity
  8
TRMODEL1
  6
CONTINUOUS
 62
     7
100
AcDbLine
 10
0.947903
 20
0.112367
 30
0.0
 11
0.946857
 21
0.119957
 31
0.0
  0
LINE
  5
75E
100
AcDbEntity
  8
TRMODEL1
  6
CONTINUOUS
 62
     7
100
AcDbLine
 10
0.946857
 20
0.119957
 30
0.0
 11
0.945742
 21
0.127575
 31
0.0
  0
LINE
  5
75F
100
AcDbEntity
  8
TRMODEL1
  6
CONTINUOUS
 62
     7
100
AcDbLine
 10
0.945742
 20
0.127575
 30
0.0
 11
0.944559
 21
0.135223
 31
0.0
  0
LINE
  5
760
100
AcDbEntity
  8
TRMODEL1
  6
CONTINUOUS
 62
     7
100
AcDbLine
 10
0.944559
 20
0.135223
 30
0.0
 11
0.943307
 21
0.142905
 31
0.0
  0
LINE
  5
761
100
AcDbEntity
  8
TRMODEL1
  6
CONTINUOUS
 62
     7
100
AcDbLine
 10
0.943307
 20
0.142905
 30
0.0
 11
0.941985
 21
0.150622
 31
0.0
  0
LINE
  5
762
100
AcDbEntity
  8
TRMODEL1
  6
CONTINUOUS
 62
     7
100
AcDbLine
 10
0.941985
 20
0.150622
 30
0.0
 11
0.940593
 21
0.158379
 31
0.0
  0
LINE
  5
763
100
AcDbEntity
  8
TRMODEL1
  6
CONTINUOUS
 62
     7
100
AcDbLine
 10
0.940593
 20
0.158379
 30
0.0
 11
0.93913
 21
0.166178
 31
0.0
  0
LINE
  5
764
100
AcDbEntity
  8
TRMODEL1
  6
CONTINUOUS
 62
     7
100
AcDbLine
 10
0.93913
 20
0.166178
 30
0.0
 11
0.937596
 21
0.174021
 31
0.0
  0
LINE
  5
765
100
AcDbEntity
  8
TRMODEL1
  6
CONTINUOUS
 62
     7
100
AcDbLine
 10
0.937596
 20
0.174021
 30
0.0
 11
0.93599
 21
0.181913
 31
0.0
  0
LINE
  5
766
100
AcDbEntity
  8
TRMODEL1
  6
CONTINUOUS
 62
     7
100
AcDbLine
 10
0.93599
 20
0.181913
 30
0.0
 11
0.934311
 21
0.189855
 31
0.0
  0
LINE
  5
767
100
AcDbEntity
  8
TRMODEL1
  6
CONTINUOUS
 62
     7
100
AcDbLine
 10
0.934311
 20
0.189855
 30
0.0
 11
0.932559
 21
0.19785
 31
0.0
  0
LINE
  5
768
100
AcDbEntity
  8
TRMODEL1
  6
CONTINUOUS
 62
     7
100
AcDbLine
 10
0.932559
 20
0.19785
 30
0.0
 11
0.930732
 21
0.205903
 31
0.0
  0
LINE
  5
769
100
AcDbEntity
  8
TRMODEL1
  6
CONTINUOUS
 62
     7
100
AcDbLine
 10
0.930732
 20
0.205903
 30
0.0
 11
0.92883
 21
0.214016
 31
0.0
  0
LINE
  5
76A
100
AcDbEntity
  8
TRMODEL1
  6
CONTINUOUS
 62
     7
100
AcDbLine
 10
0.92883
 20
0.214016
 30
0.0
 11
0.926851
 21
0.222192
 31
0.0
  0
LINE
  5
76B
100
AcDbEntity
  8
TRMODEL1
  6
CONTINUOUS
 62
     7
100
AcDbLine
 10
0.926851
 20
0.222192
 30
0.0
 11
0.924796
 21
0.230434
 31
0.0
  0
LINE
  5
76C
100
AcDbEntity
  8
TRMODEL1
  6
CONTINUOUS
 62
     7
100
AcDbLine
 10
0.924796
 20
0.230434
 30
0.0
 11
0.922661
 21
0.238747
 31
0.0
  0
LINE
  5
76D
100
AcDbEntity
  8
TRMODEL1
  6
CONTINUOUS
 62
     7
100
AcDbLine
 10
0.922661
 20
0.238747
 30
0.0
 11
0.920447
 21
0.247132
 31
0.0
  0
LINE
  5
76E
100
AcDbEntity
  8
TRMODEL1
  6
CONTINUOUS
 62
     7
100
AcDbLine
 10
0.920447
 20
0.247132
 30
0.0
 11
0.918153
 21
0.255595
 31
0.0
  0
LINE
  5
76F
100
AcDbEntity
  8
TRMODEL1
  6
CONTINUOUS
 62
     7
100
AcDbLine
 10
0.918153
 20
0.255595
 30
0.0
 11
0.915776
 21
0.264137
 31
0.0
  0
LINE
  5
770
100
AcDbEntity
  8
TRMODEL1
  6
CONTINUOUS
 62
     7
100
AcDbLine
 10
0.915776
 20
0.264137
 30
0.0
 11
0.913315
 21
0.272764
 31
0.0
  0
LINE
  5
771
100
AcDbEntity
  8
TRMODEL1
  6
CONTINUOUS
 62
     7
100
AcDbLine
 10
0.955512
 20
0.409146
 30
0.0
 11
0.955512
 21
0.0
 31
0.0
  0
LINE
  5
772
100
AcDbEntity
  8
TRMODEL1
  6
CONTINUOUS
 62
     7
100
AcDbLine
 10
0.913315
 20
0.272764
 30
0.0
 11
0.915776
 21
0.277077
 31
0.0
  0
LINE
  5
773
100
AcDbEntity
  8
TRMODEL1
  6
CONTINUOUS
 62
     7
100
AcDbLine
 10
0.915776
 20
0.277077
 30
0.0
 11
0.918153
 21
0.281349
 31
0.0
  0
LINE
  5
774
100
AcDbEntity
  8
TRMODEL1
  6
CONTINUOUS
 62
     7
100
AcDbLine
 10
0.918153
 20
0.281349
 30
0.0
 11
0.920447
 21
0.28558
 31
0.0
  0
LINE
  5
775
100
AcDbEntity
  8
TRMODEL1
  6
CONTINUOUS
 62
     7
100
AcDbLine
 10
0.920447
 20
0.28558
 30
0.0
 11
0.922661
 21
0.289772
 31
0.0
  0
LINE
  5
776
100
AcDbEntity
  8
TRMODEL1
  6
CONTINUOUS
 62
     7
100
AcDbLine
 10
0.922661
 20
0.289772
 30
0.0
 11
0.924796
 21
0.293929
 31
0.0
  0
LINE
  5
777
100
AcDbEntity
  8
TRMODEL1
  6
CONTINUOUS
 62
     7
100
AcDbLine
 10
0.924796
 20
0.293929
 30
0.0
 11
0.926851
 21
0.29805
 31
0.0
  0
LINE
  5
778
100
AcDbEntity
  8
TRMODEL1
  6
CONTINUOUS
 62
     7
100
AcDbLine
 10
0.926851
 20
0.29805
 30
0.0
 11
0.92883
 21
0.302138
 31
0.0
  0
LINE
  5
779
100
AcDbEntity
  8
TRMODEL1
  6
CONTINUOUS
 62
     7
100
AcDbLine
 10
0.92883
 20
0.302138
 30
0.0
 11
0.930732
 21
0.306194
 31
0.0
  0
LINE
  5
77A
100
AcDbEntity
  8
TRMODEL1
  6
CONTINUOUS
 62
     7
100
AcDbLine
 10
0.930732
 20
0.306194
 30
0.0
 11
0.932559
 21
0.310221
 31
0.0
  0
LINE
  5
77B
100
AcDbEntity
  8
TRMODEL1
  6
CONTINUOUS
 62
     7
100
AcDbLine
 10
0.932559
 20
0.310221
 30
0.0
 11
0.934311
 21
0.314219
 31
0.0
  0
LINE
  5
77C
100
AcDbEntity
  8
TRMODEL1
  6
CONTINUOUS
 62
     7
100
AcDbLine
 10
0.934311
 20
0.314219
 30
0.0
 11
0.93599
 21
0.31819
 31
0.0
  0
LINE
  5
77D
100
AcDbEntity
  8
TRMODEL1
  6
CONTINUOUS
 62
     7
100
AcDbLine
 10
0.93599
 20
0.31819
 30
0.0
 11
0.937596
 21
0.322135
 31
0.0
  0
LINE
  5
77E
100
AcDbEntity
  8
TRMODEL1
  6
CONTINUOUS
 62
     7
100
AcDbLine
 10
0.937596
 20
0.322135
 30
0.0
 11
0.93913
 21
0.326057
 31
0.0
  0
LINE
  5
77F
100
AcDbEntity
  8
TRMODEL1
  6
CONTINUOUS
 62
     7
100
AcDbLine
 10
0.93913
 20
0.326057
 30
0.0
 11
0.940593
 21
0.329956
 31
0.0
  0
LINE
  5
780
100
AcDbEntity
  8
TRMODEL1
  6
CONTINUOUS
 62
     7
100
AcDbLine
 10
0.940593
 20
0.329956
 30
0.0
 11
0.941985
 21
0.333835
 31
0.0
  0
LINE
  5
781
100
AcDbEntity
  8
TRMODEL1
  6
CONTINUOUS
 62
     7
100
AcDbLine
 10
0.941985
 20
0.333835
 30
0.0
 11
0.943307
 21
0.337694
 31
0.0
  0
LINE
  5
782
100
AcDbEntity
  8
TRMODEL1
  6
CONTINUOUS
 62
     7
100
AcDbLine
 10
0.943307
 20
0.337694
 30
0.0
 11
0.944559
 21
0.341534
 31
0.0
  0
LINE
  5
783
100
AcDbEntity
  8
TRMODEL1
  6
CONTINUOUS
 62
     7
100
AcDbLine
 10
0.944559
 20
0.341534
 30
0.0
 11
0.945742
 21
0.345358
 31
0.0
  0
LINE
  5
784
100
AcDbEntity
  8
TRMODEL1
  6
CONTINUOUS
 62
     7
100
AcDbLine
 10
0.945742
 20
0.345358
 30
0.0
 11
0.946857
 21
0.349167
 31
0.0
  0
LINE
  5
785
100
AcDbEntity
  8
TRMODEL1
  6
CONTINUOUS
 62
     7
100
AcDbLine
 10
0.946857
 20
0.349167
 30
0.0
 11
0.947903
 21
0.352962
 31
0.0
  0
LINE
  5
786
100
AcDbEntity
  8
TRMODEL1
  6
CONTINUOUS
 62
     7
100
AcDbLine
 10
0.947903
 20
0.352962
 30
0.0
 11
0.948881
 21
0.356745
 31
0.0
  0
LINE
  5
787
100
AcDbEntity
  8
TRMODEL1
  6
CONTINUOUS
 62
     7
100
AcDbLine
 10
0.948881
 20
0.356745
 30
0.0
 11
0.949792
 21
0.360516
 31
0.0
  0
LINE
  5
788
100
AcDbEntity
  8
TRMODEL1
  6
CONTINUOUS
 62
     7
100
AcDbLine
 10
0.949792
 20
0.360516
 30
0.0
 11
0.950635
 21
0.364277
 31
0.0
  0
LINE
  5
789
100
AcDbEntity
  8
TRMODEL1
  6
CONTINUOUS
 62
     7
100
AcDbLine
 10
0.950635
 20
0.364277
 30
0.0
 11
0.951411
 21
0.36803
 31
0.0
  0
LINE
  5
78A
100
AcDbEntity
  8
TRMODEL1
  6
CONTINUOUS
 62
     7
100
AcDbLine
 10
0.951411
 20
0.36803
 30
0.0
 11
0.95212
 21
0.371776
 31
0.0
  0
LINE
  5
78B
100
AcDbEntity
  8
TRMODEL1
  6
CONTINUOUS
 62
     7
100
AcDbLine
 10
0.95212
 20
0.371776
 30
0.0
 11
0.952762
 21
0.375516
 31
0.0
  0
LINE
  5
78C
100
AcDbEntity
  8
TRMODEL1
  6
CONTINUOUS
 62
     7
100
AcDbLine
 10
0.952762
 20
0.375516
 30
0.0
 11
0.953336
 21
0.379252
 31
0.0
  0
LINE
  5
78D
100
AcDbEntity
  8
TRMODEL1
  6
CONTINUOUS
 62
     7
100
AcDbLine
 10
0.953336
 20
0.379252
 30
0.0
 11
0.953844
 21
0.382985
 31
0.0
  0
LINE
  5
78E
100
AcDbEntity
  8
TRMODEL1
  6
CONTINUOUS
 62
     7
100
AcDbLine
 10
0.953844
 20
0.382985
 30
0.0
 11
0.954285
 21
0.386716
 31
0.0
  0
LINE
  5
78F
100
AcDbEntity
  8
TRMODEL1
  6
CONTINUOUS
 62
     7
100
AcDbLine
 10
0.954285
 20
0.386716
 30
0.0
 11
0.954659
 21
0.390447
 31
0.0
  0
LINE
  5
790
100
AcDbEntity
  8
TRMODEL1
  6
CONTINUOUS
 62
     7
100
AcDbLine
 10
0.954659
 20
0.390447
 30
0.0
 11
0.954965
 21
0.394179
 31
0.0
  0
LINE
  5
791
100
AcDbEntity
  8
TRMODEL1
  6
CONTINUOUS
 62
     7
100
AcDbLine
 10
0.954965
 20
0.394179
 30
0.0
 11
0.955204
 21
0.397914
 31
0.0
  0
LINE
  5
792
100
AcDbEntity
  8
TRMODEL1
  6
CONTINUOUS
 62
     7
100
AcDbLine
 10
0.955204
 20
0.397914
 30
0.0
 11
0.955375
 21
0.401652
 31
0.0
  0
LINE
  5
793
100
AcDbEntity
  8
TRMODEL1
  6
CONTINUOUS
 62
     7
100
AcDbLine
 10
0.955375
 20
0.401652
 30
0.0
 11
0.955477
 21
0.405396
 31
0.0
  0
LINE
  5
794
100
AcDbEntity
  8
TRMODEL1
  6
CONTINUOUS
 62
     7
100
AcDbLine
 10
0.955477
 20
0.405396
 30
0.0
 11
0.955512
 21
0.409146
 31
0.0
  0
LINE
  5
795
100
AcDbEntity
  8
TRMODEL1
  6
CONTINUOUS
 62
     7
100
AcDbLine
 10
0.913315
 20
-0.272764
 30
0.0
 11
0.915776
 21
-0.264137
 31
0.0
  0
LINE
  5
796
100
AcDbEntity
  8
TRMODEL1
  6
CONTINUOUS
 62
     7
100
AcDbLine
 10
0.915776
 20
-0.264137
 30
0.0
 11
0.918153
 21
-0.255595
 31
0.0
  0
LINE
  5
797
100
AcDbEntity
  8
TRMODEL1
  6
CONTINUOUS
 62
     7
100
AcDbLine
 10
0.918153
 20
-0.255595
 30
0.0
 11
0.920447
 21
-0.247132
 31
0.0
  0
LINE
  5
798
100
AcDbEntity
  8
TRMODEL1
  6
CONTINUOUS
 62
     7
100
AcDbLine
 10
0.920447
 20
-0.247132
 30
0.0
 11
0.922661
 21
-0.238747
 31
0.0
  0
LINE
  5
799
100
AcDbEntity
  8
TRMODEL1
  6
CONTINUOUS
 62
     7
100
AcDbLine
 10
0.922661
 20
-0.238747
 30
0.0
 11
0.924796
 21
-0.230434
 31
0.0
  0
LINE
  5
79A
100
AcDbEntity
  8
TRMODEL1
  6
CONTINUOUS
 62
     7
100
AcDbLine
 10
0.924796
 20
-0.230434
 30
0.0
 11
0.926851
 21
-0.222192
 31
0.0
  0
LINE
  5
79B
100
AcDbEntity
  8
TRMODEL1
  6
CONTINUOUS
 62
     7
100
AcDbLine
 10
0.926851
 20
-0.222192
 30
0.0
 11
0.92883
 21
-0.214016
 31
0.0
  0
LINE
  5
79C
100
AcDbEntity
  8
TRMODEL1
  6
CONTINUOUS
 62
     7
100
AcDbLine
 10
0.92883
 20
-0.214016
 30
0.0
 11
0.930732
 21
-0.205903
 31
0.0
  0
LINE
  5
79D
100
AcDbEntity
  8
TRMODEL1
  6
CONTINUOUS
 62
     7
100
AcDbLine
 10
0.930732
 20
-0.205903
 30
0.0
 11
0.932559
 21
-0.19785
 31
0.0
  0
LINE
  5
79E
100
AcDbEntity
  8
TRMODEL1
  6
CONTINUOUS
 62
     7
100
AcDbLine
 10
0.932559
 20
-0.19785
 30
0.0
 11
0.934311
 21
-0.189855
 31
0.0
  0
LINE
  5
79F
100
AcDbEntity
  8
TRMODEL1
  6
CONTINUOUS
 62
     7
100
AcDbLine
 10
0.934311
 20
-0.189855
 30
0.0
 11
0.93599
 21
-0.181913
 31
0.0
  0
LINE
  5
7A0
100
AcDbEntity
  8
TRMODEL1
  6
CONTINUOUS
 62
     7
100
AcDbLine
 10
0.93599
 20
-0.181913
 30
0.0
 11
0.937596
 21
-0.174021
 31
0.0
  0
LINE
  5
7A1
100
AcDbEntity
  8
TRMODEL1
  6
CONTINUOUS
 62
     7
100
AcDbLine
 10
0.937596
 20
-0.174021
 30
0.0
 11
0.93913
 21
-0.166178
 31
0.0
  0
LINE
  5
7A2
100
AcDbEntity
  8
TRMODEL1
  6
CONTINUOUS
 62
     7
100
AcDbLine
 10
0.93913
 20
-0.166178
 30
0.0
 11
0.940593
 21
-0.158379
 31
0.0
  0
LINE
  5
7A3
100
AcDbEntity
  8
TRMODEL1
  6
CONTINUOUS
 62
     7
100
AcDbLine
 10
0.940593
 20
-0.158379
 30
0.0
 11
0.941985
 21
-0.150622
 31
0.0
  0
LINE
  5
7A4
100
AcDbEntity
  8
TRMODEL1
  6
CONTINUOUS
 62
     7
100
AcDbLine
 10
0.941985
 20
-0.150622
 30
0.0
 11
0.943307
 21
-0.142905
 31
0.0
  0
LINE
  5
7A5
100
AcDbEntity
  8
TRMODEL1
  6
CONTINUOUS
 62
     7
100
AcDbLine
 10
0.943307
 20
-0.142905
 30
0.0
 11
0.944559
 21
-0.135223
 31
0.0
  0
LINE
  5
7A6
100
AcDbEntity
  8
TRMODEL1
  6
CONTINUOUS
 62
     7
100
AcDbLine
 10
0.944559
 20
-0.135223
 30
0.0
 11
0.945742
 21
-0.127575
 31
0.0
  0
LINE
  5
7A7
100
AcDbEntity
  8
TRMODEL1
  6
CONTINUOUS
 62
     7
100
AcDbLine
 10
0.945742
 20
-0.127575
 30
0.0
 11
0.946857
 21
-0.119957
 31
0.0
  0
LINE
  5
7A8
100
AcDbEntity
  8
TRMODEL1
  6
CONTINUOUS
 62
     7
100
AcDbLine
 10
0.946857
 20
-0.119957
 30
0.0
 11
0.947903
 21
-0.112367
 31
0.0
  0
LINE
  5
7A9
100
AcDbEntity
  8
TRMODEL1
  6
CONTINUOUS
 62
     7
100
AcDbLine
 10
0.947903
 20
-0.112367
 30
0.0
 11
0.948881
 21
-0.104802
 31
0.0
  0
LINE
  5
7AA
100
AcDbEntity
  8
TRMODEL1
  6
CONTINUOUS
 62
     7
100
AcDbLine
 10
0.948881
 20
-0.104802
 30
0.0
 11
0.949792
 21
-0.09726
 31
0.0
  0
LINE
  5
7AB
100
AcDbEntity
  8
TRMODEL1
  6
CONTINUOUS
 62
     7
100
AcDbLine
 10
0.949792
 20
-0.09726
 30
0.0
 11
0.950635
 21
-0.089737
 31
0.0
  0
LINE
  5
7AC
100
AcDbEntity
  8
TRMODEL1
  6
CONTINUOUS
 62
     7
100
AcDbLine
 10
0.950635
 20
-0.089737
 30
0.0
 11
0.951411
 21
-0.082231
 31
0.0
  0
LINE
  5
7AD
100
AcDbEntity
  8
TRMODEL1
  6
CONTINUOUS
 62
     7
100
AcDbLine
 10
0.951411
 20
-0.082231
 30
0.0
 11
0.95212
 21
-0.074739
 31
0.0
  0
LINE
  5
7AE
100
AcDbEntity
  8
TRMODEL1
  6
CONTINUOUS
 62
     7
100
AcDbLine
 10
0.95212
 20
-0.074739
 30
0.0
 11
0.952762
 21
-0.067259
 31
0.0
  0
LINE
  5
7AF
100
AcDbEntity
  8
TRMODEL1
  6
CONTINUOUS
 62
     7
100
AcDbLine
 10
0.952762
 20
-0.067259
 30
0.0
 11
0.953336
 21
-0.059787
 31
0.0
  0
LINE
  5
7B0
100
AcDbEntity
  8
TRMODEL1
  6
CONTINUOUS
 62
     7
100
AcDbLine
 10
0.953336
 20
-0.059787
 30
0.0
 11
0.953844
 21
-0.052321
 31
0.0
  0
LINE
  5
7B1
100
AcDbEntity
  8
TRMODEL1
  6
CONTINUOUS
 62
     7
100
AcDbLine
 10
0.953844
 20
-0.052321
 30
0.0
 11
0.954285
 21
-0.044859
 31
0.0
  0
LINE
  5
7B2
100
AcDbEntity
  8
TRMODEL1
  6
CONTINUOUS
 62
     7
100
AcDbLine
 10
0.954285
 20
-0.044859
 30
0.0
 11
0.954659
 21
-0.037397
 31
0.0
  0
LINE
  5
7B3
100
AcDbEntity
  8
TRMODEL1
  6
CONTINUOUS
 62
     7
100
AcDbLine
 10
0.954659
 20
-0.037397
 30
0.0
 11
0.954965
 21
-0.029933
 31
0.0
  0
LINE
  5
7B4
100
AcDbEntity
  8
TRMODEL1
  6
CONTINUOUS
 62
     7
100
AcDbLine
 10
0.954965
 20
-0.029933
 30
0.0
 11
0.955204
 21
-0.022464
 31
0.0
  0
LINE
  5
7B5
100
AcDbEntity
  8
TRMODEL1
  6
CONTINUOUS
 62
     7
100
AcDbLine
 10
0.955204
 20
-0.022464
 30
0.0
 11
0.955375
 21
-0.014988
 31
0.0
  0
LINE
  5
7B6
100
AcDbEntity
  8
TRMODEL1
  6
CONTINUOUS
 62
     7
100
AcDbLine
 10
0.955375
 20
-0.014988
 30
0.0
 11
0.955477
 21
-0.007501
 31
0.0
  0
LINE
  5
7B7
100
AcDbEntity
  8
TRMODEL1
  6
CONTINUOUS
 62
     7
100
AcDbLine
 10
0.955477
 20
-0.007501
 30
0.0
 11
0.955512
 21
0.0
 31
0.0
  0
LINE
  5
7B8
100
AcDbEntity
  8
TRMODEL1
  6
CONTINUOUS
 62
     7
100
AcDbLine
 10
0.955512
 20
-0.409146
 30
0.0
 11
0.955477
 21
-0.405396
 31
0.0
  0
LINE
  5
7B9
100
AcDbEntity
  8
TRMODEL1
  6
CONTINUOUS
 62
     7
100
AcDbLine
 10
0.955477
 20
-0.405396
 30
0.0
 11
0.955375
 21
-0.401652
 31
0.0
  0
LINE
  5
7BA
100
AcDbEntity
  8
TRMODEL1
  6
CONTINUOUS
 62
     7
100
AcDbLine
 10
0.955375
 20
-0.401652
 30
0.0
 11
0.955204
 21
-0.397914
 31
0.0
  0
LINE
  5
7BB
100
AcDbEntity
  8
TRMODEL1
  6
CONTINUOUS
 62
     7
100
AcDbLine
 10
0.955204
 20
-0.397914
 30
0.0
 11
0.954965
 21
-0.394179
 31
0.0
  0
LINE
  5
7BC
100
AcDbEntity
  8
TRMODEL1
  6
CONTINUOUS
 62
     7
100
AcDbLine
 10
0.954965
 20
-0.394179
 30
0.0
 11
0.954659
 21
-0.390447
 31
0.0
  0
LINE
  5
7BD
100
AcDbEntity
  8
TRMODEL1
  6
CONTINUOUS
 62
     7
100
AcDbLine
 10
0.954659
 20
-0.390447
 30
0.0
 11
0.954285
 21
-0.386716
 31
0.0
  0
LINE
  5
7BE
100
AcDbEntity
  8
TRMODEL1
  6
CONTINUOUS
 62
     7
100
AcDbLine
 10
0.954285
 20
-0.386716
 30
0.0
 11
0.953844
 21
-0.382985
 31
0.0
  0
LINE
  5
7BF
100
AcDbEntity
  8
TRMODEL1
  6
CONTINUOUS
 62
     7
100
AcDbLine
 10
0.953844
 20
-0.382985
 30
0.0
 11
0.953336
 21
-0.379252
 31
0.0
  0
LINE
  5
7C0
100
AcDbEntity
  8
TRMODEL1
  6
CONTINUOUS
 62
     7
100
AcDbLine
 10
0.953336
 20
-0.379252
 30
0.0
 11
0.952762
 21
-0.375516
 31
0.0
  0
LINE
  5
7C1
100
AcDbEntity
  8
TRMODEL1
  6
CONTINUOUS
 62
     7
100
AcDbLine
 10
0.952762
 20
-0.375516
 30
0.0
 11
0.95212
 21
-0.371776
 31
0.0
  0
LINE
  5
7C2
100
AcDbEntity
  8
TRMODEL1
  6
CONTINUOUS
 62
     7
100
AcDbLine
 10
0.95212
 20
-0.371776
 30
0.0
 11
0.951411
 21
-0.36803
 31
0.0
  0
LINE
  5
7C3
100
AcDbEntity
  8
TRMODEL1
  6
CONTINUOUS
 62
     7
100
AcDbLine
 10
0.951411
 20
-0.36803
 30
0.0
 11
0.950635
 21
-0.364277
 31
0.0
  0
LINE
  5
7C4
100
AcDbEntity
  8
TRMODEL1
  6
CONTINUOUS
 62
     7
100
AcDbLine
 10
0.950635
 20
-0.364277
 30
0.0
 11
0.949792
 21
-0.360516
 31
0.0
  0
LINE
  5
7C5
100
AcDbEntity
  8
TRMODEL1
  6
CONTINUOUS
 62
     7
100
AcDbLine
 10
0.949792
 20
-0.360516
 30
0.0
 11
0.948881
 21
-0.356745
 31
0.0
  0
LINE
  5
7C6
100
AcDbEntity
  8
TRMODEL1
  6
CONTINUOUS
 62
     7
100
AcDbLine
 10
0.948881
 20
-0.356745
 30
0.0
 11
0.947903
 21
-0.352962
 31
0.0
  0
LINE
  5
7C7
100
AcDbEntity
  8
TRMODEL1
  6
CONTINUOUS
 62
     7
100
AcDbLine
 10
0.947903
 20
-0.352962
 30
0.0
 11
0.946857
 21
-0.349167
 31
0.0
  0
LINE
  5
7C8
100
AcDbEntity
  8
TRMODEL1
  6
CONTINUOUS
 62
     7
100
AcDbLine
 10
0.946857
 20
-0.349167
 30
0.0
 11
0.945742
 21
-0.345358
 31
0.0
  0
LINE
  5
7C9
100
AcDbEntity
  8
TRMODEL1
  6
CONTINUOUS
 62
     7
100
AcDbLine
 10
0.945742
 20
-0.345358
 30
0.0
 11
0.944559
 21
-0.341534
 31
0.0
  0
LINE
  5
7CA
100
AcDbEntity
  8
TRMODEL1
  6
CONTINUOUS
 62
     7
100
AcDbLine
 10
0.944559
 20
-0.341534
 30
0.0
 11
0.943307
 21
-0.337694
 31
0.0
  0
LINE
  5
7CB
100
AcDbEntity
  8
TRMODEL1
  6
CONTINUOUS
 62
     7
100
AcDbLine
 10
0.943307
 20
-0.337694
 30
0.0
 11
0.941985
 21
-0.333835
 31
0.0
  0
LINE
  5
7CC
100
AcDbEntity
  8
TRMODEL1
  6
CONTINUOUS
 62
     7
100
AcDbLine
 10
0.941985
 20
-0.333835
 30
0.0
 11
0.940593
 21
-0.329956
 31
0.0
  0
LINE
  5
7CD
100
AcDbEntity
  8
TRMODEL1
  6
CONTINUOUS
 62
     7
100
AcDbLine
 10
0.940593
 20
-0.329956
 30
0.0
 11
0.93913
 21
-0.326057
 31
0.0
  0
LINE
  5
7CE
100
AcDbEntity
  8
TRMODEL1
  6
CONTINUOUS
 62
     7
100
AcDbLine
 10
0.93913
 20
-0.326057
 30
0.0
 11
0.937596
 21
-0.322135
 31
0.0
  0
LINE
  5
7CF
100
AcDbEntity
  8
TRMODEL1
  6
CONTINUOUS
 62
     7
100
AcDbLine
 10
0.937596
 20
-0.322135
 30
0.0
 11
0.93599
 21
-0.31819
 31
0.0
  0
LINE
  5
7D0
100
AcDbEntity
  8
TRMODEL1
  6
CONTINUOUS
 62
     7
100
AcDbLine
 10
0.93599
 20
-0.31819
 30
0.0
 11
0.934311
 21
-0.314219
 31
0.0
  0
LINE
  5
7D1
100
AcDbEntity
  8
TRMODEL1
  6
CONTINUOUS
 62
     7
100
AcDbLine
 10
0.934311
 20
-0.314219
 30
0.0
 11
0.932559
 21
-0.310221
 31
0.0
  0
LINE
  5
7D2
100
AcDbEntity
  8
TRMODEL1
  6
CONTINUOUS
 62
     7
100
AcDbLine
 10
0.932559
 20
-0.310221
 30
0.0
 11
0.930732
 21
-0.306194
 31
0.0
  0
LINE
  5
7D3
100
AcDbEntity
  8
TRMODEL1
  6
CONTINUOUS
 62
     7
100
AcDbLine
 10
0.930732
 20
-0.306194
 30
0.0
 11
0.92883
 21
-0.302138
 31
0.0
  0
LINE
  5
7D4
100
AcDbEntity
  8
TRMODEL1
  6
CONTINUOUS
 62
     7
100
AcDbLine
 10
0.92883
 20
-0.302138
 30
0.0
 11
0.926851
 21
-0.29805
 31
0.0
  0
LINE
  5
7D5
100
AcDbEntity
  8
TRMODEL1
  6
CONTINUOUS
 62
     7
100
AcDbLine
 10
0.926851
 20
-0.29805
 30
0.0
 11
0.924796
 21
-0.293929
 31
0.0
  0
LINE
  5
7D6
100
AcDbEntity
  8
TRMODEL1
  6
CONTINUOUS
 62
     7
100
AcDbLine
 10
0.924796
 20
-0.293929
 30
0.0
 11
0.922661
 21
-0.289772
 31
0.0
  0
LINE
  5
7D7
100
AcDbEntity
  8
TRMODEL1
  6
CONTINUOUS
 62
     7
100
AcDbLine
 10
0.922661
 20
-0.289772
 30
0.0
 11
0.920447
 21
-0.28558
 31
0.0
  0
LINE
  5
7D8
100
AcDbEntity
  8
TRMODEL1
  6
CONTINUOUS
 62
     7
100
AcDbLine
 10
0.920447
 20
-0.28558
 30
0.0
 11
0.918153
 21
-0.281349
 31
0.0
  0
LINE
  5
7D9
100
AcDbEntity
  8
TRMODEL1
  6
CONTINUOUS
 62
     7
100
AcDbLine
 10
0.918153
 20
-0.281349
 30
0.0
 11
0.915776
 21
-0.277077
 31
0.0
  0
LINE
  5
7DA
100
AcDbEntity
  8
TRMODEL1
  6
CONTINUOUS
 62
     7
100
AcDbLine
 10
0.915776
 20
-0.277077
 30
0.0
 11
0.913315
 21
-0.272764
 31
0.0
  0
LINE
  5
7DB
100
AcDbEntity
  8
TRMODEL1
  6
CONTINUOUS
 62
     7
100
AcDbLine
 10
0.955512
 20
0.0
 30
0.0
 11
0.955512
 21
-0.409146
 31
0.0
  0
LINE
  5
7DC
100
AcDbEntity
  8
TRMODEL1
  6
CONTINUOUS
 62
     7
100
AcDbLine
 10
0.913315
 20
0.272764
 30
0.0
 11
0.840228
 21
0.272764
 31
0.0
  0
LINE
  5
7DD
100
AcDbEntity
  8
TRMODEL1
  6
CONTINUOUS
 62
     7
100
AcDbLine
 10
0.840228
 20
0.272764
 30
0.0
 11
0.837768
 21
0.264137
 31
0.0
  0
LINE
  5
7DE
100
AcDbEntity
  8
TRMODEL1
  6
CONTINUOUS
 62
     7
100
AcDbLine
 10
0.837768
 20
0.264137
 30
0.0
 11
0.835391
 21
0.255595
 31
0.0
  0
LINE
  5
7DF
100
AcDbEntity
  8
TRMODEL1
  6
CONTINUOUS
 62
     7
100
AcDbLine
 10
0.835391
 20
0.255595
 30
0.0
 11
0.833096
 21
0.247132
 31
0.0
  0
LINE
  5
7E0
100
AcDbEntity
  8
TRMODEL1
  6
CONTINUOUS
 62
     7
100
AcDbLine
 10
0.833096
 20
0.247132
 30
0.0
 11
0.830882
 21
0.238747
 31
0.0
  0
LINE
  5
7E1
100
AcDbEntity
  8
TRMODEL1
  6
CONTINUOUS
 62
     7
100
AcDbLine
 10
0.830882
 20
0.238747
 30
0.0
 11
0.828748
 21
0.230434
 31
0.0
  0
LINE
  5
7E2
100
AcDbEntity
  8
TRMODEL1
  6
CONTINUOUS
 62
     7
100
AcDbLine
 10
0.828748
 20
0.230434
 30
0.0
 11
0.826692
 21
0.222192
 31
0.0
  0
LINE
  5
7E3
100
AcDbEntity
  8
TRMODEL1
  6
CONTINUOUS
 62
     7
100
AcDbLine
 10
0.826692
 20
0.222192
 30
0.0
 11
0.824713
 21
0.214016
 31
0.0
  0
LINE
  5
7E4
100
AcDbEntity
  8
TRMODEL1
  6
CONTINUOUS
 62
     7
100
AcDbLine
 10
0.824713
 20
0.214016
 30
0.0
 11
0.822811
 21
0.205903
 31
0.0
  0
LINE
  5
7E5
100
AcDbEntity
  8
TRMODEL1
  6
CONTINUOUS
 62
     7
100
AcDbLine
 10
0.822811
 20
0.205903
 30
0.0
 11
0.820984
 21
0.19785
 31
0.0
  0
LINE
  5
7E6
100
AcDbEntity
  8
TRMODEL1
  6
CONTINUOUS
 62
     7
100
AcDbLine
 10
0.820984
 20
0.19785
 30
0.0
 11
0.819232
 21
0.189855
 31
0.0
  0
LINE
  5
7E7
100
AcDbEntity
  8
TRMODEL1
  6
CONTINUOUS
 62
     7
100
AcDbLine
 10
0.819232
 20
0.189855
 30
0.0
 11
0.817553
 21
0.181913
 31
0.0
  0
LINE
  5
7E8
100
AcDbEntity
  8
TRMODEL1
  6
CONTINUOUS
 62
     7
100
AcDbLine
 10
0.817553
 20
0.181913
 30
0.0
 11
0.815947
 21
0.174021
 31
0.0
  0
LINE
  5
7E9
100
AcDbEntity
  8
TRMODEL1
  6
CONTINUOUS
 62
     7
100
AcDbLine
 10
0.815947
 20
0.174021
 30
0.0
 11
0.814413
 21
0.166178
 31
0.0
  0
LINE
  5
7EA
100
AcDbEntity
  8
TRMODEL1
  6
CONTINUOUS
 62
     7
100
AcDbLine
 10
0.814413
 20
0.166178
 30
0.0
 11
0.812951
 21
0.158379
 31
0.0
  0
LINE
  5
7EB
100
AcDbEntity
  8
TRMODEL1
  6
CONTINUOUS
 62
     7
100
AcDbLine
 10
0.812951
 20
0.158379
 30
0.0
 11
0.811559
 21
0.150622
 31
0.0
  0
LINE
  5
7EC
100
AcDbEntity
  8
TRMODEL1
  6
CONTINUOUS
 62
     7
100
AcDbLine
 10
0.811559
 20
0.150622
 30
0.0
 11
0.810237
 21
0.142905
 31
0.0
  0
LINE
  5
7ED
100
AcDbEntity
  8
TRMODEL1
  6
CONTINUOUS
 62
     7
100
AcDbLine
 10
0.810237
 20
0.142905
 30
0.0
 11
0.808984
 21
0.135223
 31
0.0
  0
LINE
  5
7EE
100
AcDbEntity
  8
TRMODEL1
  6
CONTINUOUS
 62
     7
100
AcDbLine
 10
0.808984
 20
0.135223
 30
0.0
 11
0.807801
 21
0.127575
 31
0.0
  0
LINE
  5
7EF
100
AcDbEntity
  8
TRMODEL1
  6
CONTINUOUS
 62
     7
100
AcDbLine
 10
0.807801
 20
0.127575
 30
0.0
 11
0.806687
 21
0.119957
 31
0.0
  0
LINE
  5
7F0
100
AcDbEntity
  8
TRMODEL1
  6
CONTINUOUS
 62
     7
100
AcDbLine
 10
0.806687
 20
0.119957
 30
0.0
 11
0.80564
 21
0.112367
 31
0.0
  0
LINE
  5
7F1
100
AcDbEntity
  8
TRMODEL1
  6
CONTINUOUS
 62
     7
100
AcDbLine
 10
0.80564
 20
0.112367
 30
0.0
 11
0.804662
 21
0.104802
 31
0.0
  0
LINE
  5
7F2
100
AcDbEntity
  8
TRMODEL1
  6
CONTINUOUS
 62
     7
100
AcDbLine
 10
0.804662
 20
0.104802
 30
0.0
 11
0.803752
 21
0.09726
 31
0.0
  0
LINE
  5
7F3
100
AcDbEntity
  8
TRMODEL1
  6
CONTINUOUS
 62
     7
100
AcDbLine
 10
0.803752
 20
0.09726
 30
0.0
 11
0.802908
 21
0.089737
 31
0.0
  0
LINE
  5
7F4
100
AcDbEntity
  8
TRMODEL1
  6
CONTINUOUS
 62
     7
100
AcDbLine
 10
0.802908
 20
0.089737
 30
0.0
 11
0.802132
 21
0.082231
 31
0.0
  0
LINE
  5
7F5
100
AcDbEntity
  8
TRMODEL1
  6
CONTINUOUS
 62
     7
100
AcDbLine
 10
0.802132
 20
0.082231
 30
0.0
 11
0.801424
 21
0.074739
 31
0.0
  0
LINE
  5
7F6
100
AcDbEntity
  8
TRMODEL1
  6
CONTINUOUS
 62
     7
100
AcDbLine
 10
0.801424
 20
0.074739
 30
0.0
 11
0.800782
 21
0.067259
 31
0.0
  0
LINE
  5
7F7
100
AcDbEntity
  8
TRMODEL1
  6
CONTINUOUS
 62
     7
100
AcDbLine
 10
0.800782
 20
0.067259
 30
0.0
 11
0.800207
 21
0.059787
 31
0.0
  0
LINE
  5
7F8
100
AcDbEntity
  8
TRMODEL1
  6
CONTINUOUS
 62
     7
100
AcDbLine
 10
0.800207
 20
0.059787
 30
0.0
 11
0.799699
 21
0.052321
 31
0.0
  0
LINE
  5
7F9
100
AcDbEntity
  8
TRMODEL1
  6
CONTINUOUS
 62
     7
100
AcDbLine
 10
0.799699
 20
0.052321
 30
0.0
 11
0.799258
 21
0.044859
 31
0.0
  0
LINE
  5
7FA
100
AcDbEntity
  8
TRMODEL1
  6
CONTINUOUS
 62
     7
100
AcDbLine
 10
0.799258
 20
0.044859
 30
0.0
 11
0.798885
 21
0.037397
 31
0.0
  0
LINE
  5
7FB
100
AcDbEntity
  8
TRMODEL1
  6
CONTINUOUS
 62
     7
100
AcDbLine
 10
0.798885
 20
0.037397
 30
0.0
 11
0.798578
 21
0.029933
 31
0.0
  0
LINE
  5
7FC
100
AcDbEntity
  8
TRMODEL1
  6
CONTINUOUS
 62
     7
100
AcDbLine
 10
0.798578
 20
0.029933
 30
0.0
 11
0.79834
 21
0.022464
 31
0.0
  0
LINE
  5
7FD
100
AcDbEntity
  8
TRMODEL1
  6
CONTINUOUS
 62
     7
100
AcDbLine
 10
0.79834
 20
0.022464
 30
0.0
 11
0.798169
 21
0.014988
 31
0.0
  0
LINE
  5
7FE
100
AcDbEntity
  8
TRMODEL1
  6
CONTINUOUS
 62
     7
100
AcDbLine
 10
0.798169
 20
0.014988
 30
0.0
 11
0.798066
 21
0.007501
 31
0.0
  0
LINE
  5
7FF
100
AcDbEntity
  8
TRMODEL1
  6
CONTINUOUS
 62
     7
100
AcDbLine
 10
0.798066
 20
0.007501
 30
0.0
 11
0.798031
 21
0.0
 31
0.0
  0
LINE
  5
800
100
AcDbEntity
  8
TRMODEL1
  6
CONTINUOUS
 62
     7
100
AcDbLine
 10
0.798031
 20
0.0
 30
0.0
 11
0.798066
 21
-0.007501
 31
0.0
  0
LINE
  5
801
100
AcDbEntity
  8
TRMODEL1
  6
CONTINUOUS
 62
     7
100
AcDbLine
 10
0.798066
 20
-0.007501
 30
0.0
 11
0.798169
 21
-0.014988
 31
0.0
  0
LINE
  5
802
100
AcDbEntity
  8
TRMODEL1
  6
CONTINUOUS
 62
     7
100
AcDbLine
 10
0.798169
 20
-0.014988
 30
0.0
 11
0.79834
 21
-0.022464
 31
0.0
  0
LINE
  5
803
100
AcDbEntity
  8
TRMODEL1
  6
CONTINUOUS
 62
     7
100
AcDbLine
 10
0.79834
 20
-0.022464
 30
0.0
 11
0.798578
 21
-0.029933
 31
0.0
  0
LINE
  5
804
100
AcDbEntity
  8
TRMODEL1
  6
CONTINUOUS
 62
     7
100
AcDbLine
 10
0.798578
 20
-0.029933
 30
0.0
 11
0.798885
 21
-0.037397
 31
0.0
  0
LINE
  5
805
100
AcDbEntity
  8
TRMODEL1
  6
CONTINUOUS
 62
     7
100
AcDbLine
 10
0.798885
 20
-0.037397
 30
0.0
 11
0.799258
 21
-0.044859
 31
0.0
  0
LINE
  5
806
100
AcDbEntity
  8
TRMODEL1
  6
CONTINUOUS
 62
     7
100
AcDbLine
 10
0.799258
 20
-0.044859
 30
0.0
 11
0.799699
 21
-0.052321
 31
0.0
  0
LINE
  5
807
100
AcDbEntity
  8
TRMODEL1
  6
CONTINUOUS
 62
     7
100
AcDbLine
 10
0.799699
 20
-0.052321
 30
0.0
 11
0.800207
 21
-0.059787
 31
0.0
  0
LINE
  5
808
100
AcDbEntity
  8
TRMODEL1
  6
CONTINUOUS
 62
     7
100
AcDbLine
 10
0.800207
 20
-0.059787
 30
0.0
 11
0.800782
 21
-0.067259
 31
0.0
  0
LINE
  5
809
100
AcDbEntity
  8
TRMODEL1
  6
CONTINUOUS
 62
     7
100
AcDbLine
 10
0.800782
 20
-0.067259
 30
0.0
 11
0.801424
 21
-0.074739
 31
0.0
  0
LINE
  5
80A
100
AcDbEntity
  8
TRMODEL1
  6
CONTINUOUS
 62
     7
100
AcDbLine
 10
0.801424
 20
-0.074739
 30
0.0
 11
0.802132
 21
-0.082231
 31
0.0
  0
LINE
  5
80B
100
AcDbEntity
  8
TRMODEL1
  6
CONTINUOUS
 62
     7
100
AcDbLine
 10
0.802132
 20
-0.082231
 30
0.0
 11
0.802908
 21
-0.089737
 31
0.0
  0
LINE
  5
80C
100
AcDbEntity
  8
TRMODEL1
  6
CONTINUOUS
 62
     7
100
AcDbLine
 10
0.802908
 20
-0.089737
 30
0.0
 11
0.803752
 21
-0.09726
 31
0.0
  0
LINE
  5
80D
100
AcDbEntity
  8
TRMODEL1
  6
CONTINUOUS
 62
     7
100
AcDbLine
 10
0.803752
 20
-0.09726
 30
0.0
 11
0.804662
 21
-0.104802
 31
0.0
  0
LINE
  5
80E
100
AcDbEntity
  8
TRMODEL1
  6
CONTINUOUS
 62
     7
100
AcDbLine
 10
0.804662
 20
-0.104802
 30
0.0
 11
0.80564
 21
-0.112367
 31
0.0
  0
LINE
  5
80F
100
AcDbEntity
  8
TRMODEL1
  6
CONTINUOUS
 62
     7
100
AcDbLine
 10
0.80564
 20
-0.112367
 30
0.0
 11
0.806687
 21
-0.119957
 31
0.0
  0
LINE
  5
810
100
AcDbEntity
  8
TRMODEL1
  6
CONTINUOUS
 62
     7
100
AcDbLine
 10
0.806687
 20
-0.119957
 30
0.0
 11
0.807801
 21
-0.127575
 31
0.0
  0
LINE
  5
811
100
AcDbEntity
  8
TRMODEL1
  6
CONTINUOUS
 62
     7
100
AcDbLine
 10
0.807801
 20
-0.127575
 30
0.0
 11
0.808984
 21
-0.135223
 31
0.0
  0
LINE
  5
812
100
AcDbEntity
  8
TRMODEL1
  6
CONTINUOUS
 62
     7
100
AcDbLine
 10
0.808984
 20
-0.135223
 30
0.0
 11
0.810237
 21
-0.142905
 31
0.0
  0
LINE
  5
813
100
AcDbEntity
  8
TRMODEL1
  6
CONTINUOUS
 62
     7
100
AcDbLine
 10
0.810237
 20
-0.142905
 30
0.0
 11
0.811559
 21
-0.150622
 31
0.0
  0
LINE
  5
814
100
AcDbEntity
  8
TRMODEL1
  6
CONTINUOUS
 62
     7
100
AcDbLine
 10
0.811559
 20
-0.150622
 30
0.0
 11
0.812951
 21
-0.158379
 31
0.0
  0
LINE
  5
815
100
AcDbEntity
  8
TRMODEL1
  6
CONTINUOUS
 62
     7
100
AcDbLine
 10
0.812951
 20
-0.158379
 30
0.0
 11
0.814413
 21
-0.166178
 31
0.0
  0
LINE
  5
816
100
AcDbEntity
  8
TRMODEL1
  6
CONTINUOUS
 62
     7
100
AcDbLine
 10
0.814413
 20
-0.166178
 30
0.0
 11
0.815947
 21
-0.174021
 31
0.0
  0
LINE
  5
817
100
AcDbEntity
  8
TRMODEL1
  6
CONTINUOUS
 62
     7
100
AcDbLine
 10
0.815947
 20
-0.174021
 30
0.0
 11
0.817553
 21
-0.181913
 31
0.0
  0
LINE
  5
818
100
AcDbEntity
  8
TRMODEL1
  6
CONTINUOUS
 62
     7
100
AcDbLine
 10
0.817553
 20
-0.181913
 30
0.0
 11
0.819232
 21
-0.189855
 31
0.0
  0
LINE
  5
819
100
AcDbEntity
  8
TRMODEL1
  6
CONTINUOUS
 62
     7
100
AcDbLine
 10
0.819232
 20
-0.189855
 30
0.0
 11
0.820984
 21
-0.19785
 31
0.0
  0
LINE
  5
81A
100
AcDbEntity
  8
TRMODEL1
  6
CONTINUOUS
 62
     7
100
AcDbLine
 10
0.820984
 20
-0.19785
 30
0.0
 11
0.822811
 21
-0.205903
 31
0.0
  0
LINE
  5
81B
100
AcDbEntity
  8
TRMODEL1
  6
CONTINUOUS
 62
     7
100
AcDbLine
 10
0.822811
 20
-0.205903
 30
0.0
 11
0.824713
 21
-0.214016
 31
0.0
  0
LINE
  5
81C
100
AcDbEntity
  8
TRMODEL1
  6
CONTINUOUS
 62
     7
100
AcDbLine
 10
0.824713
 20
-0.214016
 30
0.0
 11
0.826692
 21
-0.222192
 31
0.0
  0
LINE
  5
81D
100
AcDbEntity
  8
TRMODEL1
  6
CONTINUOUS
 62
     7
100
AcDbLine
 10
0.826692
 20
-0.222192
 30
0.0
 11
0.828748
 21
-0.230434
 31
0.0
  0
LINE
  5
81E
100
AcDbEntity
  8
TRMODEL1
  6
CONTINUOUS
 62
     7
100
AcDbLine
 10
0.828748
 20
-0.230434
 30
0.0
 11
0.830882
 21
-0.238747
 31
0.0
  0
LINE
  5
81F
100
AcDbEntity
  8
TRMODEL1
  6
CONTINUOUS
 62
     7
100
AcDbLine
 10
0.830882
 20
-0.238747
 30
0.0
 11
0.833096
 21
-0.247132
 31
0.0
  0
LINE
  5
820
100
AcDbEntity
  8
TRMODEL1
  6
CONTINUOUS
 62
     7
100
AcDbLine
 10
0.833096
 20
-0.247132
 30
0.0
 11
0.835391
 21
-0.255595
 31
0.0
  0
LINE
  5
821
100
AcDbEntity
  8
TRMODEL1
  6
CONTINUOUS
 62
     7
100
AcDbLine
 10
0.835391
 20
-0.255595
 30
0.0
 11
0.837768
 21
-0.264137
 31
0.0
  0
LINE
  5
822
100
AcDbEntity
  8
TRMODEL1
  6
CONTINUOUS
 62
     7
100
AcDbLine
 10
0.837768
 20
-0.264137
 30
0.0
 11
0.840228
 21
-0.272764
 31
0.0
  0
LINE
  5
823
100
AcDbEntity
  8
TRMODEL1
  6
CONTINUOUS
 62
     7
100
AcDbLine
 10
0.913315
 20
-0.272764
 30
0.0
 11
0.840228
 21
-0.272764
 31
0.0
  0
LINE
  5
824
100
AcDbEntity
  8
TRMODEL1
  6
CONTINUOUS
 62
     7
100
AcDbLine
 10
0.913315
 20
0.545528
 30
0.0
 11
0.840228
 21
0.545528
 31
0.0
  0
LINE
  5
825
100
AcDbEntity
  8
TRMODEL1
  6
CONTINUOUS
 62
     7
100
AcDbLine
 10
0.840228
 20
0.545528
 30
0.0
 11
0.837768
 21
0.541215
 31
0.0
  0
LINE
  5
826
100
AcDbEntity
  8
TRMODEL1
  6
CONTINUOUS
 62
     7
100
AcDbLine
 10
0.837768
 20
0.541215
 30
0.0
 11
0.835391
 21
0.536943
 31
0.0
  0
LINE
  5
827
100
AcDbEntity
  8
TRMODEL1
  6
CONTINUOUS
 62
     7
100
AcDbLine
 10
0.835391
 20
0.536943
 30
0.0
 11
0.833096
 21
0.532712
 31
0.0
  0
LINE
  5
828
100
AcDbEntity
  8
TRMODEL1
  6
CONTINUOUS
 62
     7
100
AcDbLine
 10
0.833096
 20
0.532712
 30
0.0
 11
0.830882
 21
0.528519
 31
0.0
  0
LINE
  5
829
100
AcDbEntity
  8
TRMODEL1
  6
CONTINUOUS
 62
     7
100
AcDbLine
 10
0.830882
 20
0.528519
 30
0.0
 11
0.828748
 21
0.524363
 31
0.0
  0
LINE
  5
82A
100
AcDbEntity
  8
TRMODEL1
  6
CONTINUOUS
 62
     7
100
AcDbLine
 10
0.828748
 20
0.524363
 30
0.0
 11
0.826692
 21
0.520242
 31
0.0
  0
LINE
  5
82B
100
AcDbEntity
  8
TRMODEL1
  6
CONTINUOUS
 62
     7
100
AcDbLine
 10
0.826692
 20
0.520242
 30
0.0
 11
0.824713
 21
0.516154
 31
0.0
  0
LINE
  5
82C
100
AcDbEntity
  8
TRMODEL1
  6
CONTINUOUS
 62
     7
100
AcDbLine
 10
0.824713
 20
0.516154
 30
0.0
 11
0.822811
 21
0.512097
 31
0.0
  0
LINE
  5
82D
100
AcDbEntity
  8
TRMODEL1
  6
CONTINUOUS
 62
     7
100
AcDbLine
 10
0.822811
 20
0.512097
 30
0.0
 11
0.820984
 21
0.508071
 31
0.0
  0
LINE
  5
82E
100
AcDbEntity
  8
TRMODEL1
  6
CONTINUOUS
 62
     7
100
AcDbLine
 10
0.820984
 20
0.508071
 30
0.0
 11
0.819232
 21
0.504073
 31
0.0
  0
LINE
  5
82F
100
AcDbEntity
  8
TRMODEL1
  6
CONTINUOUS
 62
     7
100
AcDbLine
 10
0.819232
 20
0.504073
 30
0.0
 11
0.817553
 21
0.500102
 31
0.0
  0
LINE
  5
830
100
AcDbEntity
  8
TRMODEL1
  6
CONTINUOUS
 62
     7
100
AcDbLine
 10
0.817553
 20
0.500102
 30
0.0
 11
0.815947
 21
0.496157
 31
0.0
  0
LINE
  5
831
100
AcDbEntity
  8
TRMODEL1
  6
CONTINUOUS
 62
     7
100
AcDbLine
 10
0.815947
 20
0.496157
 30
0.0
 11
0.814413
 21
0.492235
 31
0.0
  0
LINE
  5
832
100
AcDbEntity
  8
TRMODEL1
  6
CONTINUOUS
 62
     7
100
AcDbLine
 10
0.814413
 20
0.492235
 30
0.0
 11
0.812951
 21
0.488335
 31
0.0
  0
LINE
  5
833
100
AcDbEntity
  8
TRMODEL1
  6
CONTINUOUS
 62
     7
100
AcDbLine
 10
0.812951
 20
0.488335
 30
0.0
 11
0.811559
 21
0.484457
 31
0.0
  0
LINE
  5
834
100
AcDbEntity
  8
TRMODEL1
  6
CONTINUOUS
 62
     7
100
AcDbLine
 10
0.811559
 20
0.484457
 30
0.0
 11
0.810237
 21
0.480598
 31
0.0
  0
LINE
  5
835
100
AcDbEntity
  8
TRMODEL1
  6
CONTINUOUS
 62
     7
100
AcDbLine
 10
0.810237
 20
0.480598
 30
0.0
 11
0.808984
 21
0.476757
 31
0.0
  0
LINE
  5
836
100
AcDbEntity
  8
TRMODEL1
  6
CONTINUOUS
 62
     7
100
AcDbLine
 10
0.808984
 20
0.476757
 30
0.0
 11
0.807801
 21
0.472933
 31
0.0
  0
LINE
  5
837
100
AcDbEntity
  8
TRMODEL1
  6
CONTINUOUS
 62
     7
100
AcDbLine
 10
0.807801
 20
0.472933
 30
0.0
 11
0.806687
 21
0.469124
 31
0.0
  0
LINE
  5
838
100
AcDbEntity
  8
TRMODEL1
  6
CONTINUOUS
 62
     7
100
AcDbLine
 10
0.806687
 20
0.469124
 30
0.0
 11
0.80564
 21
0.465329
 31
0.0
  0
LINE
  5
839
100
AcDbEntity
  8
TRMODEL1
  6
CONTINUOUS
 62
     7
100
AcDbLine
 10
0.80564
 20
0.465329
 30
0.0
 11
0.804662
 21
0.461547
 31
0.0
  0
LINE
  5
83A
100
AcDbEntity
  8
TRMODEL1
  6
CONTINUOUS
 62
     7
100
AcDbLine
 10
0.804662
 20
0.461547
 30
0.0
 11
0.803752
 21
0.457776
 31
0.0
  0
LINE
  5
83B
100
AcDbEntity
  8
TRMODEL1
  6
CONTINUOUS
 62
     7
100
AcDbLine
 10
0.803752
 20
0.457776
 30
0.0
 11
0.802908
 21
0.454014
 31
0.0
  0
LINE
  5
83C
100
AcDbEntity
  8
TRMODEL1
  6
CONTINUOUS
 62
     7
100
AcDbLine
 10
0.802908
 20
0.454014
 30
0.0
 11
0.802132
 21
0.450261
 31
0.0
  0
LINE
  5
83D
100
AcDbEntity
  8
TRMODEL1
  6
CONTINUOUS
 62
     7
100
AcDbLine
 10
0.802132
 20
0.450261
 30
0.0
 11
0.801424
 21
0.446515
 31
0.0
  0
LINE
  5
83E
100
AcDbEntity
  8
TRMODEL1
  6
CONTINUOUS
 62
     7
100
AcDbLine
 10
0.801424
 20
0.446515
 30
0.0
 11
0.800782
 21
0.442775
 31
0.0
  0
LINE
  5
83F
100
AcDbEntity
  8
TRMODEL1
  6
CONTINUOUS
 62
     7
100
AcDbLine
 10
0.800782
 20
0.442775
 30
0.0
 11
0.800207
 21
0.439039
 31
0.0
  0
LINE
  5
840
100
AcDbEntity
  8
TRMODEL1
  6
CONTINUOUS
 62
     7
100
AcDbLine
 10
0.800207
 20
0.439039
 30
0.0
 11
0.799699
 21
0.435307
 31
0.0
  0
LINE
  5
841
100
AcDbEntity
  8
TRMODEL1
  6
CONTINUOUS
 62
     7
100
AcDbLine
 10
0.799699
 20
0.435307
 30
0.0
 11
0.799258
 21
0.431575
 31
0.0
  0
LINE
  5
842
100
AcDbEntity
  8
TRMODEL1
  6
CONTINUOUS
 62
     7
100
AcDbLine
 10
0.799258
 20
0.431575
 30
0.0
 11
0.798885
 21
0.427845
 31
0.0
  0
LINE
  5
843
100
AcDbEntity
  8
TRMODEL1
  6
CONTINUOUS
 62
     7
100
AcDbLine
 10
0.798885
 20
0.427845
 30
0.0
 11
0.798578
 21
0.424113
 31
0.0
  0
LINE
  5
844
100
AcDbEntity
  8
TRMODEL1
  6
CONTINUOUS
 62
     7
100
AcDbLine
 10
0.798578
 20
0.424113
 30
0.0
 11
0.79834
 21
0.420378
 31
0.0
  0
LINE
  5
845
100
AcDbEntity
  8
TRMODEL1
  6
CONTINUOUS
 62
     7
100
AcDbLine
 10
0.79834
 20
0.420378
 30
0.0
 11
0.798169
 21
0.41664
 31
0.0
  0
LINE
  5
846
100
AcDbEntity
  8
TRMODEL1
  6
CONTINUOUS
 62
     7
100
AcDbLine
 10
0.798169
 20
0.41664
 30
0.0
 11
0.798066
 21
0.412896
 31
0.0
  0
LINE
  5
847
100
AcDbEntity
  8
TRMODEL1
  6
CONTINUOUS
 62
     7
100
AcDbLine
 10
0.798066
 20
0.412896
 30
0.0
 11
0.798031
 21
0.409146
 31
0.0
  0
LINE
  5
848
100
AcDbEntity
  8
TRMODEL1
  6
CONTINUOUS
 62
     7
100
AcDbLine
 10
0.798031
 20
0.409146
 30
0.0
 11
0.798066
 21
0.405396
 31
0.0
  0
LINE
  5
849
100
AcDbEntity
  8
TRMODEL1
  6
CONTINUOUS
 62
     7
100
AcDbLine
 10
0.798066
 20
0.405396
 30
0.0
 11
0.798169
 21
0.401652
 31
0.0
  0
LINE
  5
84A
100
AcDbEntity
  8
TRMODEL1
  6
CONTINUOUS
 62
     7
100
AcDbLine
 10
0.798169
 20
0.401652
 30
0.0
 11
0.79834
 21
0.397914
 31
0.0
  0
LINE
  5
84B
100
AcDbEntity
  8
TRMODEL1
  6
CONTINUOUS
 62
     7
100
AcDbLine
 10
0.79834
 20
0.397914
 30
0.0
 11
0.798578
 21
0.394179
 31
0.0
  0
LINE
  5
84C
100
AcDbEntity
  8
TRMODEL1
  6
CONTINUOUS
 62
     7
100
AcDbLine
 10
0.798578
 20
0.394179
 30
0.0
 11
0.798885
 21
0.390447
 31
0.0
  0
LINE
  5
84D
100
AcDbEntity
  8
TRMODEL1
  6
CONTINUOUS
 62
     7
100
AcDbLine
 10
0.798885
 20
0.390447
 30
0.0
 11
0.799258
 21
0.386716
 31
0.0
  0
LINE
  5
84E
100
AcDbEntity
  8
TRMODEL1
  6
CONTINUOUS
 62
     7
100
AcDbLine
 10
0.799258
 20
0.386716
 30
0.0
 11
0.799699
 21
0.382985
 31
0.0
  0
LINE
  5
84F
100
AcDbEntity
  8
TRMODEL1
  6
CONTINUOUS
 62
     7
100
AcDbLine
 10
0.799699
 20
0.382985
 30
0.0
 11
0.800207
 21
0.379252
 31
0.0
  0
LINE
  5
850
100
AcDbEntity
  8
TRMODEL1
  6
CONTINUOUS
 62
     7
100
AcDbLine
 10
0.800207
 20
0.379252
 30
0.0
 11
0.800782
 21
0.375516
 31
0.0
  0
LINE
  5
851
100
AcDbEntity
  8
TRMODEL1
  6
CONTINUOUS
 62
     7
100
AcDbLine
 10
0.800782
 20
0.375516
 30
0.0
 11
0.801424
 21
0.371776
 31
0.0
  0
LINE
  5
852
100
AcDbEntity
  8
TRMODEL1
  6
CONTINUOUS
 62
     7
100
AcDbLine
 10
0.801424
 20
0.371776
 30
0.0
 11
0.802132
 21
0.36803
 31
0.0
  0
LINE
  5
853
100
AcDbEntity
  8
TRMODEL1
  6
CONTINUOUS
 62
     7
100
AcDbLine
 10
0.802132
 20
0.36803
 30
0.0
 11
0.802908
 21
0.364277
 31
0.0
  0
LINE
  5
854
100
AcDbEntity
  8
TRMODEL1
  6
CONTINUOUS
 62
     7
100
AcDbLine
 10
0.802908
 20
0.364277
 30
0.0
 11
0.803752
 21
0.360516
 31
0.0
  0
LINE
  5
855
100
AcDbEntity
  8
TRMODEL1
  6
CONTINUOUS
 62
     7
100
AcDbLine
 10
0.803752
 20
0.360516
 30
0.0
 11
0.804662
 21
0.356745
 31
0.0
  0
LINE
  5
856
100
AcDbEntity
  8
TRMODEL1
  6
CONTINUOUS
 62
     7
100
AcDbLine
 10
0.804662
 20
0.356745
 30
0.0
 11
0.80564
 21
0.352962
 31
0.0
  0
LINE
  5
857
100
AcDbEntity
  8
TRMODEL1
  6
CONTINUOUS
 62
     7
100
AcDbLine
 10
0.80564
 20
0.352962
 30
0.0
 11
0.806687
 21
0.349167
 31
0.0
  0
LINE
  5
858
100
AcDbEntity
  8
TRMODEL1
  6
CONTINUOUS
 62
     7
100
AcDbLine
 10
0.806687
 20
0.349167
 30
0.0
 11
0.807801
 21
0.345358
 31
0.0
  0
LINE
  5
859
100
AcDbEntity
  8
TRMODEL1
  6
CONTINUOUS
 62
     7
100
AcDbLine
 10
0.807801
 20
0.345358
 30
0.0
 11
0.808984
 21
0.341534
 31
0.0
  0
LINE
  5
85A
100
AcDbEntity
  8
TRMODEL1
  6
CONTINUOUS
 62
     7
100
AcDbLine
 10
0.808984
 20
0.341534
 30
0.0
 11
0.810237
 21
0.337694
 31
0.0
  0
LINE
  5
85B
100
AcDbEntity
  8
TRMODEL1
  6
CONTINUOUS
 62
     7
100
AcDbLine
 10
0.810237
 20
0.337694
 30
0.0
 11
0.811559
 21
0.333835
 31
0.0
  0
LINE
  5
85C
100
AcDbEntity
  8
TRMODEL1
  6
CONTINUOUS
 62
     7
100
AcDbLine
 10
0.811559
 20
0.333835
 30
0.0
 11
0.812951
 21
0.329956
 31
0.0
  0
LINE
  5
85D
100
AcDbEntity
  8
TRMODEL1
  6
CONTINUOUS
 62
     7
100
AcDbLine
 10
0.812951
 20
0.329956
 30
0.0
 11
0.814413
 21
0.326057
 31
0.0
  0
LINE
  5
85E
100
AcDbEntity
  8
TRMODEL1
  6
CONTINUOUS
 62
     7
100
AcDbLine
 10
0.814413
 20
0.326057
 30
0.0
 11
0.815947
 21
0.322135
 31
0.0
  0
LINE
  5
85F
100
AcDbEntity
  8
TRMODEL1
  6
CONTINUOUS
 62
     7
100
AcDbLine
 10
0.815947
 20
0.322135
 30
0.0
 11
0.817553
 21
0.31819
 31
0.0
  0
LINE
  5
860
100
AcDbEntity
  8
TRMODEL1
  6
CONTINUOUS
 62
     7
100
AcDbLine
 10
0.817553
 20
0.31819
 30
0.0
 11
0.819232
 21
0.314219
 31
0.0
  0
LINE
  5
861
100
AcDbEntity
  8
TRMODEL1
  6
CONTINUOUS
 62
     7
100
AcDbLine
 10
0.819232
 20
0.314219
 30
0.0
 11
0.820984
 21
0.310221
 31
0.0
  0
LINE
  5
862
100
AcDbEntity
  8
TRMODEL1
  6
CONTINUOUS
 62
     7
100
AcDbLine
 10
0.820984
 20
0.310221
 30
0.0
 11
0.822811
 21
0.306194
 31
0.0
  0
LINE
  5
863
100
AcDbEntity
  8
TRMODEL1
  6
CONTINUOUS
 62
     7
100
AcDbLine
 10
0.822811
 20
0.306194
 30
0.0
 11
0.824713
 21
0.302138
 31
0.0
  0
LINE
  5
864
100
AcDbEntity
  8
TRMODEL1
  6
CONTINUOUS
 62
     7
100
AcDbLine
 10
0.824713
 20
0.302138
 30
0.0
 11
0.826692
 21
0.29805
 31
0.0
  0
LINE
  5
865
100
AcDbEntity
  8
TRMODEL1
  6
CONTINUOUS
 62
     7
100
AcDbLine
 10
0.826692
 20
0.29805
 30
0.0
 11
0.828748
 21
0.293929
 31
0.0
  0
LINE
  5
866
100
AcDbEntity
  8
TRMODEL1
  6
CONTINUOUS
 62
     7
100
AcDbLine
 10
0.828748
 20
0.293929
 30
0.0
 11
0.830882
 21
0.289772
 31
0.0
  0
LINE
  5
867
100
AcDbEntity
  8
TRMODEL1
  6
CONTINUOUS
 62
     7
100
AcDbLine
 10
0.830882
 20
0.289772
 30
0.0
 11
0.833096
 21
0.28558
 31
0.0
  0
LINE
  5
868
100
AcDbEntity
  8
TRMODEL1
  6
CONTINUOUS
 62
     7
100
AcDbLine
 10
0.833096
 20
0.28558
 30
0.0
 11
0.835391
 21
0.281349
 31
0.0
  0
LINE
  5
869
100
AcDbEntity
  8
TRMODEL1
  6
CONTINUOUS
 62
     7
100
AcDbLine
 10
0.835391
 20
0.281349
 30
0.0
 11
0.837768
 21
0.277077
 31
0.0
  0
LINE
  5
86A
100
AcDbEntity
  8
TRMODEL1
  6
CONTINUOUS
 62
     7
100
AcDbLine
 10
0.837768
 20
0.277077
 30
0.0
 11
0.840228
 21
0.272764
 31
0.0
  0
LINE
  5
86B
100
AcDbEntity
  8
TRMODEL1
  6
CONTINUOUS
 62
     7
100
AcDbLine
 10
0.798031
 20
0.409146
 30
0.0
 11
0.798031
 21
0.472441
 31
0.0
  0
LINE
  5
86C
100
AcDbEntity
  8
TRMODEL1
  6
CONTINUOUS
 62
     7
100
AcDbLine
 10
0.798031
 20
0.0
 30
0.0
 11
0.798031
 21
0.409146
 31
0.0
  0
LINE
  5
86D
100
AcDbEntity
  8
TRMODEL1
  6
CONTINUOUS
 62
     7
100
AcDbLine
 10
0.798031
 20
-0.409146
 30
0.0
 11
0.798066
 21
-0.412896
 31
0.0
  0
LINE
  5
86E
100
AcDbEntity
  8
TRMODEL1
  6
CONTINUOUS
 62
     7
100
AcDbLine
 10
0.798066
 20
-0.412896
 30
0.0
 11
0.798169
 21
-0.41664
 31
0.0
  0
LINE
  5
86F
100
AcDbEntity
  8
TRMODEL1
  6
CONTINUOUS
 62
     7
100
AcDbLine
 10
0.798169
 20
-0.41664
 30
0.0
 11
0.79834
 21
-0.420378
 31
0.0
  0
LINE
  5
870
100
AcDbEntity
  8
TRMODEL1
  6
CONTINUOUS
 62
     7
100
AcDbLine
 10
0.79834
 20
-0.420378
 30
0.0
 11
0.798578
 21
-0.424113
 31
0.0
  0
LINE
  5
871
100
AcDbEntity
  8
TRMODEL1
  6
CONTINUOUS
 62
     7
100
AcDbLine
 10
0.798578
 20
-0.424113
 30
0.0
 11
0.798885
 21
-0.427845
 31
0.0
  0
LINE
  5
872
100
AcDbEntity
  8
TRMODEL1
  6
CONTINUOUS
 62
     7
100
AcDbLine
 10
0.798885
 20
-0.427845
 30
0.0
 11
0.799258
 21
-0.431575
 31
0.0
  0
LINE
  5
873
100
AcDbEntity
  8
TRMODEL1
  6
CONTINUOUS
 62
     7
100
AcDbLine
 10
0.799258
 20
-0.431575
 30
0.0
 11
0.799699
 21
-0.435307
 31
0.0
  0
LINE
  5
874
100
AcDbEntity
  8
TRMODEL1
  6
CONTINUOUS
 62
     7
100
AcDbLine
 10
0.799699
 20
-0.435307
 30
0.0
 11
0.800207
 21
-0.439039
 31
0.0
  0
LINE
  5
875
100
AcDbEntity
  8
TRMODEL1
  6
CONTINUOUS
 62
     7
100
AcDbLine
 10
0.800207
 20
-0.439039
 30
0.0
 11
0.800782
 21
-0.442775
 31
0.0
  0
LINE
  5
876
100
AcDbEntity
  8
TRMODEL1
  6
CONTINUOUS
 62
     7
100
AcDbLine
 10
0.800782
 20
-0.442775
 30
0.0
 11
0.801424
 21
-0.446515
 31
0.0
  0
LINE
  5
877
100
AcDbEntity
  8
TRMODEL1
  6
CONTINUOUS
 62
     7
100
AcDbLine
 10
0.801424
 20
-0.446515
 30
0.0
 11
0.802132
 21
-0.450261
 31
0.0
  0
LINE
  5
878
100
AcDbEntity
  8
TRMODEL1
  6
CONTINUOUS
 62
     7
100
AcDbLine
 10
0.802132
 20
-0.450261
 30
0.0
 11
0.802908
 21
-0.454014
 31
0.0
  0
LINE
  5
879
100
AcDbEntity
  8
TRMODEL1
  6
CONTINUOUS
 62
     7
100
AcDbLine
 10
0.802908
 20
-0.454014
 30
0.0
 11
0.803752
 21
-0.457776
 31
0.0
  0
LINE
  5
87A
100
AcDbEntity
  8
TRMODEL1
  6
CONTINUOUS
 62
     7
100
AcDbLine
 10
0.803752
 20
-0.457776
 30
0.0
 11
0.804662
 21
-0.461547
 31
0.0
  0
LINE
  5
87B
100
AcDbEntity
  8
TRMODEL1
  6
CONTINUOUS
 62
     7
100
AcDbLine
 10
0.804662
 20
-0.461547
 30
0.0
 11
0.80564
 21
-0.465329
 31
0.0
  0
LINE
  5
87C
100
AcDbEntity
  8
TRMODEL1
  6
CONTINUOUS
 62
     7
100
AcDbLine
 10
0.80564
 20
-0.465329
 30
0.0
 11
0.806687
 21
-0.469124
 31
0.0
  0
LINE
  5
87D
100
AcDbEntity
  8
TRMODEL1
  6
CONTINUOUS
 62
     7
100
AcDbLine
 10
0.806687
 20
-0.469124
 30
0.0
 11
0.807801
 21
-0.472933
 31
0.0
  0
LINE
  5
87E
100
AcDbEntity
  8
TRMODEL1
  6
CONTINUOUS
 62
     7
100
AcDbLine
 10
0.807801
 20
-0.472933
 30
0.0
 11
0.808984
 21
-0.476757
 31
0.0
  0
LINE
  5
87F
100
AcDbEntity
  8
TRMODEL1
  6
CONTINUOUS
 62
     7
100
AcDbLine
 10
0.808984
 20
-0.476757
 30
0.0
 11
0.810237
 21
-0.480598
 31
0.0
  0
LINE
  5
880
100
AcDbEntity
  8
TRMODEL1
  6
CONTINUOUS
 62
     7
100
AcDbLine
 10
0.810237
 20
-0.480598
 30
0.0
 11
0.811559
 21
-0.484457
 31
0.0
  0
LINE
  5
881
100
AcDbEntity
  8
TRMODEL1
  6
CONTINUOUS
 62
     7
100
AcDbLine
 10
0.811559
 20
-0.484457
 30
0.0
 11
0.812951
 21
-0.488335
 31
0.0
  0
LINE
  5
882
100
AcDbEntity
  8
TRMODEL1
  6
CONTINUOUS
 62
     7
100
AcDbLine
 10
0.812951
 20
-0.488335
 30
0.0
 11
0.814413
 21
-0.492235
 31
0.0
  0
LINE
  5
883
100
AcDbEntity
  8
TRMODEL1
  6
CONTINUOUS
 62
     7
100
AcDbLine
 10
0.814413
 20
-0.492235
 30
0.0
 11
0.815947
 21
-0.496157
 31
0.0
  0
LINE
  5
884
100
AcDbEntity
  8
TRMODEL1
  6
CONTINUOUS
 62
     7
100
AcDbLine
 10
0.815947
 20
-0.496157
 30
0.0
 11
0.817553
 21
-0.500102
 31
0.0
  0
LINE
  5
885
100
AcDbEntity
  8
TRMODEL1
  6
CONTINUOUS
 62
     7
100
AcDbLine
 10
0.817553
 20
-0.500102
 30
0.0
 11
0.819232
 21
-0.504073
 31
0.0
  0
LINE
  5
886
100
AcDbEntity
  8
TRMODEL1
  6
CONTINUOUS
 62
     7
100
AcDbLine
 10
0.819232
 20
-0.504073
 30
0.0
 11
0.820984
 21
-0.508071
 31
0.0
  0
LINE
  5
887
100
AcDbEntity
  8
TRMODEL1
  6
CONTINUOUS
 62
     7
100
AcDbLine
 10
0.820984
 20
-0.508071
 30
0.0
 11
0.822811
 21
-0.512097
 31
0.0
  0
LINE
  5
888
100
AcDbEntity
  8
TRMODEL1
  6
CONTINUOUS
 62
     7
100
AcDbLine
 10
0.822811
 20
-0.512097
 30
0.0
 11
0.824713
 21
-0.516154
 31
0.0
  0
LINE
  5
889
100
AcDbEntity
  8
TRMODEL1
  6
CONTINUOUS
 62
     7
100
AcDbLine
 10
0.824713
 20
-0.516154
 30
0.0
 11
0.826692
 21
-0.520242
 31
0.0
  0
LINE
  5
88A
100
AcDbEntity
  8
TRMODEL1
  6
CONTINUOUS
 62
     7
100
AcDbLine
 10
0.826692
 20
-0.520242
 30
0.0
 11
0.828748
 21
-0.524363
 31
0.0
  0
LINE
  5
88B
100
AcDbEntity
  8
TRMODEL1
  6
CONTINUOUS
 62
     7
100
AcDbLine
 10
0.828748
 20
-0.524363
 30
0.0
 11
0.830882
 21
-0.528519
 31
0.0
  0
LINE
  5
88C
100
AcDbEntity
  8
TRMODEL1
  6
CONTINUOUS
 62
     7
100
AcDbLine
 10
0.830882
 20
-0.528519
 30
0.0
 11
0.833096
 21
-0.532712
 31
0.0
  0
LINE
  5
88D
100
AcDbEntity
  8
TRMODEL1
  6
CONTINUOUS
 62
     7
100
AcDbLine
 10
0.833096
 20
-0.532712
 30
0.0
 11
0.835391
 21
-0.536943
 31
0.0
  0
LINE
  5
88E
100
AcDbEntity
  8
TRMODEL1
  6
CONTINUOUS
 62
     7
100
AcDbLine
 10
0.835391
 20
-0.536943
 30
0.0
 11
0.837768
 21
-0.541215
 31
0.0
  0
LINE
  5
88F
100
AcDbEntity
  8
TRMODEL1
  6
CONTINUOUS
 62
     7
100
AcDbLine
 10
0.837768
 20
-0.541215
 30
0.0
 11
0.840228
 21
-0.545528
 31
0.0
  0
LINE
  5
890
100
AcDbEntity
  8
TRMODEL1
  6
CONTINUOUS
 62
     7
100
AcDbLine
 10
0.798031
 20
-0.472441
 30
0.0
 11
0.798031
 21
-0.409146
 31
0.0
  0
LINE
  5
891
100
AcDbEntity
  8
TRMODEL1
  6
CONTINUOUS
 62
     7
100
AcDbLine
 10
0.840228
 20
-0.272764
 30
0.0
 11
0.837768
 21
-0.277077
 31
0.0
  0
LINE
  5
892
100
AcDbEntity
  8
TRMODEL1
  6
CONTINUOUS
 62
     7
100
AcDbLine
 10
0.837768
 20
-0.277077
 30
0.0
 11
0.835391
 21
-0.281349
 31
0.0
  0
LINE
  5
893
100
AcDbEntity
  8
TRMODEL1
  6
CONTINUOUS
 62
     7
100
AcDbLine
 10
0.835391
 20
-0.281349
 30
0.0
 11
0.833096
 21
-0.28558
 31
0.0
  0
LINE
  5
894
100
AcDbEntity
  8
TRMODEL1
  6
CONTINUOUS
 62
     7
100
AcDbLine
 10
0.833096
 20
-0.28558
 30
0.0
 11
0.830882
 21
-0.289772
 31
0.0
  0
LINE
  5
895
100
AcDbEntity
  8
TRMODEL1
  6
CONTINUOUS
 62
     7
100
AcDbLine
 10
0.830882
 20
-0.289772
 30
0.0
 11
0.828748
 21
-0.293929
 31
0.0
  0
LINE
  5
896
100
AcDbEntity
  8
TRMODEL1
  6
CONTINUOUS
 62
     7
100
AcDbLine
 10
0.828748
 20
-0.293929
 30
0.0
 11
0.826692
 21
-0.29805
 31
0.0
  0
LINE
  5
897
100
AcDbEntity
  8
TRMODEL1
  6
CONTINUOUS
 62
     7
100
AcDbLine
 10
0.826692
 20
-0.29805
 30
0.0
 11
0.824713
 21
-0.302138
 31
0.0
  0
LINE
  5
898
100
AcDbEntity
  8
TRMODEL1
  6
CONTINUOUS
 62
     7
100
AcDbLine
 10
0.824713
 20
-0.302138
 30
0.0
 11
0.822811
 21
-0.306194
 31
0.0
  0
LINE
  5
899
100
AcDbEntity
  8
TRMODEL1
  6
CONTINUOUS
 62
     7
100
AcDbLine
 10
0.822811
 20
-0.306194
 30
0.0
 11
0.820984
 21
-0.310221
 31
0.0
  0
LINE
  5
89A
100
AcDbEntity
  8
TRMODEL1
  6
CONTINUOUS
 62
     7
100
AcDbLine
 10
0.820984
 20
-0.310221
 30
0.0
 11
0.819232
 21
-0.314219
 31
0.0
  0
LINE
  5
89B
100
AcDbEntity
  8
TRMODEL1
  6
CONTINUOUS
 62
     7
100
AcDbLine
 10
0.819232
 20
-0.314219
 30
0.0
 11
0.817553
 21
-0.31819
 31
0.0
  0
LINE
  5
89C
100
AcDbEntity
  8
TRMODEL1
  6
CONTINUOUS
 62
     7
100
AcDbLine
 10
0.817553
 20
-0.31819
 30
0.0
 11
0.815947
 21
-0.322135
 31
0.0
  0
LINE
  5
89D
100
AcDbEntity
  8
TRMODEL1
  6
CONTINUOUS
 62
     7
100
AcDbLine
 10
0.815947
 20
-0.322135
 30
0.0
 11
0.814413
 21
-0.326057
 31
0.0
  0
LINE
  5
89E
100
AcDbEntity
  8
TRMODEL1
  6
CONTINUOUS
 62
     7
100
AcDbLine
 10
0.814413
 20
-0.326057
 30
0.0
 11
0.812951
 21
-0.329956
 31
0.0
  0
LINE
  5
89F
100
AcDbEntity
  8
TRMODEL1
  6
CONTINUOUS
 62
     7
100
AcDbLine
 10
0.812951
 20
-0.329956
 30
0.0
 11
0.811559
 21
-0.333835
 31
0.0
  0
LINE
  5
8A0
100
AcDbEntity
  8
TRMODEL1
  6
CONTINUOUS
 62
     7
100
AcDbLine
 10
0.811559
 20
-0.333835
 30
0.0
 11
0.810237
 21
-0.337694
 31
0.0
  0
LINE
  5
8A1
100
AcDbEntity
  8
TRMODEL1
  6
CONTINUOUS
 62
     7
100
AcDbLine
 10
0.810237
 20
-0.337694
 30
0.0
 11
0.808984
 21
-0.341534
 31
0.0
  0
LINE
  5
8A2
100
AcDbEntity
  8
TRMODEL1
  6
CONTINUOUS
 62
     7
100
AcDbLine
 10
0.808984
 20
-0.341534
 30
0.0
 11
0.807801
 21
-0.345358
 31
0.0
  0
LINE
  5
8A3
100
AcDbEntity
  8
TRMODEL1
  6
CONTINUOUS
 62
     7
100
AcDbLine
 10
0.807801
 20
-0.345358
 30
0.0
 11
0.806687
 21
-0.349167
 31
0.0
  0
LINE
  5
8A4
100
AcDbEntity
  8
TRMODEL1
  6
CONTINUOUS
 62
     7
100
AcDbLine
 10
0.806687
 20
-0.349167
 30
0.0
 11
0.80564
 21
-0.352962
 31
0.0
  0
LINE
  5
8A5
100
AcDbEntity
  8
TRMODEL1
  6
CONTINUOUS
 62
     7
100
AcDbLine
 10
0.80564
 20
-0.352962
 30
0.0
 11
0.804662
 21
-0.356745
 31
0.0
  0
LINE
  5
8A6
100
AcDbEntity
  8
TRMODEL1
  6
CONTINUOUS
 62
     7
100
AcDbLine
 10
0.804662
 20
-0.356745
 30
0.0
 11
0.803752
 21
-0.360516
 31
0.0
  0
LINE
  5
8A7
100
AcDbEntity
  8
TRMODEL1
  6
CONTINUOUS
 62
     7
100
AcDbLine
 10
0.803752
 20
-0.360516
 30
0.0
 11
0.802908
 21
-0.364277
 31
0.0
  0
LINE
  5
8A8
100
AcDbEntity
  8
TRMODEL1
  6
CONTINUOUS
 62
     7
100
AcDbLine
 10
0.802908
 20
-0.364277
 30
0.0
 11
0.802132
 21
-0.36803
 31
0.0
  0
LINE
  5
8A9
100
AcDbEntity
  8
TRMODEL1
  6
CONTINUOUS
 62
     7
100
AcDbLine
 10
0.802132
 20
-0.36803
 30
0.0
 11
0.801424
 21
-0.371776
 31
0.0
  0
LINE
  5
8AA
100
AcDbEntity
  8
TRMODEL1
  6
CONTINUOUS
 62
     7
100
AcDbLine
 10
0.801424
 20
-0.371776
 30
0.0
 11
0.800782
 21
-0.375516
 31
0.0
  0
LINE
  5
8AB
100
AcDbEntity
  8
TRMODEL1
  6
CONTINUOUS
 62
     7
100
AcDbLine
 10
0.800782
 20
-0.375516
 30
0.0
 11
0.800207
 21
-0.379252
 31
0.0
  0
LINE
  5
8AC
100
AcDbEntity
  8
TRMODEL1
  6
CONTINUOUS
 62
     7
100
AcDbLine
 10
0.800207
 20
-0.379252
 30
0.0
 11
0.799699
 21
-0.382985
 31
0.0
  0
LINE
  5
8AD
100
AcDbEntity
  8
TRMODEL1
  6
CONTINUOUS
 62
     7
100
AcDbLine
 10
0.799699
 20
-0.382985
 30
0.0
 11
0.799258
 21
-0.386716
 31
0.0
  0
LINE
  5
8AE
100
AcDbEntity
  8
TRMODEL1
  6
CONTINUOUS
 62
     7
100
AcDbLine
 10
0.799258
 20
-0.386716
 30
0.0
 11
0.798885
 21
-0.390447
 31
0.0
  0
LINE
  5
8AF
100
AcDbEntity
  8
TRMODEL1
  6
CONTINUOUS
 62
     7
100
AcDbLine
 10
0.798885
 20
-0.390447
 30
0.0
 11
0.798578
 21
-0.394179
 31
0.0
  0
LINE
  5
8B0
100
AcDbEntity
  8
TRMODEL1
  6
CONTINUOUS
 62
     7
100
AcDbLine
 10
0.798578
 20
-0.394179
 30
0.0
 11
0.79834
 21
-0.397914
 31
0.0
  0
LINE
  5
8B1
100
AcDbEntity
  8
TRMODEL1
  6
CONTINUOUS
 62
     7
100
AcDbLine
 10
0.79834
 20
-0.397914
 30
0.0
 11
0.798169
 21
-0.401652
 31
0.0
  0
LINE
  5
8B2
100
AcDbEntity
  8
TRMODEL1
  6
CONTINUOUS
 62
     7
100
AcDbLine
 10
0.798169
 20
-0.401652
 30
0.0
 11
0.798066
 21
-0.405396
 31
0.0
  0
LINE
  5
8B3
100
AcDbEntity
  8
TRMODEL1
  6
CONTINUOUS
 62
     7
100
AcDbLine
 10
0.798066
 20
-0.405396
 30
0.0
 11
0.798031
 21
-0.409146
 31
0.0
  0
LINE
  5
8B4
100
AcDbEntity
  8
TRMODEL1
  6
CONTINUOUS
 62
     7
100
AcDbLine
 10
0.798031
 20
-0.409146
 30
0.0
 11
0.798031
 21
0.0
 31
0.0
  0
LINE
  5
8B5
100
AcDbEntity
  8
TRMODEL1
  6
CONTINUOUS
 62
     7
100
AcDbLine
 10
0.913315
 20
-0.545528
 30
0.0
 11
0.840228
 21
-0.545528
 31
0.0
  0
LINE
  5
8B6
100
AcDbEntity
  8
TRMODEL1
  6
CONTINUOUS
 62
     7
100
AcDbLine
 10
0.640551
 20
-0.354331
 30
0.0
 11
0.798031
 21
-0.354331
 31
0.0
  0
LINE
  5
8B7
100
AcDbEntity
  8
TRMODEL1
  6
CONTINUOUS
 62
     7
100
AcDbLine
 10
0.798031
 20
0.354331
 30
0.0
 11
0.640551
 21
0.354331
 31
0.0
  0
LINE
  5
8B8
100
AcDbEntity
  8
TRMODEL1
  6
CONTINUOUS
 62
     7
100
AcDbLine
 10
0.074154
 20
-0.354331
 30
0.0
 11
0.483071
 21
-0.354331
 31
0.0
  0
LINE
  5
8B9
100
AcDbEntity
  8
TRMODEL1
  6
CONTINUOUS
 62
     7
100
AcDbLine
 10
0.483071
 20
0.354331
 30
0.0
 11
0.074154
 21
0.354331
 31
0.0
  0
LINE
  5
8BA
100
AcDbEntity
  8
TRMODEL1
  6
CONTINUOUS
 62
     7
100
AcDbLine
 10
0.955512
 20
-0.354331
 30
0.0
 11
1.99435
 21
-0.354331
 31
0.0
  0
LINE
  5
8BB
100
AcDbEntity
  8
TRMODEL1
  6
CONTINUOUS
 62
     7
100
AcDbLine
 10
1.99435
 20
0.354331
 30
0.0
 11
0.955512
 21
0.354331
 31
0.0
  0
LINE
  5
8BC
100
AcDbEntity
  8
TRMODEL1
  6
CONTINUOUS
 62
     7
100
AcDbLine
 10
2.760492
 20
-0.23622
 30
0.0
 11
2.784646
 21
-0.212067
 31
0.0
  0
LINE
  5
8BD
100
AcDbEntity
  8
TRMODEL1
  6
CONTINUOUS
 62
     7
100
AcDbLine
 10
2.784646
 20
0.212067
 30
0.0
 11
2.760492
 21
0.23622
 31
0.0
  0
LINE
  5
8BE
100
AcDbEntity
  8
TRMODEL1
  6
CONTINUOUS
 62
     7
100
AcDbLine
 10
2.465098
 20
0.23622
 30
0.0
 11
2.440945
 21
0.212067
 31
0.0
  0
LINE
  5
8BF
100
AcDbEntity
  8
TRMODEL1
  6
CONTINUOUS
 62
     7
100
AcDbLine
 10
2.440945
 20
-0.212067
 30
0.0
 11
2.465098
 21
-0.23622
 31
0.0
  0
LINE
  5
8C0
100
AcDbEntity
  8
TRMODEL1
  6
CONTINUOUS
 62
     7
100
AcDbLine
 10
2.760492
 20
0.23622
 30
0.0
 11
2.465098
 21
0.23622
 31
0.0
  0
LINE
  5
8C1
100
AcDbEntity
  8
TRMODEL1
  6
CONTINUOUS
 62
     7
100
AcDbLine
 10
2.465098
 20
-0.23622
 30
0.0
 11
2.760492
 21
-0.23622
 31
0.0
  0
LINE
  5
8C2
100
AcDbEntity
  8
TRMODEL1
  6
CONTINUOUS
 62
     7
100
AcDbLine
 10
2.784646
 20
-0.212067
 30
0.0
 11
2.834646
 21
-0.212067
 31
0.0
  0
LINE
  5
8C3
100
AcDbEntity
  8
TRMODEL1
  6
CONTINUOUS
 62
     7
100
AcDbLine
 10
2.834646
 20
0.212067
 30
0.0
 11
2.784646
 21
0.212067
 31
0.0
  0
LINE
  5
8C4
100
AcDbEntity
  8
TRMODEL1
  6
CONTINUOUS
 62
     7
100
AcDbLine
 10
2.373445
 20
0.184521
 30
0.0
 11
2.373445
 21
0.183655
 31
0.0
  0
LINE
  5
8C5
100
AcDbEntity
  8
TRMODEL1
  6
CONTINUOUS
 62
     7
100
AcDbLine
 10
2.433445
 20
0.183655
 30
0.0
 11
2.433445
 21
0.184521
 31
0.0
  0
LINE
  5
8C6
100
AcDbEntity
  8
TRMODEL1
  6
CONTINUOUS
 62
     7
100
AcDbLine
 10
2.018504
 20
-0.330177
 30
0.0
 11
2.365945
 21
-0.330177
 31
0.0
  0
LINE
  5
8C7
100
AcDbEntity
  8
TRMODEL1
  6
CONTINUOUS
 62
     7
100
AcDbLine
 10
2.365945
 20
0.330177
 30
0.0
 11
2.018504
 21
0.330177
 31
0.0
  0
LINE
  5
8C8
100
AcDbEntity
  8
TRMODEL1
  6
CONTINUOUS
 62
     7
100
AcDbLine
 10
0.0
 20
-0.3125
 30
0.0
 11
0.05
 21
-0.3125
 31
0.0
  0
LINE
  5
8C9
100
AcDbEntity
  8
TRMODEL1
  6
CONTINUOUS
 62
     7
100
AcDbLine
 10
0.05
 20
0.3125
 30
0.0
 11
0.0
 21
0.3125
 31
0.0
  0
LINE
  5
8CA
100
AcDbEntity
  8
TRMODEL1
  6
CONTINUOUS
 62
     7
100
AcDbLine
 10
0.074154
 20
0.354331
 30
0.0
 11
0.05
 21
0.330177
 31
0.0
  0
LINE
  5
8CB
100
AcDbEntity
  8
TRMODEL1
  6
CONTINUOUS
 62
     7
100
AcDbLine
 10
0.05
 20
-0.330177
 30
0.0
 11
0.074154
 21
-0.354331
 31
0.0
  0
LINE
  5
8CC
100
AcDbEntity
  8
TRMODEL1
  6
CONTINUOUS
 62
     7
100
AcDbLine
 10
1.99435
 20
-0.354331
 30
0.0
 11
2.018504
 21
-0.330177
 31
0.0
  0
LINE
  5
8CD
100
AcDbEntity
  8
TRMODEL1
  6
CONTINUOUS
 62
     7
100
AcDbLine
 10
2.018504
 20
0.330177
 30
0.0
 11
1.99435
 21
0.354331
 31
0.0
  0
LINE
  5
8CE
100
AcDbEntity
  8
TRMODEL1
  6
CONTINUOUS
 62
     7
100
AcDbLine
 10
2.440945
 20
0.212067
 30
0.0
 11
2.365945
 21
0.212067
 31
0.0
  0
LINE
  5
8CF
100
AcDbEntity
  8
TRMODEL1
  6
CONTINUOUS
 62
     7
100
AcDbLine
 10
2.365945
 20
-0.212067
 30
0.0
 11
2.440945
 21
-0.212067
 31
0.0
  0
LINE
  5
8D0
100
AcDbEntity
  8
TRMODEL1
  6
CONTINUOUS
 62
     7
100
AcDbLine
 10
0.483071
 20
-0.472441
 30
0.0
 11
0.525268
 21
-0.545528
 31
0.0
  0
LINE
  5
8D1
100
AcDbEntity
  8
TRMODEL1
  6
CONTINUOUS
 62
     7
100
AcDbLine
 10
0.525268
 20
0.545528
 30
0.0
 11
0.483071
 21
0.472441
 31
0.0
  0
LINE
  5
8D2
100
AcDbEntity
  8
TRMODEL1
  6
CONTINUOUS
 62
     7
100
AcDbLine
 10
0.598354
 20
-0.545528
 30
0.0
 11
0.640551
 21
-0.472441
 31
0.0
  0
LINE
  5
8D3
100
AcDbEntity
  8
TRMODEL1
  6
CONTINUOUS
 62
     7
100
AcDbLine
 10
0.640551
 20
0.472441
 30
0.0
 11
0.598354
 21
0.545528
 31
0.0
  0
LINE
  5
8D4
100
AcDbEntity
  8
TRMODEL1
  6
CONTINUOUS
 62
     7
100
AcDbLine
 10
0.955512
 20
0.472441
 30
0.0
 11
0.913315
 21
0.545528
 31
0.0
  0
LINE
  5
8D5
100
AcDbEntity
  8
TRMODEL1
  6
CONTINUOUS
 62
     7
100
AcDbLine
 10
0.913315
 20
-0.545528
 30
0.0
 11
0.955512
 21
-0.472441
 31
0.0
  0
LINE
  5
8D6
100
AcDbEntity
  8
TRMODEL1
  6
CONTINUOUS
 62
     7
100
AcDbLine
 10
0.840228
 20
0.545528
 30
0.0
 11
0.798031
 21
0.472441
 31
0.0
  0
LINE
  5
8D7
100
AcDbEntity
  8
TRMODEL1
  6
CONTINUOUS
 62
     7
100
AcDbLine
 10
0.798031
 20
-0.472441
 30
0.0
 11
0.840228
 21
-0.545528
 31
0.0
  0
LINE
  5
8D8
100
AcDbEntity
  8
TRDETAIL3
  6
CENTER2
 62
     4
100
AcDbLine
 10
-0.048425
 20
0.0
 30
0.0
 11
2.874016
 21
0.0
 31
0.0
  0
LINE
  5
8D9
100
AcDbEntity
  8
TRMODEL3
  6
CONTINUOUS
 62
     1
100
AcDbLine
 10
0.05
 20
0.330177
 30
0.0
 11
0.483071
 21
0.330177
 31
0.0
  0
LINE
  5
8DA
100
AcDbEntity
  8
TRMODEL3
  6
CONTINUOUS
 62
     1
100
AcDbLine
 10
0.640551
 20
0.330177
 30
0.0
 11
0.798031
 21
0.330177
 31
0.0
  0
LINE
  5
8DB
100
AcDbEntity
  8
TRMODEL3
  6
CONTINUOUS
 62
     1
100
AcDbLine
 10
0.955512
 20
0.330177
 30
0.0
 11
2.018504
 21
0.330177
 31
0.0
  0
LINE
  5
8DC
100
AcDbEntity
  8
TRMODEL3
  6
CONTINUOUS
 62
     1
100
AcDbLine
 10
2.018504
 20
-0.330177
 30
0.0
 11
0.955512
 21
-0.330177
 31
0.0
  0
LINE
  5
8DD
100
AcDbEntity
  8
TRMODEL3
  6
CONTINUOUS
 62
     1
100
AcDbLine
 10
0.798031
 20
-0.330177
 30
0.0
 11
0.640551
 21
-0.330177
 31
0.0
  0
LINE
  5
8DE
100
AcDbEntity
  8
TRMODEL3
  6
CONTINUOUS
 62
     1
100
AcDbLine
 10
0.483071
 20
-0.330177
 30
0.0
 11
0.05
 21
-0.330177
 31
0.0
  0
LINE
  5
8DF
100
AcDbEntity
  8
TRMODEL3
  6
CONTINUOUS
 62
     1
100
AcDbLine
 10
2.784646
 20
-0.212067
 30
0.0
 11
2.440945
 21
-0.212067
 31
0.0
  0
LINE
  5
8E0
100
AcDbEntity
  8
TRMODEL3
  6
CONTINUOUS
 62
     1
100
AcDbLine
 10
2.440945
 20
0.212067
 30
0.0
 11
2.784646
 21
0.212067
 31
0.0
  0
ENDSEC
  0
SECTION
  2
OBJECTS
  0
DICTIONARY
  5
19
100
AcDbDictionary
  3
ACAD_GROUP
350
1A
  3
ACAD_MLINESTYLE
350
1B
  0
DICTIONARY
  5
1A
102
{ACAD_REACTORS
330
19
102
}
100
AcDbDictionary
  0
DICTIONARY
  5
1B
102
{ACAD_REACTORS
330
19
102
}
100
AcDbDictionary
  3
STANDARD
350
1C
  0
MLINESTYLE
  5
1C
102
{ACAD_REACTORS
330
1B
102
}
100
AcDbMlineStyle
  2
STANDARD
 70
     0
  3

 62
     0
 51
90.0
 52
90.0
 71
     2
 49
0.5
 62
   256
  6
BYLAYER
 49
-0.5
 62
   256
  6
BYLAYER
  0
ENDSEC
  0
EOF
