999
DXF file: C:\Users\sesa63760\Dev\_Creo\CAD\MCADID0002083_3D-CAD\drw0001_4.dxf
999
Pro/ENGINEER 2019471 by Parametric Technology Corporation
  0
SECTION
  2
HEADER
  9
$ACADVER
  1
AC1024
  9
$DWGCODEPAGE
  3
ANSI_1252
  9
$EXTMAX
 10
77.8409054573
 20
110.0892805753
 30
0.0
  9
$EXTMIN
 10
0.0
 20
0.0
 30
0.0
  9
$LIMMIN
 10
0.0
 20
0.0
  9
$LIMMAX
 10
77.8409054573
 20
110.0892805753
  9
$VIEWCTR
 10
38.9204527286
 20
55.0446402877
  9
$VIEWSIZE
 40
110.0892805753
  9
$CLAYER
  8
0
  9
$LTSCALE
 40
7.1761901412
  9
$CELTYPE
  6
BYLAYER
  9
$DIMSCALE
 40
1.0
  9
$DIMASZ
 40
0.9266774459
  9
$DIMEXO
 40
1.0
  9
$DIMDLI
 40
4.9580950067
  9
$DIMEXE
 40
1.0
  9
$DIMCEN
 40
1.1742856595
  9
$DIMLFAC
 40
1.0
  9
$DIMBLK
  1
_FILLED
  9
$DIMALT
 70
0
  9
$DIMALTF
 40
0.0393700787
  9
$DIMTXT
 40
1.2973484243
  9
$DIMTOL
 70
1
  9
$DIMLIM
 70
0
  9
$DIMTFAC
 40
1.0
  9
$DIMTP
 40
0.01
  9
$DIMTM
 40
0.01
  9
$DIMGAP
 40
0.625
  9
$DIMDSEP
 70
46
  9
$AUNITS
 70
0
  9
$PDMODE
 70
3
  9
$PDSIZE
 40
0.3125
  9
$HANDSEED
  5
3D2
  9
$TILEMODE
 70
1
  9
$MEASUREMENT
 70
1
  9
$INSUNITS
 70
4
  0
ENDSEC
  0
SECTION
  2
CLASSES
  0
CLASS
  1
ACDBDICTIONARYWDFLT
  2
AcDbDictionaryWithDefault
  3
AutoCAD 2000
 90
0
 91
1
280
0
281
0
  0
CLASS
  1
ACDBPLACEHOLDER
  2
AcDbPlaceHolder
  3
AutoCAD 2000
 90
0
 91
1
280
0
281
0
  0
CLASS
  1
LAYOUT
  2
AcDbLayout
  3
AutoCAD 2000
 90
0
 91
0
280
0
281
0
  0
ENDSEC
  0
SECTION
  2
TABLES
  0
TABLE
  2
VPORT
  5
8
100
AcDbSymbolTable
 70
2
  0
VPORT
  5
1F4
100
AcDbSymbolTableRecord
100
AcDbViewportTableRecord
  2
*ACTIVE
 70
0
 10
0.0
 20
0.0
 11
1.0
 21
1.0
 12
38.9204527286
 22
55.0446402877
 13
0.0
 23
0.0
 14
1.0
 24
1.0
 15
0.0
 25
0.0
 16
0.0
 26
0.0
 36
1.0
 17
0.0
 27
0.0
 37
0.0
 40
110.0892805753
 41
0.7070707071
 42
50.0
 43
0.0
 44
0.0
 50
0.0
 51
0.0
 71
0
 72
100
 73
1
 74
1
 75
0
 76
0
 77
0
 78
0
  0
ENDTAB
  0
TABLE
  2
LTYPE
  5
5
100
AcDbSymbolTable
 70
6
  0
LTYPE
  5
14
100
AcDbSymbolTableRecord
100
AcDbLinetypeTableRecord
  2
BYBLOCK
 70
0
  3

 72
65
 73
0
 40
0.0
  0
LTYPE
  5
15
100
AcDbSymbolTableRecord
100
AcDbLinetypeTableRecord
  2
BYLAYER
 70
0
  3

 72
65
 73
0
 40
0.0
  0
LTYPE
  5
16
100
AcDbSymbolTableRecord
100
AcDbLinetypeTableRecord
  2
CONTINUOUS
 70
64
  3
Solid line
 72
65
 73
0
 40
0.0
  0
LTYPE
  5
1F5
100
AcDbSymbolTableRecord
100
AcDbLinetypeTableRecord
  2
CENTER
 70
64
  3
____ _ ____ _ ____ _ ____ _ ____ _ ____ _ ____
 72
65
 73
4
 40
0.6
 49
0.375
 74
0
 49
-0.075
 74
0
 49
0.075
 74
0
 49
-0.075
 74
0
  0
LTYPE
  5
1F6
100
AcDbSymbolTableRecord
100
AcDbLinetypeTableRecord
  2
HIDDEN
 70
64
  3
- - - - - - - - - - - - - - - - - - - -
 72
65
 73
2
 40
0.2
 49
0.1
 74
0
 49
-0.1
 74
0
  0
LTYPE
  5
1F7
100
AcDbSymbolTableRecord
100
AcDbLinetypeTableRecord
  2
PHANTOM
 70
64
  3
_____ _ _ _____ _ _ _____ _ _ _____
 72
65
 73
6
 40
0.8
 49
0.45
 74
0
 49
-0.05
 74
0
 49
0.1
 74
0
 49
-0.05
 74
0
 49
0.1
 74
0
 49
-0.05
 74
0
  0
LTYPE
  5
1F8
100
AcDbSymbolTableRecord
100
AcDbLinetypeTableRecord
  2
DOT
 70
64
  3
. . . . . . . . . . . . . . . . . . . .
 72
65
 73
2
 40
0.2
 49
0.1
 74
0
 49
-0.1
 74
0
  0
LTYPE
  5
1F9
100
AcDbSymbolTableRecord
100
AcDbLinetypeTableRecord
  2
DASHED
 70
64
  3
- - - - - - - - - - - - - - - - - - - -
 72
65
 73
2
 40
0.2
 49
0.1
 74
0
 49
-0.1
 74
0
  0
ENDTAB
  0
TABLE
  2
LAYER
  5
2
100
AcDbSymbolTable
 70
36
  0
LAYER
  5
10
100
AcDbSymbolTableRecord
100
AcDbLayerTableRecord
  2
0
 70
0
 62
7
  6
CONTINUOUS
370
-3
390
F
  0
LAYER
  5
1FA
100
AcDbSymbolTableRecord
100
AcDbLayerTableRecord
  2
DEFAULT_1
 70
0
 62
7
  6
CENTER
370
-3
390
F
  0
LAYER
  5
1FB
100
AcDbSymbolTableRecord
100
AcDbLayerTableRecord
  2
DEFAULT_2
 70
0
 62
8
  6
HIDDEN
370
-3
390
F
  0
LAYER
  5
1FC
100
AcDbSymbolTableRecord
100
AcDbLayerTableRecord
  2
DEFAULT_3
 70
0
 62
7
  6
PHANTOM
370
-3
390
F
  0
LAYER
  5
1FD
100
AcDbSymbolTableRecord
100
AcDbLayerTableRecord
  2
00_COMPONENTS
 70
0
 62
7
  6
CONTINUOUS
370
-3
390
F
  0
LAYER
  5
1FE
100
AcDbSymbolTableRecord
100
AcDbLayerTableRecord
  2
01_1_DEFAULT_DATUMS
 70
0
 62
7
  6
CONTINUOUS
370
-3
390
F
  0
LAYER
  5
1FF
100
AcDbSymbolTableRecord
100
AcDbLayerTableRecord
  2
01_PLANES
 70
0
 62
7
  6
CONTINUOUS
370
-3
390
F
  0
LAYER
  5
200
100
AcDbSymbolTableRecord
100
AcDbLayerTableRecord
  2
02_COORD_SYS
 70
0
 62
7
  6
CONTINUOUS
370
-3
390
F
  0
LAYER
  5
201
100
AcDbSymbolTableRecord
100
AcDbLayerTableRecord
  2
03_AXES
 70
0
 62
7
  6
CONTINUOUS
370
-3
390
F
  0
LAYER
  5
202
100
AcDbSymbolTableRecord
100
AcDbLayerTableRecord
  2
04_POINTS
 70
0
 62
7
  6
CONTINUOUS
370
-3
390
F
  0
LAYER
  5
203
100
AcDbSymbolTableRecord
100
AcDbLayerTableRecord
  2
05_CURVES
 70
0
 62
7
  6
CONTINUOUS
370
-3
390
F
  0
LAYER
  5
204
100
AcDbSymbolTableRecord
100
AcDbLayerTableRecord
  2
06_SURFS
 70
0
 62
7
  6
CONTINUOUS
370
-3
390
F
  0
LAYER
  5
205
100
AcDbSymbolTableRecord
100
AcDbLayerTableRecord
  2
07_COSMETICS
 70
0
 62
7
  6
CONTINUOUS
370
-3
390
F
  0
LAYER
  5
206
100
AcDbSymbolTableRecord
100
AcDbLayerTableRecord
  2
10_NOTES
 70
0
 62
7
  6
CONTINUOUS
370
-3
390
F
  0
LAYER
  5
207
100
AcDbSymbolTableRecord
100
AcDbLayerTableRecord
  2
11_NOTES_PUB
 70
0
 62
7
  6
CONTINUOUS
370
-3
390
F
  0
LAYER
  5
208
100
AcDbSymbolTableRecord
100
AcDbLayerTableRecord
  2
13_REF_GTOL
 70
0
 62
7
  6
CONTINUOUS
370
-3
390
F
  0
LAYER
  5
209
100
AcDbSymbolTableRecord
100
AcDbLayerTableRecord
  2
16_MISC
 70
0
 62
7
  6
CONTINUOUS
370
-3
390
F
  0
LAYER
  5
20A
100
AcDbSymbolTableRecord
100
AcDbLayerTableRecord
  2
17_NO_PRINT
 70
0
 62
7
  6
CONTINUOUS
370
-3
390
F
  0
LAYER
  5
20B
100
AcDbSymbolTableRecord
100
AcDbLayerTableRecord
  2
18_DATUM_CAMS_JOINTS
 70
0
 62
7
  6
CONTINUOUS
370
-3
390
F
  0
LAYER
  5
20C
100
AcDbSymbolTableRecord
100
AcDbLayerTableRecord
  2
19_DATUM_FUNCTIONAL
 70
0
 62
7
  6
CONTINUOUS
370
-3
390
F
  0
LAYER
  5
20D
100
AcDbSymbolTableRecord
100
AcDbLayerTableRecord
  2
20_DATUM_KINEMATIC_SCHEME
 70
0
 62
7
  6
CONTINUOUS
370
-3
390
F
  0
ENDTAB
  0
TABLE
  2
STYLE
  5
3
100
AcDbSymbolTable
 70
1
  0
STYLE
  5
11
100
AcDbSymbolTableRecord
100
AcDbTextStyleTableRecord
  2
STANDARD
 70
0
 40
0.0
 41
0.8
 50
0.0
 71
0
 42
0.2
  3
txt
  4

  0
STYLE
  5
20E
100
AcDbSymbolTableRecord
100
AcDbTextStyleTableRecord
  2
TEXTSTYLE_1
 70
0
 40
0.0
 41
0.8
 50
0.0
 71
0
 42
0.2
  3
gdt
  4

  0
ENDTAB
  0
TABLE
  2
VIEW
  5
6
100
AcDbSymbolTable
 70
0
  0
ENDTAB
  0
TABLE
  2
UCS
  5
7
100
AcDbSymbolTable
 70
0
  0
ENDTAB
  0
TABLE
  2
APPID
  5
9
100
AcDbSymbolTable
 70
1
  0
APPID
  5
20F
100
AcDbSymbolTableRecord
100
AcDbRegAppTableRecord
  2
ACAD
 70
0
  0
ENDTAB
  0
TABLE
  2
BLOCK_RECORD
  5
1
100
AcDbSymbolTable
 70
0
  0
BLOCK_RECORD
  5
210
100
AcDbSymbolTableRecord
100
AcDbBlockTableRecord
  2
*Model_Space
  0
BLOCK_RECORD
  5
211
100
AcDbSymbolTableRecord
100
AcDbBlockTableRecord
  2
*Paper_Space
  0
BLOCK_RECORD
  5
212
100
AcDbSymbolTableRecord
100
AcDbBlockTableRecord
  2
_FILLED
  0
ENDTAB
  0
TABLE
  2
DIMSTYLE
  5
A
100
AcDbSymbolTable
 70
1
100
AcDbDimStyleTable
 71
0
  0
DIMSTYLE
105
213
100
AcDbSymbolTableRecord
100
AcDbDimStyleTableRecord
  2
STANDARD
 70
0
  3

  4

 40
1.0
 41
0.9266774459
 42
1.0
 43
0.38
 44
1.0
 45
0.0
 46
0.0
 47
0.01
 48
0.01
140
1.2973484243
141
0.09
142
0.0
143
25.4
144
1.0
145
0.0
146
1.0
147
0.625
 71
1
 72
0
 73
0
 74
0
 75
0
 76
0
 77
1
 78
8
 79
2
170
0
171
1
172
0
173
0
174
0
175
0
176
0
177
0
178
0
270
2
179
2
271
2
272
2
273
2
274
2
275
0
280
0
281
0
282
0
283
1
284
8
285
0
286
0
287
3
288
0
340
11
278
46
341
212
342
212
343
212
344
212
  0
ENDTAB
  0
ENDSEC
  0
SECTION
  2
BLOCKS
  0
BLOCK
  5
20
100
AcDbEntity
  8
0
100
AcDbBlockBegin
  2
*Model_Space
 70
0
 10
0.0
 20
0.0
 30
0.0
  3
*Model_Space
  1

  0
ENDBLK
  5
21
100
AcDbEntity
  8
0
100
AcDbBlockEnd
  0
BLOCK
  5
1C
100
AcDbEntity
  8
0
100
AcDbBlockBegin
  2
*Paper_Space
 70
0
 10
0.0
 20
0.0
 30
0.0
  3
*Paper_Space
  1

  0
ENDBLK
  5
1D
100
AcDbEntity
  8
0
100
AcDbBlockEnd
  0
BLOCK
  5
214
100
AcDbEntity
  8
0
100
AcDbBlockBegin
  2
_FILLED
 70
64
 10
0.0
 20
0.0
  3
_FILLED
  1

  0
SOLID
  5
215
100
AcDbEntity
  8
0
  6
BYBLOCK
 62
0
100
AcDbTrace
 10
0.0
 20
0.0
 11
-1.0
 21
0.25
 12
-1.0
 22
-0.25
 13
-1.0
 23
-0.25
  0
ENDBLK
  5
216
100
AcDbEntity
  8
0
  6
BYBLOCK
 62
0
100
AcDbBlockEnd
  0
ENDSEC
  0
SECTION
  2
ENTITIES
  0
LINE
  5
217
100
AcDbEntity
  8
0
100
AcDbLine
 62
7
  6
CONTINUOUS
 10
44.930908856
 20
7.882769784
 11
34.9308568397
 21
7.882769784
  0
LWPOLYLINE
  5
218
100
AcDbEntity
  8
0
100
AcDbPolyline
 62
7
  6
CONTINUOUS
 90
4
 70
0
 10
25.6016635912
 20
10.7329795714
 10
34.9669782024
 20
8.2603639165
 10
45.0011584675
 20
8.2741652615
 10
54.2939346168
 20
10.7470864827
  0
LINE
  5
219
100
AcDbEntity
  8
0
100
AcDbLine
 62
7
  6
CONTINUOUS
 10
25.6016635912
 20
10.7329795714
 11
25.6013426618
 21
10.7331133432
  0
LWPOLYLINE
  5
21A
100
AcDbEntity
  8
0
100
AcDbPolyline
 62
7
  6
CONTINUOUS
 90
3
 70
0
 10
45.401979505
 20
12.1019442806
 10
50.3144989015
 20
13.3058224818
 10
51.286135715
 20
13.8230886783
  0
LINE
  5
21B
100
AcDbEntity
  8
0
100
AcDbLine
 62
7
  6
CONTINUOUS
 10
54.2939346168
 20
10.7470864827
 11
53.9450123532
 21
10.6876180423
  0
LINE
  5
21C
100
AcDbEntity
  8
0
100
AcDbLine
 62
7
  6
CONTINUOUS
 10
25.9161325911
 20
10.6878385324
 11
25.6016635912
 21
10.7329795714
  0
LWPOLYLINE
  5
21D
100
AcDbEntity
  8
0
100
AcDbPolyline
 62
7
  6
CONTINUOUS
 90
4
 70
0
 10
34.5232497911
 20
11.6903940215
 10
38.8317454754
 20
10.8700708426
 10
41.2325396412
 20
10.8842157437
 10
45.4908459436
 20
11.7393178097
  0
LINE
  5
21E
100
AcDbEntity
  8
0
100
AcDbLine
 62
7
  6
CONTINUOUS
 10
29.562176968
 20
13.2994480969
 11
32.7730798535
 21
12.5147037262
  0
LWPOLYLINE
  5
21F
100
AcDbEntity
  8
0
100
AcDbPolyline
 62
7
  6
CONTINUOUS
 90
4
 70
0
 10
32.7143299444
 20
12.2743193924
 10
33.1028664285
 20
12.145548703
 10
33.9559637654
 20
11.8703264936
 10
34.5232497911
 20
11.6903940215
  0
LWPOLYLINE
  5
220
100
AcDbEntity
  8
0
100
AcDbPolyline
 62
7
  6
CONTINUOUS
 90
4
 70
0
 10
22.3747430944
 20
12.759671632
 10
23.1122275799
 20
12.1485376047
 10
24.4369363993
 20
11.2930329277
 10
25.6013167297
 20
10.7330541267
  0
LINE
  5
221
100
AcDbEntity
  8
0
100
AcDbLine
 62
7
  6
CONTINUOUS
 10
22.3638816075
 20
12.7702895317
 11
22.3750561316
 21
12.7600657791
  0
LWPOLYLINE
  5
222
100
AcDbEntity
  8
0
100
AcDbPolyline
 62
7
  6
CONTINUOUS
 90
4
 70
0
 10
28.5383575754
 20
14.16253158
 10
30.0633184502
 20
13.3694909821
 10
30.9899605834
 20
12.9401573252
 10
32.714342137
 20
12.2743697032
  0
LINE
  5
223
100
AcDbEntity
  8
0
100
AcDbLine
 62
7
  6
CONTINUOUS
 10
28.4061926701
 20
13.9138770151
 11
29.562176968
 21
13.2994480969
  0
LINE
  5
224
100
AcDbEntity
  8
0
100
AcDbLine
 62
7
  6
CONTINUOUS
 10
28.5421468724
 20
14.160456909
 11
28.5374556028
 21
14.1629800551
  0
LINE
  5
225
100
AcDbEntity
  8
0
100
AcDbLine
 62
7
  6
CONTINUOUS
 10
18.1659740065
 20
18.4268686008
 11
17.2705805833
 21
20.6455254947
  0
LINE
  5
226
100
AcDbEntity
  8
0
100
AcDbLine
 62
7
  6
CONTINUOUS
 10
17.2705805833
 20
20.6455254947
 11
17.2063752936
 21
20.8434854478
  0
LINE
  5
227
100
AcDbEntity
  8
0
100
AcDbLine
 62
7
  6
CONTINUOUS
 10
17.2063752936
 20
20.8434854478
 11
16.5623977452
 21
23.5572886523
  0
LWPOLYLINE
  5
228
100
AcDbEntity
  8
0
100
AcDbPolyline
 62
7
  6
CONTINUOUS
 90
4
 70
0
 10
16.5623437087
 20
23.5578798707
 10
16.6783114643
 20
22.9054018499
 10
16.9311838898
 20
21.7961079626
 10
17.2062566872
 20
20.8438193493
  0
LWPOLYLINE
  5
229
100
AcDbEntity
  8
0
100
AcDbPolyline
 62
7
  6
CONTINUOUS
 90
3
 70
0
 10
13.9918129286
 20
41.1592258485
 10
14.1864903785
 20
38.7710375189
 10
14.4575143907
 20
36.7493720327
  0
LINE
  5
22A
100
AcDbEntity
  8
0
100
AcDbLine
 62
7
  6
CONTINUOUS
 10
13.932215661
 20
43.0730230398
 11
13.9918129286
 21
41.1592258485
  0
LINE
  5
22B
100
AcDbEntity
  8
0
100
AcDbLine
 62
7
  6
CONTINUOUS
 10
13.9304849571
 20
43.4845009189
 11
13.9304903947
 21
43.4843003989
  0
LINE
  5
22C
100
AcDbEntity
  8
0
100
AcDbLine
 62
7
  6
CONTINUOUS
 10
13.9308914273
 20
46.1427385106
 11
13.9322050894
 21
43.0742078344
  0
LINE
  5
22D
100
AcDbEntity
  8
0
100
AcDbLine
 62
7
  6
CONTINUOUS
 10
20.2905837796
 20
81.5327697839
 11
20.2719467125
 21
81.4479652253
  0
LINE
  5
22E
100
AcDbEntity
  8
0
100
AcDbLine
 62
7
  6
CONTINUOUS
 10
54.0086614405
 20
22.1951702294
 11
53.3944062402
 21
22.4369324073
  0
LINE
  5
22F
100
AcDbEntity
  8
0
100
AcDbLine
 62
7
  6
CONTINUOUS
 10
25.8529704814
 20
22.1950715865
 11
25.8529555216
 21
22.1950990483
  0
LINE
  5
230
100
AcDbEntity
  8
0
100
AcDbLine
 62
7
  6
CONTINUOUS
 10
14.4660864429
 20
36.7196094547
 11
15.7697402334
 21
28.5342271662
  0
LINE
  5
231
100
AcDbEntity
  8
0
100
AcDbLine
 62
7
  6
CONTINUOUS
 10
14.9310919088
 20
33.7734221045
 11
15.770149802
 21
28.5316555667
  0
LINE
  5
232
100
AcDbEntity
  8
0
100
AcDbLine
 62
7
  6
CONTINUOUS
 10
16.5623978838
 20
23.5572877823
 11
15.770149802
 21
28.5316555667
  0
LINE
  5
233
100
AcDbEntity
  8
0
100
AcDbLine
 62
7
  6
CONTINUOUS
 10
14.4575434279
 20
36.7491888528
 11
14.9310919088
 21
33.7734221045
  0
LINE
  5
234
100
AcDbEntity
  8
0
100
AcDbLine
 62
7
  6
CONTINUOUS
 10
16.5623964058
 20
23.5572970724
 11
16.5623082923
 21
23.5578824815
  0
LINE
  5
235
100
AcDbEntity
  8
0
100
AcDbLine
 62
7
  6
CONTINUOUS
 10
17.0764484828
 20
43.6369705889
 11
17.076255664
 21
44.8827697283
  0
LINE
  5
236
100
AcDbEntity
  8
0
100
AcDbLine
 62
7
  6
CONTINUOUS
 10
17.1809040103
 20
44.882769784
 11
17.1809040103
 21
46.142769784
  0
LINE
  5
237
100
AcDbEntity
  8
0
100
AcDbLine
 62
7
  6
CONTINUOUS
 10
26.4821228963
 20
72.084001253
 11
26.4308914273
 21
72.032769784
  0
LWPOLYLINE
  5
238
100
AcDbEntity
  8
0
100
AcDbPolyline
 62
7
  6
CONTINUOUS
 90
3
 70
0
 10
53.3944062402
 20
22.4369324073
 10
51.7907180579
 20
23.2419845941
 10
49.6177879293
 20
24.3993862715
  0
LINE
  5
239
100
AcDbEntity
  8
0
100
AcDbLine
 62
7
  6
CONTINUOUS
 10
20.954753648
 20
68.9242043463
 11
20.8452300365
 21
81.447965286
  0
LINE
  5
23A
100
AcDbEntity
  8
0
100
AcDbLine
 62
7
  6
CONTINUOUS
 10
21.944808163
 20
80.4391693652
 11
22.0983246606
 21
62.8479211379
  0
LINE
  5
23B
100
AcDbEntity
  8
0
100
AcDbLine
 62
7
  6
CONTINUOUS
 10
20.4329392341
 20
43.0558615866
 11
20.4308914276
 21
43.482935128
  0
LINE
  5
23C
100
AcDbEntity
  8
0
100
AcDbLine
 62
7
  6
CONTINUOUS
 10
20.4308914273
 20
43.4830134148
 11
20.4308914273
 21
46.142769784
  0
LINE
  5
23D
100
AcDbEntity
  8
0
100
AcDbLine
 62
7
  6
CONTINUOUS
 10
20.8449996307
 20
81.532769784
 11
20.8449996307
 21
81.4479652484
  0
LINE
  5
23E
100
AcDbEntity
  8
0
100
AcDbLine
 62
7
  6
CONTINUOUS
 10
22.6910012717
 20
60.8352781759
 11
22.7176073712
 21
61.5971771822
  0
LINE
  5
23F
100
AcDbEntity
  8
0
100
AcDbLine
 62
7
  6
CONTINUOUS
 10
23.0174246004
 20
66.632769784
 11
23.0174246004
 21
66.8867067918
  0
LINE
  5
240
100
AcDbEntity
  8
0
100
AcDbLine
 62
7
  6
CONTINUOUS
 10
24.9308914273
 20
84.4987951877
 11
24.9308914273
 21
98.2785561678
  0
LINE
  5
241
100
AcDbEntity
  8
0
100
AcDbLine
 62
7
  6
CONTINUOUS
 10
25.5270717696
 20
97.132769784
 11
25.5270717696
 21
98.2785561678
  0
LINE
  5
242
100
AcDbEntity
  8
0
100
AcDbLine
 62
7
  6
CONTINUOUS
 10
25.9077611966
 20
97.132769784
 11
25.9077611966
 21
98.2785561678
  0
LINE
  5
243
100
AcDbEntity
  8
0
100
AcDbLine
 62
7
  6
CONTINUOUS
 10
25.4326861331
 20
52.4907623446
 11
25.4310893076
 21
43.4827695078
  0
LINE
  5
244
100
AcDbEntity
  8
0
100
AcDbLine
 62
7
  6
CONTINUOUS
 10
22.0059724538
 20
52.5698125843
 11
21.9943155652
 21
52.5224619079
  0
LINE
  5
245
100
AcDbEntity
  8
0
100
AcDbLine
 62
7
  6
CONTINUOUS
 10
22.0700492565
 20
52.5038176293
 11
20.4308914278
 21
46.1427697857
  0
LINE
  5
246
100
AcDbEntity
  8
0
100
AcDbLine
 62
7
  6
CONTINUOUS
 10
55.3894772071
 20
19.8210761393
 11
55.3723842539
 21
19.8364176746
  0
LINE
  5
247
100
AcDbEntity
  8
0
100
AcDbLine
 62
7
  6
CONTINUOUS
 10
26.2711405711
 20
71.632769863
 11
26.3125588736
 21
66.8867067918
  0
LINE
  5
248
100
AcDbEntity
  8
0
100
AcDbLine
 62
7
  6
CONTINUOUS
 10
26.7151937633
 20
61.5971770488
 11
26.7151287175
 21
61.8867067918
  0
LINE
  5
249
100
AcDbEntity
  8
0
100
AcDbLine
 62
7
  6
CONTINUOUS
 10
26.4308914273
 20
71.632769784
 11
26.4308914273
 21
72.032769784
  0
LINE
  5
24A
100
AcDbEntity
  8
0
100
AcDbLine
 62
7
  6
CONTINUOUS
 10
26.4821228963
 20
79.932769784
 11
26.4821228963
 21
72.032769784
  0
LINE
  5
24B
100
AcDbEntity
  8
0
100
AcDbLine
 62
7
  6
CONTINUOUS
 10
26.5335502732
 20
83.632769784
 11
26.5335502732
 21
79.932769784
  0
LINE
  5
24C
100
AcDbEntity
  8
0
100
AcDbLine
 62
7
  6
CONTINUOUS
 10
26.6509626814
 20
97.132769784
 11
26.6509626814
 21
98.2785561678
  0
LINE
  5
24D
100
AcDbEntity
  8
0
100
AcDbLine
 62
7
  6
CONTINUOUS
 10
27.2508426694
 20
97.132769784
 11
27.2508426694
 21
98.2785561678
  0
LINE
  5
24E
100
AcDbEntity
  8
0
100
AcDbLine
 62
7
  6
CONTINUOUS
 10
28.3080505776
 20
97.132769784
 11
28.3080505776
 21
98.2785561678
  0
LINE
  5
24F
100
AcDbEntity
  8
0
100
AcDbLine
 62
7
  6
CONTINUOUS
 10
29.1030355907
 20
97.132769784
 11
29.1030355907
 21
98.2785561678
  0
LINE
  5
250
100
AcDbEntity
  8
0
100
AcDbLine
 62
7
  6
CONTINUOUS
 10
26.7151706682
 20
61.5971769117
 11
26.6204289243
 21
58.882769784
  0
LINE
  5
251
100
AcDbEntity
  8
0
100
AcDbLine
 62
7
  6
CONTINUOUS
 10
25.4310893076
 20
43.4827695078
 11
54.4306936711
 21
43.4827694682
  0
LINE
  5
252
100
AcDbEntity
  8
0
100
AcDbLine
 62
7
  6
CONTINUOUS
 10
55.3894772071
 20
19.8210761393
 11
55.3764287328
 21
19.8364029301
  0
LINE
  5
253
100
AcDbEntity
  8
0
100
AcDbLine
 62
7
  6
CONTINUOUS
 10
30.9308914273
 20
44.882769784
 11
30.9308914273
 21
44.532769784
  0
LINE
  5
254
100
AcDbEntity
  8
0
100
AcDbLine
 62
7
  6
CONTINUOUS
 10
32.9308914273
 20
101.1818903814
 11
32.9308914273
 21
100.9517873512
  0
LINE
  5
255
100
AcDbEntity
  8
0
100
AcDbLine
 62
7
  6
CONTINUOUS
 10
30.9308914273
 20
44.532769784
 11
48.9308914273
 21
44.532769784
  0
LINE
  5
256
100
AcDbEntity
  8
0
100
AcDbLine
 62
7
  6
CONTINUOUS
 10
62.8029297566
 20
44.882769784
 11
59.4309590936
 21
44.882769784
  0
LINE
  5
257
100
AcDbEntity
  8
0
100
AcDbLine
 62
7
  6
CONTINUOUS
 10
20.4308237922
 20
44.882769784
 11
17.0588347051
 21
44.882769784
  0
LINE
  5
258
100
AcDbEntity
  8
0
100
AcDbLine
 62
7
  6
CONTINUOUS
 10
30.9308914273
 20
44.882769784
 11
48.9308914273
 21
44.882769784
  0
LINE
  5
259
100
AcDbEntity
  8
0
100
AcDbLine
 62
7
  6
CONTINUOUS
 10
62.8109487632
 20
44.8827461224
 11
65.9292313038
 21
44.882769784
  0
LINE
  5
25A
100
AcDbEntity
  8
0
100
AcDbLine
 62
7
  6
CONTINUOUS
 10
17.0510769001
 20
44.882769784
 11
13.9325692177
 21
44.882769784
  0
LINE
  5
25B
100
AcDbEntity
  8
0
100
AcDbLine
 62
7
  6
CONTINUOUS
 10
13.9308914273
 20
46.142769784
 11
65.9308914273
 21
46.142769784
  0
LINE
  5
25C
100
AcDbEntity
  8
0
100
AcDbLine
 62
7
  6
CONTINUOUS
 10
34.8739731985
 20
44.532759256
 11
34.7869954654
 21
44.88275272
  0
LINE
  5
25D
100
AcDbEntity
  8
0
100
AcDbLine
 62
7
  6
CONTINUOUS
 10
36.4746815849
 20
44.8827695618
 11
36.4773330892
 21
44.5327696741
  0
LINE
  5
25E
100
AcDbEntity
  8
0
100
AcDbLine
 62
7
  6
CONTINUOUS
 10
39.4399772747
 20
44.882769784
 11
39.4430316784
 21
44.532769784
  0
LINE
  5
25F
100
AcDbEntity
  8
0
100
AcDbLine
 62
7
  6
CONTINUOUS
 10
54.4308914273
 20
83.632769784
 11
54.9308914273
 21
84.4987951877
  0
LINE
  5
260
100
AcDbEntity
  8
0
100
AcDbLine
 62
7
  6
CONTINUOUS
 10
25.4593294496
 20
52.5038176293
 11
54.402453405
 21
52.5038176293
  0
LINE
  5
261
100
AcDbEntity
  8
0
100
AcDbLine
 62
7
  6
CONTINUOUS
 10
43.3844352625
 20
44.532769784
 11
43.3870719359
 21
44.882769784
  0
LINE
  5
262
100
AcDbEntity
  8
0
100
AcDbLine
 62
7
  6
CONTINUOUS
 10
40.4187511762
 20
44.532769784
 11
40.4218055799
 21
44.882769784
  0
LINE
  5
263
100
AcDbEntity
  8
0
100
AcDbLine
 62
7
  6
CONTINUOUS
 10
25.4308914273
 20
83.632769784
 11
24.9308914273
 21
84.4987951877
  0
LINE
  5
264
100
AcDbEntity
  8
0
100
AcDbLine
 62
7
  6
CONTINUOUS
 10
45.2946414273
 20
100.9517873512
 11
45.2946414273
 21
101.1818903814
  0
LINE
  5
265
100
AcDbEntity
  8
0
100
AcDbLine
 62
7
  6
CONTINUOUS
 10
45.6119821549
 20
79.932769784
 11
45.6119821549
 21
83.632769784
  0
LINE
  5
266
100
AcDbEntity
  8
0
100
AcDbLine
 62
7
  6
CONTINUOUS
 10
45.6376958434
 20
72.032769784
 11
45.6376958434
 21
79.932769784
  0
LINE
  5
267
100
AcDbEntity
  8
0
100
AcDbLine
 62
7
  6
CONTINUOUS
 10
47.0201138675
 20
73.332769784
 11
47.0201138675
 21
83.632769784
  0
LINE
  5
268
100
AcDbEntity
  8
0
100
AcDbLine
 62
7
  6
CONTINUOUS
 10
45.0825560025
 20
44.882769784
 11
44.9952135851
 21
44.532769784
  0
LINE
  5
269
100
AcDbEntity
  8
0
100
AcDbLine
 62
7
  6
CONTINUOUS
 10
25.5905453626
 20
58.6302427627
 11
25.4455896547
 21
58.6147246081
  0
LINE
  5
26A
100
AcDbEntity
  8
0
100
AcDbLine
 62
7
  6
CONTINUOUS
 10
25.5918068649
 20
58.6281944897
 11
25.4455915585
 21
58.6147531825
  0
LINE
  5
26B
100
AcDbEntity
  8
0
100
AcDbLine
 62
7
  6
CONTINUOUS
 10
26.0981728546
 20
58.882769784
 11
53.7636099168
 21
58.882769784
  0
LINE
  5
26C
100
AcDbEntity
  8
0
100
AcDbLine
 62
7
  6
CONTINUOUS
 10
26.7151706682
 20
61.5971769117
 11
53.1466121875
 21
61.597177186
  0
LINE
  5
26D
100
AcDbEntity
  8
0
100
AcDbLine
 62
7
  6
CONTINUOUS
 10
23.0174231007
 20
61.8867067918
 11
56.8443598379
 21
61.8867067918
  0
LINE
  5
26E
100
AcDbEntity
  8
0
100
AcDbLine
 62
7
  6
CONTINUOUS
 10
54.270288689
 20
58.6279407586
 11
54.4164057917
 21
58.6145854116
  0
LINE
  5
26F
100
AcDbEntity
  8
0
100
AcDbLine
 62
7
  6
CONTINUOUS
 10
54.2715082259
 20
58.630143628
 11
54.4164057917
 21
58.6145854116
  0
LINE
  5
270
100
AcDbEntity
  8
0
100
AcDbLine
 62
7
  6
CONTINUOUS
 10
47.6471418538
 20
83.632769784
 11
47.6471418538
 21
79.932769784
  0
LINE
  5
271
100
AcDbEntity
  8
0
100
AcDbLine
 62
7
  6
CONTINUOUS
 10
47.6728555423
 20
79.932769784
 11
47.6728555423
 21
72.032769784
  0
LINE
  5
272
100
AcDbEntity
  8
0
100
AcDbLine
 62
7
  6
CONTINUOUS
 10
48.9308914273
 20
44.882769784
 11
48.9308914273
 21
44.532769784
  0
LINE
  5
273
100
AcDbEntity
  8
0
100
AcDbLine
 62
7
  6
CONTINUOUS
 10
50.7587472639
 20
97.132769784
 11
50.7587472639
 21
98.2785561678
  0
LINE
  5
274
100
AcDbEntity
  8
0
100
AcDbLine
 62
7
  6
CONTINUOUS
 10
24.4298683852
 20
19.8836422921
 11
24.455664339
 21
19.9138888247
  0
LINE
  5
275
100
AcDbEntity
  8
0
100
AcDbLine
 62
7
  6
CONTINUOUS
 10
53.2413539392
 20
58.882769784
 11
53.1466121875
 21
61.597177186
  0
LINE
  5
276
100
AcDbEntity
  8
0
100
AcDbLine
 62
7
  6
CONTINUOUS
 10
51.5537322771
 20
97.132769784
 11
51.5537322771
 21
98.2785561678
  0
LINE
  5
277
100
AcDbEntity
  8
0
100
AcDbLine
 62
7
  6
CONTINUOUS
 10
52.6109401852
 20
97.132769784
 11
52.6109401852
 21
98.2785561678
  0
LINE
  5
278
100
AcDbEntity
  8
0
100
AcDbLine
 62
7
  6
CONTINUOUS
 10
53.2108201732
 20
97.132769784
 11
53.2108201732
 21
98.2785561678
  0
LINE
  5
279
100
AcDbEntity
  8
0
100
AcDbLine
 62
7
  6
CONTINUOUS
 10
53.3796599583
 20
79.932769784
 11
53.3796599583
 21
83.632769784
  0
LINE
  5
27A
100
AcDbEntity
  8
0
100
AcDbLine
 62
7
  6
CONTINUOUS
 10
53.4308914273
 20
71.632769784
 11
53.4308914273
 21
79.932769784
  0
LINE
  5
27B
100
AcDbEntity
  8
0
100
AcDbLine
 62
7
  6
CONTINUOUS
 10
53.9540216581
 20
97.132769784
 11
53.9540216581
 21
98.2785561678
  0
LINE
  5
27C
100
AcDbEntity
  8
0
100
AcDbLine
 62
7
  6
CONTINUOUS
 10
54.334711085
 20
97.132769784
 11
54.334711085
 21
98.2785561678
  0
LINE
  5
27D
100
AcDbEntity
  8
0
100
AcDbLine
 62
7
  6
CONTINUOUS
 10
54.4306936711
 20
43.4827694682
 11
54.4308916265
 21
52.4912938886
  0
LINE
  5
27E
100
AcDbEntity
  8
0
100
AcDbLine
 62
7
  6
CONTINUOUS
 10
53.1466549706
 20
61.8867067918
 11
53.14658996
 21
61.5971770488
  0
LINE
  5
27F
100
AcDbEntity
  8
0
100
AcDbLine
 62
7
  6
CONTINUOUS
 10
53.5492228913
 20
66.8867067918
 11
53.5906411918
 21
71.6327698605
  0
LINE
  5
280
100
AcDbEntity
  8
0
100
AcDbLine
 62
7
  6
CONTINUOUS
 10
24.4448723473
 20
19.8838181808
 11
24.4766129651
 21
19.9141373062
  0
LINE
  5
281
100
AcDbEntity
  8
0
100
AcDbLine
 62
7
  6
CONTINUOUS
 10
22.0652947868
 20
66.632769784
 11
57.7964880678
 21
66.632769784
  0
LINE
  5
282
100
AcDbEntity
  8
0
100
AcDbLine
 62
7
  6
CONTINUOUS
 10
56.8443582542
 20
66.8867067918
 11
23.0174246004
 21
66.8867067918
  0
LINE
  5
283
100
AcDbEntity
  8
0
100
AcDbLine
 62
7
  6
CONTINUOUS
 10
57.1441754928
 20
61.5971769136
 11
57.1707779025
 21
60.8353835706
  0
LINE
  5
284
100
AcDbEntity
  8
0
100
AcDbLine
 62
7
  6
CONTINUOUS
 10
54.9308914273
 20
84.4987951877
 11
54.9308914273
 21
98.2785561678
  0
LINE
  5
285
100
AcDbEntity
  8
0
100
AcDbLine
 62
7
  6
CONTINUOUS
 10
55.9129542076
 20
55.9041881168
 11
55.9129542076
 21
56.006048705
  0
LINE
  5
286
100
AcDbEntity
  8
0
100
AcDbLine
 62
7
  6
CONTINUOUS
 10
56.8443582542
 20
66.8867067918
 11
56.8443582542
 21
66.632769784
  0
LINE
  5
287
100
AcDbEntity
  8
0
100
AcDbLine
 62
7
  6
CONTINUOUS
 10
57.7634576923
 20
62.847863642
 11
57.9170026142
 21
80.442368973
  0
LINE
  5
288
100
AcDbEntity
  8
0
100
AcDbLine
 62
7
  6
CONTINUOUS
 10
22.0216604484
 20
71.632769784
 11
57.8401224062
 21
71.632769784
  0
LINE
  5
289
100
AcDbEntity
  8
0
100
AcDbLine
 62
7
  6
CONTINUOUS
 10
22.0200190475
 20
71.8208556399
 11
26.4308914273
 21
71.8208556399
  0
LINE
  5
28A
100
AcDbEntity
  8
0
100
AcDbLine
 62
7
  6
CONTINUOUS
 10
53.4308914273
 20
71.8208556399
 11
57.8417638072
 21
71.8208556399
  0
LINE
  5
28B
100
AcDbEntity
  8
0
100
AcDbLine
 62
7
  6
CONTINUOUS
 10
26.4308914273
 20
72.032769784
 11
26.4821228963
 21
72.032769784
  0
LINE
  5
28C
100
AcDbEntity
  8
0
100
AcDbLine
 62
7
  6
CONTINUOUS
 10
45.6376958434
 20
72.032769784
 11
47.6728555423
 21
72.032769784
  0
LINE
  5
28D
100
AcDbEntity
  8
0
100
AcDbLine
 62
7
  6
CONTINUOUS
 10
59.4308914273
 20
46.142769784
 11
57.7942421466
 21
52.4940827542
  0
LINE
  5
28E
100
AcDbEntity
  8
0
100
AcDbLine
 62
7
  6
CONTINUOUS
 10
57.8678087279
 20
52.5219570103
 11
57.8558103924
 21
52.5698125792
  0
LINE
  5
28F
100
AcDbEntity
  8
0
100
AcDbLine
 62
7
  6
CONTINUOUS
 10
60.0407558054
 20
63.5091506059
 11
60.0435710167
 21
63.1025554953
  0
LINE
  5
290
100
AcDbEntity
  8
0
100
AcDbLine
 62
7
  6
CONTINUOUS
 10
59.0167832239
 20
81.532769784
 11
59.0167832239
 21
81.4479653541
  0
LINE
  5
291
100
AcDbEntity
  8
0
100
AcDbLine
 62
7
  6
CONTINUOUS
 10
59.4308914273
 20
43.4829648375
 11
59.4308914273
 21
46.142769784
  0
LINE
  5
292
100
AcDbEntity
  8
0
100
AcDbLine
 62
7
  6
CONTINUOUS
 10
59.4308914273
 20
43.482769784
 11
59.4286167917
 21
43.0328393482
  0
LINE
  5
293
100
AcDbEntity
  8
0
100
AcDbLine
 62
7
  6
CONTINUOUS
 10
59.3657645035
 20
38.5008695887
 11
59.3996158601
 21
42.8106046403
  0
LINE
  5
294
100
AcDbEntity
  8
0
100
AcDbLine
 62
7
  6
CONTINUOUS
 10
59.0165528182
 20
81.4479652648
 11
58.9070290745
 21
68.9241892097
  0
LINE
  5
295
100
AcDbEntity
  8
0
100
AcDbLine
 62
7
  6
CONTINUOUS
 10
47.0201138675
 20
73.332769784
 11
45.6376958434
 21
73.332769784
  0
LINE
  5
296
100
AcDbEntity
  8
0
100
AcDbLine
 62
7
  6
CONTINUOUS
 10
57.8635231849
 20
74.3142333611
 11
53.4308914273
 21
74.3142333611
  0
LINE
  5
297
100
AcDbEntity
  8
0
100
AcDbLine
 62
7
  6
CONTINUOUS
 10
26.4821228963
 20
74.3142333611
 11
21.9982596698
 21
74.3142333611
  0
LINE
  5
298
100
AcDbEntity
  8
0
100
AcDbLine
 62
7
  6
CONTINUOUS
 10
62.6808796681
 20
44.882769784
 11
62.6808796681
 21
46.142769784
  0
LINE
  5
299
100
AcDbEntity
  8
0
100
AcDbLine
 62
7
  6
CONTINUOUS
 10
62.7853318191
 20
44.8829069923
 11
62.785332161
 21
43.6369713559
  0
LWPOLYLINE
  5
29A
100
AcDbEntity
  8
0
100
AcDbPolyline
 62
7
  6
CONTINUOUS
 90
3
 70
0
 10
26.4671368199
 20
22.4368183783
 10
28.0708025426
 20
23.2418371456
 10
30.2437345228
 20
24.399211076
  0
LINE
  5
29B
100
AcDbEntity
  8
0
100
AcDbLine
 62
7
  6
CONTINUOUS
 10
25.8529435586
 20
22.1950921935
 11
26.4671368199
 21
22.4368183783
  0
LINE
  5
29C
100
AcDbEntity
  8
0
100
AcDbLine
 62
7
  6
CONTINUOUS
 10
21.9582134698
 20
78.9030733616
 11
26.4821228963
 21
78.9030733616
  0
LINE
  5
29D
100
AcDbEntity
  8
0
100
AcDbLine
 62
7
  6
CONTINUOUS
 10
53.4308914273
 20
78.9030733616
 11
57.9016476918
 21
78.9030733616
  0
LINE
  5
29E
100
AcDbEntity
  8
0
100
AcDbLine
 62
7
  6
CONTINUOUS
 10
57.9070769206
 20
79.3049971502
 11
53.4308914273
 21
79.3049971502
  0
LINE
  5
29F
100
AcDbEntity
  8
0
100
AcDbLine
 62
7
  6
CONTINUOUS
 10
26.4821228963
 20
79.3049971502
 11
21.954705934
 21
79.3049971502
  0
LINE
  5
2A0
100
AcDbEntity
  8
0
100
AcDbLine
 62
7
  6
CONTINUOUS
 10
26.4821228963
 20
79.932769784
 11
45.6376958434
 21
79.932769784
  0
LINE
  5
2A1
100
AcDbEntity
  8
0
100
AcDbLine
 62
7
  6
CONTINUOUS
 10
47.6471418538
 20
79.932769784
 11
53.4308914273
 21
79.932769784
  0
LINE
  5
2A2
100
AcDbEntity
  8
0
100
AcDbLine
 62
7
  6
CONTINUOUS
 10
59.5711929996
 20
81.532769784
 11
59.5898839314
 21
81.4479653541
  0
LINE
  5
2A3
100
AcDbEntity
  8
0
100
AcDbLine
 62
7
  6
CONTINUOUS
 10
65.9314887294
 20
43.4850805504
 11
65.9314947766
 21
43.4848746379
  0
LINE
  5
2A4
100
AcDbEntity
  8
0
100
AcDbLine
 62
7
  6
CONTINUOUS
 10
65.9301058965
 20
43.0739975573
 11
65.9308914273
 21
46.1427386241
  0
LINE
  5
2A5
100
AcDbEntity
  8
0
100
AcDbLine
 62
7
  6
CONTINUOUS
 10
65.9301058965
 20
43.0739975573
 11
65.9301057238
 21
43.0739800088
  0
LWPOLYLINE
  5
2A6
100
AcDbEntity
  8
0
100
AcDbPolyline
 62
7
  6
CONTINUOUS
 90
3
 70
0
 10
65.6884339956
 20
38.8557561498
 10
65.8759724888
 20
41.2391551678
 10
65.9301058696
 20
43.0739944448
  0
LINE
  5
2A7
100
AcDbEntity
  8
0
100
AcDbLine
 62
7
  6
CONTINUOUS
 10
65.4125736344
 20
36.7655573216
 11
65.6884339956
 21
38.8557561498
  0
LINE
  5
2A8
100
AcDbEntity
  8
0
100
AcDbLine
 62
7
  6
CONTINUOUS
 10
64.8073160677
 20
32.9478873283
 11
65.4126169869
 21
36.7658328878
  0
LINE
  5
2A9
100
AcDbEntity
  8
0
100
AcDbLine
 62
7
  6
CONTINUOUS
 10
63.3004017767
 20
23.5636721034
 11
65.3956944754
 21
36.7195972967
  0
LINE
  5
2AA
100
AcDbEntity
  8
0
100
AcDbLine
 62
7
  6
CONTINUOUS
 10
63.5940492441
 20
25.4074257299
 11
64.8073160677
 21
32.9478873283
  0
LINE
  5
2AB
100
AcDbEntity
  8
0
100
AcDbLine
 62
7
  6
CONTINUOUS
 10
59.0165528182
 20
81.4479652648
 11
59.5898811528
 21
81.4479654435
  0
LINE
  5
2AC
100
AcDbEntity
  8
0
100
AcDbLine
 62
7
  6
CONTINUOUS
 10
20.2719381566
 20
81.4479652108
 11
20.8452300365
 21
81.447965286
  0
LINE
  5
2AD
100
AcDbEntity
  8
0
100
AcDbLine
 62
7
  6
CONTINUOUS
 10
59.5711872282
 20
81.532769784
 11
59.0168719767
 21
81.532769784
  0
LINE
  5
2AE
100
AcDbEntity
  8
0
100
AcDbLine
 62
7
  6
CONTINUOUS
 10
20.8449108779
 20
81.532769784
 11
20.2905954509
 21
81.532769784
  0
LINE
  5
2AF
100
AcDbEntity
  8
0
100
AcDbLine
 62
7
  6
CONTINUOUS
 10
54.4308914273
 20
83.632769784
 11
25.4308914273
 21
83.632769784
  0
LINE
  5
2B0
100
AcDbEntity
  8
0
100
AcDbLine
 62
7
  6
CONTINUOUS
 10
54.9308914273
 20
84.4987951877
 11
24.9308914273
 21
84.4987951877
  0
LINE
  5
2B1
100
AcDbEntity
  8
0
100
AcDbLine
 62
7
  6
CONTINUOUS
 10
59.8324713839
 20
15.4485057188
 11
59.8067086841
 21
15.4077213101
  0
LINE
  5
2B2
100
AcDbEntity
  8
0
100
AcDbLine
 62
7
  6
CONTINUOUS
 10
59.8356886953
 20
15.4461087933
 11
59.8067086841
 21
15.4077213101
  0
LINE
  5
2B3
100
AcDbEntity
  8
0
100
AcDbLine
 62
7
  6
CONTINUOUS
 10
57.4888759821
 20
12.7620316809
 11
57.4978683276
 21
12.7702615778
  0
LWPOLYLINE
  5
2B4
100
AcDbEntity
  8
0
100
AcDbPolyline
 62
7
  6
CONTINUOUS
 90
5
 70
0
 10
49.7175090649
 20
13.5863907557
 10
52.786749393
 20
15.4742422847
 10
53.8141406493
 20
16.1890517163
 10
55.501767597
 20
17.200187246
 10
56.0554673338
 20
17.3484169664
  0
LINE
  5
2B5
100
AcDbEntity
  8
0
100
AcDbLine
 62
7
  6
CONTINUOUS
 10
51.1535760221
 20
14.0720898279
 11
51.1516324825
 21
14.0710667846
  0
LINE
  5
2B6
100
AcDbEntity
  8
0
100
AcDbLine
 62
7
  6
CONTINUOUS
 10
47.2144210632
 20
12.482872254
 11
49.7175090649
 21
13.5863907557
  0
LWPOLYLINE
  5
2B7
100
AcDbEntity
  8
0
100
AcDbPolyline
 62
7
  6
CONTINUOUS
 90
4
 70
0
 10
47.2253930418
 20
12.3113224312
 10
48.8512320008
 20
12.9426599795
 10
49.7470619908
 20
13.3543628946
 10
51.152677252
 20
14.0716767943
  0
LWPOLYLINE
  5
2B8
100
AcDbEntity
  8
0
100
AcDbPolyline
 62
7
  6
CONTINUOUS
 90
4
 70
0
 10
45.49089272
 20
11.739213162
 10
46.0168349062
 20
11.9103537864
 10
46.7983583006
 20
12.1673420362
 10
47.2253500152
 20
12.3112623733
  0
LINE
  5
2B9
100
AcDbEntity
  8
0
100
AcDbLine
 62
7
  6
CONTINUOUS
 10
25.5270717696
 20
97.132769784
 11
25.9077611966
 21
97.132769784
  0
LINE
  5
2BA
100
AcDbEntity
  8
0
100
AcDbLine
 62
7
  6
CONTINUOUS
 10
26.6509626814
 20
97.132769784
 11
27.2508426694
 21
97.132769784
  0
LINE
  5
2BB
100
AcDbEntity
  8
0
100
AcDbLine
 62
7
  6
CONTINUOUS
 10
28.3080505776
 20
97.132769784
 11
29.1030355907
 21
97.132769784
  0
LINE
  5
2BC
100
AcDbEntity
  8
0
100
AcDbLine
 62
7
  6
CONTINUOUS
 10
50.7587472639
 20
97.132769784
 11
51.5537322771
 21
97.132769784
  0
LINE
  5
2BD
100
AcDbEntity
  8
0
100
AcDbLine
 62
7
  6
CONTINUOUS
 10
52.6109401852
 20
97.132769784
 11
53.2108201732
 21
97.132769784
  0
LINE
  5
2BE
100
AcDbEntity
  8
0
100
AcDbLine
 62
7
  6
CONTINUOUS
 10
53.9540216581
 20
97.132769784
 11
54.334711085
 21
97.132769784
  0
LWPOLYLINE
  5
2BF
100
AcDbEntity
  8
0
100
AcDbPolyline
 62
7
  6
CONTINUOUS
 90
4
 70
0
 10
54.2956539071
 20
10.7477878532
 10
55.3638990866
 20
11.2597223136
 10
56.70628076
 20
12.1160390419
 10
57.4888397314
 20
12.7619960471
  0
LINE
  5
2C0
100
AcDbEntity
  8
0
100
AcDbLine
 62
7
  6
CONTINUOUS
 10
54.2956474707
 20
10.7478045563
 11
54.2939346168
 21
10.7470864827
  0
LINE
  5
2C1
100
AcDbEntity
  8
0
100
AcDbLine
 62
7
  6
CONTINUOUS
 10
24.9308914273
 20
98.2785561678
 11
25.5270717696
 21
98.2785561678
  0
LINE
  5
2C2
100
AcDbEntity
  8
0
100
AcDbLine
 62
7
  6
CONTINUOUS
 10
25.9077611966
 20
98.2785561678
 11
26.6509626814
 21
98.2785561678
  0
LINE
  5
2C3
100
AcDbEntity
  8
0
100
AcDbLine
 62
7
  6
CONTINUOUS
 10
27.2508426694
 20
98.2785561678
 11
28.3080505776
 21
98.2785561678
  0
LINE
  5
2C4
100
AcDbEntity
  8
0
100
AcDbLine
 62
7
  6
CONTINUOUS
 10
29.1030355907
 20
98.2785561678
 11
50.7587472639
 21
98.2785561678
  0
LINE
  5
2C5
100
AcDbEntity
  8
0
100
AcDbLine
 62
7
  6
CONTINUOUS
 10
51.5537322771
 20
98.2785561678
 11
52.6109401852
 21
98.2785561678
  0
LINE
  5
2C6
100
AcDbEntity
  8
0
100
AcDbLine
 62
7
  6
CONTINUOUS
 10
53.2108201732
 20
98.2785561678
 11
53.9540216581
 21
98.2785561678
  0
LINE
  5
2C7
100
AcDbEntity
  8
0
100
AcDbLine
 62
7
  6
CONTINUOUS
 10
54.334711085
 20
98.2785561678
 11
54.9308914273
 21
98.2785561678
  0
LINE
  5
2C8
100
AcDbEntity
  8
0
100
AcDbLine
 62
7
  6
CONTINUOUS
 10
26.5485385062
 20
100.241667536
 11
53.3132443485
 21
100.241667536
  0
LINE
  5
2C9
100
AcDbEntity
  8
0
100
AcDbLine
 62
7
  6
CONTINUOUS
 10
46.8271414273
 20
100.9517873512
 11
30.9308914273
 21
100.9517873512
  0
LINE
  5
2CA
100
AcDbEntity
  8
0
100
AcDbLine
 62
7
  6
CONTINUOUS
 10
32.9308914273
 20
101.1818903814
 11
45.2946414273
 21
101.1818903814
  0
ARC
  5
2CB
100
AcDbEntity
  8
0
100
AcDbCircle
 62
7
  6
CONTINUOUS
 10
-124.6961662009
 20
34.212769784
 40
191.0
100
AcDbArc
 50
3.5810627911
 51
14.1103064921
  0
ARC
  5
2CC
100
AcDbEntity
  8
0
100
AcDbCircle
 62
7
  6
CONTINUOUS
 10
-125.2618596114
 20
35.0804111186
 40
190.5783727436
100
AcDbArc
 50
10.7924649568
 51
14.0813404863
  0
ARC
  5
2CD
100
AcDbEntity
  8
0
100
AcDbCircle
 62
7
  6
CONTINUOUS
 10
22.0346215417
 20
15.2175320069
 40
14.1016489849
100
AcDbArc
 50
352.7229096494
 51
356.2519864502
  0
ARC
  5
2CE
100
AcDbEntity
  8
0
100
AcDbCircle
 62
7
  6
CONTINUOUS
 10
18.3753428779
 20
26.2863274317
 40
8.822267727
100
AcDbArc
 50
311.4487067163
 51
312.8086931351
  0
ARC
  5
2CF
100
AcDbEntity
  8
0
100
AcDbCircle
 62
7
  6
CONTINUOUS
 10
18.7680114805
 20
25.8599543361
 40
8.242630202
100
AcDbArc
 50
312.8203068182
 51
313.5288383386
  0
ARC
  5
2D0
100
AcDbEntity
  8
0
100
AcDbCircle
 62
7
  6
CONTINUOUS
 10
30.8832906514
 20
8.5464882674
 40
50.3626410848
100
AcDbArc
 50
95.4345146936
 51
96.0325066939
  0
ARC
  5
2D1
100
AcDbEntity
  8
0
100
AcDbCircle
 62
7
  6
CONTINUOUS
 10
34.2959432574
 20
8.4319800553
 40
5.2891169317
100
AcDbArc
 50
65.7440647606
 51
70.945170149
  0
ARC
  5
2D2
100
AcDbEntity
  8
0
100
AcDbCircle
 62
7
  6
CONTINUOUS
 10
35.2348004282
 20
24.210014373
 40
16.422980212
100
AcDbArc
 50
227.3083602273
 51
232.7064010893
  0
ARC
  5
2D3
100
AcDbEntity
  8
0
100
AcDbCircle
 62
7
  6
CONTINUOUS
 10
35.1171336255
 20
24.0737051106
 40
16.2432500585
100
AcDbArc
 50
232.7452693088
 51
235.4961593013
  0
ARC
  5
2D4
100
AcDbEntity
  8
0
100
AcDbCircle
 62
7
  6
CONTINUOUS
 10
34.9308914273
 20
26.482769784
 40
18.6
100
AcDbArc
 50
205.6652796804
 51
269.9999467297
  0
ARC
  5
2D5
100
AcDbEntity
  8
0
100
AcDbCircle
 62
7
  6
CONTINUOUS
 10
34.9308914273
 20
26.482769784
 40
18.6
100
AcDbArc
 50
189.1522274491
 51
197.3852258552
  0
ARC
  5
2D6
100
AcDbEntity
  8
0
100
AcDbCircle
 62
7
  6
CONTINUOUS
 10
34.8631888675
 20
26.6308455839
 40
18.5640301001
100
AcDbArc
 50
206.1791738838
 51
217.1529432073
  0
ARC
  5
2D7
100
AcDbEntity
  8
0
100
AcDbCircle
 62
7
  6
CONTINUOUS
 10
34.8508379491
 20
26.6087320971
 40
18.5408261704
100
AcDbArc
 50
217.1215285811
 51
222.494130111
  0
ARC
  5
2D8
100
AcDbEntity
  8
0
100
AcDbCircle
 62
7
  6
CONTINUOUS
 10
34.6767551092
 20
26.5407041778
 40
18.3569524352
100
AcDbArc
 50
198.7035995734
 51
206.1834068437
  0
ARC
  5
2D9
100
AcDbEntity
  8
0
100
AcDbCircle
 62
7
  6
CONTINUOUS
 10
34.5869110667
 20
26.5090719424
 40
18.2617094929
100
AcDbArc
 50
198.3510727088
 51
198.6999876174
  0
ARC
  5
2DA
100
AcDbEntity
  8
0
100
AcDbCircle
 62
7
  6
CONTINUOUS
 10
34.5845416815
 20
26.5082775557
 40
18.2592104986
100
AcDbArc
 50
198.06055874
 51
198.3510475606
  0
ARC
  5
2DB
100
AcDbEntity
  8
0
100
AcDbCircle
 62
7
  6
CONTINUOUS
 10
34.5185216831
 20
26.4883214035
 40
18.1902565615
100
AcDbArc
 50
189.2222745978
 51
198.0652669271
  0
ARC
  5
2DC
100
AcDbEntity
  8
0
100
AcDbCircle
 62
7
  6
CONTINUOUS
 10
37.1663137798
 20
28.0817828127
 40
17.1375304062
100
AcDbArc
 50
213.3951328833
 51
218.944540024
  0
ARC
  5
2DD
100
AcDbEntity
  8
0
100
AcDbCircle
 62
7
  6
CONTINUOUS
 10
39.9308914273
 20
31.532769784
 40
70.0
100
AcDbArc
 50
97.3870484363
 51
101.0214496188
  0
ARC
  5
2DE
100
AcDbEntity
  8
0
100
AcDbCircle
 62
7
  6
CONTINUOUS
 10
39.9308914273
 20
31.532769784
 40
70.0
100
AcDbArc
 50
78.9785503812
 51
95.7391704773
  0
ARC
  5
2DF
100
AcDbEntity
  8
0
100
AcDbCircle
 62
7
  6
CONTINUOUS
 10
-3.1938422551
 20
43.6369656231
 40
65.9791529557
100
AcDbArc
 50
359.6812371294
 51
0.0000122198
  0
ARC
  5
2E0
100
AcDbEntity
  8
0
100
AcDbCircle
 62
7
  6
CONTINUOUS
 10
14.9308914273
 20
43.482769784
 40
44.5
100
AcDbArc
 50
331.4207182428
 51
359.4206841732
  0
ARC
  5
2E1
100
AcDbEntity
  8
0
100
AcDbCircle
 62
7
  6
CONTINUOUS
 10
22.9308914273
 20
43.482769784
 40
43.0
100
AcDbArc
 50
355.8348723152
 51
0.000015241
  0
ARC
  5
2E2
100
AcDbEntity
  8
0
100
AcDbCircle
 62
7
  6
CONTINUOUS
 10
19.9496582928
 20
43.5089805727
 40
42.8352970763
100
AcDbArc
 50
352.0885166736
 51
359.6802015653
  0
ARC
  5
2E3
100
AcDbEntity
  8
0
100
AcDbCircle
 62
7
  6
CONTINUOUS
 10
14.9358505833
 20
43.294304931
 40
39.4949860409
100
AcDbArc
 50
331.421497863
 51
0.2734080352
  0
ARC
  5
2E4
100
AcDbEntity
  8
0
100
AcDbCircle
 62
7
  6
CONTINUOUS
 10
-4.6374170981
 20
50.2610886798
 40
27.4615978538
100
AcDbArc
 50
27.0001447485
 51
27.5721524492
  0
ARC
  5
2E5
100
AcDbEntity
  8
0
100
AcDbCircle
 62
7
  6
CONTINUOUS
 10
38.9301165758
 20
35.3665205558
 40
23.9709889615
100
AcDbArc
 50
237.079875296
 51
243.8462834789
  0
ARC
  5
2E6
100
AcDbEntity
  8
0
100
AcDbCircle
 62
7
  6
CONTINUOUS
 10
37.6152541242
 20
31.4052888329
 40
23.2082376418
100
AcDbArc
 50
326.6576392686
 51
346.4718834982
  0
ARC
  5
2E7
100
AcDbEntity
  8
0
100
AcDbCircle
 62
7
  6
CONTINUOUS
 10
39.2104740256
 20
47.8781019831
 40
19.2265681869
100
AcDbArc
 50
14.3412225103
 51
15.3184323594
  0
ARC
  5
2E8
100
AcDbEntity
  8
0
100
AcDbCircle
 62
7
  6
CONTINUOUS
 10
39.8369776423
 20
48.0392216403
 40
18.5796791262
100
AcDbArc
 50
14.113681311
 51
14.3383968618
  0
ARC
  5
2E9
100
AcDbEntity
  8
0
100
AcDbCircle
 62
7
  6
CONTINUOUS
 10
39.9308914273
 20
29.8639987402
 40
16.0312289562
100
AcDbArc
 50
208.5792755538
 51
331.4208863134
  0
ARC
  5
2EA
100
AcDbEntity
  8
0
100
AcDbCircle
 62
7
  6
CONTINUOUS
 10
39.9308467275
 20
29.6768574748
 40
11.0315483196
100
AcDbArc
 50
208.5698444138
 51
331.4301495265
  0
ARC
  5
2EB
100
AcDbEntity
  8
0
100
AcDbCircle
 62
7
  6
CONTINUOUS
 10
30.301158297
 20
50.382769784
 40
8.5
100
AcDbArc
 50
90.000000462
 51
165.55
  0
ARC
  5
2EC
100
AcDbEntity
  8
0
100
AcDbCircle
 62
7
  6
CONTINUOUS
 10
-58.5626518152
 20
54.4270551938
 40
122.1031063038
100
AcDbArc
 50
346.5259115746
 51
352.0850065542
  0
ARC
  5
2ED
100
AcDbEntity
  8
0
100
AcDbCircle
 62
7
  6
CONTINUOUS
 10
24.787956638
 20
63.0847871816
 40
4.9697900443
100
AcDbArc
 50
179.7951140098
 51
184.109680754
  0
ARC
  5
2EE
100
AcDbEntity
  8
0
100
AcDbCircle
 62
7
  6
CONTINUOUS
 10
26.0981728546
 20
62.882769784
 40
4.0
100
AcDbArc
 50
180.4995882042
 51
270.0
  0
ARC
  5
2EF
100
AcDbEntity
  8
0
100
AcDbCircle
 62
7
  6
CONTINUOUS
 10
26.9308746734
 20
98.2785699626
 40
1.999979881
100
AcDbArc
 50
101.0210534867
 51
180.0
  0
ARC
  5
2F0
100
AcDbEntity
  8
0
100
AcDbCircle
 62
7
  6
CONTINUOUS
 10
20.8448221251
 20
80.432769784
 40
1.1
100
AcDbArc
 50
0.3333338064
 51
90.0
  0
ARC
  5
2F1
100
AcDbEntity
  8
0
100
AcDbCircle
 62
7
  6
CONTINUOUS
 10
20.290595463
 20
80.532769784
 40
1.0
100
AcDbArc
 50
90.0
 51
165.889702763
  0
ARC
  5
2F2
100
AcDbEntity
  8
0
100
AcDbCircle
 62
7
  6
CONTINUOUS
 10
23.0174543676
 20
66.5867069062
 40
0.2999999081
100
AcDbArc
 50
90.0056851029
 51
171.8918847541
  0
ARC
  5
2F3
100
AcDbEntity
  8
0
100
AcDbCircle
 62
7
  6
CONTINUOUS
 10
23.0174549893
 20
61.5867066948
 40
0.2999999081
100
AcDbArc
 50
90.0058038427
 51
178.0001322824
  0
ARC
  5
2F4
100
AcDbEntity
  8
0
100
AcDbCircle
 62
7
  6
CONTINUOUS
 10
48.9649878835
 20
8.5810469122
 40
50.32962587
100
AcDbArc
 50
83.9477520679
 51
84.5464687943
  0
ARC
  5
2F5
100
AcDbEntity
  8
0
100
AcDbCircle
 62
7
  6
CONTINUOUS
 10
49.5923381857
 20
15.5869059295
 40
43.2958754673
100
AcDbArc
 50
84.4917942542
 51
90.0419646125
  0
ARC
  5
2F6
100
AcDbEntity
  8
0
100
AcDbCircle
 62
7
  6
CONTINUOUS
 10
44.9308914273
 20
26.482769784
 40
18.6
100
AcDbArc
 50
270.0000268427
 51
350.9507200183
  0
ARC
  5
2F7
100
AcDbEntity
  8
0
100
AcDbCircle
 62
7
  6
CONTINUOUS
 10
44.9835946863
 20
26.6207017663
 40
18.5864678159
100
AcDbArc
 50
317.7009607215
 51
322.8942288811
  0
ARC
  5
2F8
100
AcDbEntity
  8
0
100
AcDbCircle
 62
7
  6
CONTINUOUS
 10
45.1107984055
 20
26.5405594768
 40
18.4366274034
100
AcDbArc
 50
323.0038470722
 51
341.9376562357
  0
ARC
  5
2F9
100
AcDbEntity
  8
0
100
AcDbCircle
 62
7
  6
CONTINUOUS
 10
45.3614080086
 20
26.4427201685
 40
18.1680263198
100
AcDbArc
 50
342.3734637451
 51
350.8816220201
  0
ARC
  5
2FA
100
AcDbEntity
  8
0
100
AcDbCircle
 62
7
  6
CONTINUOUS
 10
45.399473833
 20
26.4284986258
 40
18.1274413351
100
AcDbArc
 50
341.9914964803
 51
342.3798707979
  0
ARC
  5
2FB
100
AcDbEntity
  8
0
100
AcDbCircle
 62
7
  6
CONTINUOUS
 10
42.6991116186
 20
28.0791885528
 40
17.1330585948
100
AcDbArc
 50
321.2209014393
 51
326.6052523889
  0
ARC
  5
2FC
100
AcDbEntity
  8
0
100
AcDbCircle
 62
7
  6
CONTINUOUS
 10
44.6928533029
 20
24.1452907735
 40
16.33148205
100
AcDbArc
 50
304.5096583964
 51
307.2907128864
  0
ARC
  5
2FD
100
AcDbEntity
  8
0
100
AcDbCircle
 62
7
  6
CONTINUOUS
 10
44.7394953303
 20
24.0760243883
 40
16.2481178877
100
AcDbArc
 50
307.307845842
 51
312.854282538
  0
ARC
  5
2FE
100
AcDbEntity
  8
0
100
AcDbCircle
 62
7
  6
CONTINUOUS
 10
57.8404898167
 20
17.9963222323
 40
8.2643255437
100
AcDbArc
 50
60.2567269381
 51
62.2423156006
  0
ARC
  5
2FF
100
AcDbEntity
  8
0
100
AcDbCircle
 62
7
  6
CONTINUOUS
 10
60.7927638237
 20
25.8657313913
 40
8.1076114471
100
AcDbArc
 50
228.2066323317
 51
230.0980015318
  0
ARC
  5
300
100
AcDbEntity
  8
0
100
AcDbCircle
 62
7
  6
CONTINUOUS
 10
60.3017304056
 20
25.3119248689
 40
7.3674712431
100
AcDbArc
 50
227.4619148784
 51
228.0047544866
  0
ARC
  5
301
100
AcDbEntity
  8
0
100
AcDbCircle
 62
7
  6
CONTINUOUS
 10
49.6906059483
 20
13.7528934499
 40
5.9552623204
100
AcDbArc
 50
174.7583911228
 51
182.2885239017
  0
ARC
  5
302
100
AcDbEntity
  8
0
100
AcDbCircle
 62
7
  6
CONTINUOUS
 10
45.3581235101
 20
9.1442699502
 40
4.661371129
100
AcDbArc
 50
110.3710319876
 51
115.7242040015
  0
ARC
  5
303
100
AcDbEntity
  8
0
100
AcDbCircle
 62
7
  6
CONTINUOUS
 10
83.0556253196
 20
43.6369655916
 40
65.9791531677
100
AcDbArc
 50
179.9999905855
 51
180.3187642115
  0
ARC
  5
304
100
AcDbEntity
  8
0
100
AcDbCircle
 62
7
  6
CONTINUOUS
 10
64.9308914273
 20
43.482769784
 40
44.5
100
AcDbArc
 50
180.5496722057
 51
208.579299806
  0
ARC
  5
305
100
AcDbEntity
  8
0
100
AcDbCircle
 62
7
  6
CONTINUOUS
 10
56.9308914273
 20
43.482769784
 40
43.0
100
AcDbArc
 50
180.0
 51
189.0084059524
  0
ARC
  5
306
100
AcDbEntity
  8
0
100
AcDbCircle
 62
7
  6
CONTINUOUS
 10
59.9121241333
 20
43.5089803319
 40
42.8352967254
100
AcDbArc
 50
180.3198002272
 51
187.9114694508
  0
ARC
  5
307
100
AcDbEntity
  8
0
100
AcDbCircle
 62
7
  6
CONTINUOUS
 10
64.9299841818
 20
43.2950483059
 40
39.4990814547
100
AcDbArc
 50
179.7276985524
 51
208.5765737301
  0
ARC
  5
308
100
AcDbEntity
  8
0
100
AcDbCircle
 62
7
  6
CONTINUOUS
 10
84.5204130634
 20
50.2502155774
 40
27.4854348334
100
AcDbArc
 50
152.428163967
 51
152.9990644964
  0
ARC
  5
309
100
AcDbEntity
  8
0
100
AcDbCircle
 62
7
  6
CONTINUOUS
 10
41.8336186852
 20
35.7424618799
 40
25.0779303713
100
AcDbArc
 50
238.3562972673
 51
239.4187002005
  0
ARC
  5
30A
100
AcDbEntity
  8
0
100
AcDbCircle
 62
7
  6
CONTINUOUS
 10
40.8018726918
 20
35.5946908232
 40
24.2330504575
100
AcDbArc
 50
295.7334488732
 51
302.9219725685
  0
ARC
  5
30B
100
AcDbEntity
  8
0
100
AcDbCircle
 62
7
  6
CONTINUOUS
 10
42.2465228235
 20
31.4052859346
 40
23.2082346737
100
AcDbArc
 50
193.5281419438
 51
213.3422467163
  0
ARC
  5
30C
100
AcDbEntity
  8
0
100
AcDbCircle
 62
7
  6
CONTINUOUS
 10
40.7909062573
 20
47.8412290277
 40
19.3709530254
100
AcDbArc
 50
164.6856289422
 51
165.6553840069
  0
ARC
  5
30D
100
AcDbEntity
  8
0
100
AcDbCircle
 62
7
  6
CONTINUOUS
 10
40.4046408983
 20
47.9432590802
 40
18.971452181
100
AcDbArc
 50
165.6648987717
 51
165.8849811952
  0
ARC
  5
30E
100
AcDbEntity
  8
0
100
AcDbCircle
 62
7
  6
CONTINUOUS
 10
49.5606245576
 20
50.382769784
 40
8.5
100
AcDbArc
 50
14.4466118416
 51
89.9999904371
  0
ARC
  5
30F
100
AcDbEntity
  8
0
100
AcDbCircle
 62
7
  6
CONTINUOUS
 10
58.3972074369
 20
52.7939942112
 40
0.6596508282
100
AcDbArc
 50
185.7145459478
 51
195.2232790671
  0
ARC
  5
310
100
AcDbEntity
  8
0
100
AcDbCircle
 62
7
  6
CONTINUOUS
 10
204.5579490555
 20
34.212769784
 40
191.0
100
AcDbArc
 50
165.8896933737
 51
176.4189372326
  0
ARC
  5
311
100
AcDbEntity
  8
0
100
AcDbCircle
 62
7
  6
CONTINUOUS
 10
205.2458025299
 20
35.0510603576
 40
190.7039676597
100
AcDbArc
 50
165.9190332612
 51
169.205751145
  0
ARC
  5
312
100
AcDbEntity
  8
0
100
AcDbCircle
 62
7
  6
CONTINUOUS
 10
138.3769272323
 20
54.418080095
 40
122.0548161747
100
AcDbArc
 50
187.9138866011
 51
193.4751931567
  0
ARC
  5
313
100
AcDbEntity
  8
0
100
AcDbCircle
 62
7
  6
CONTINUOUS
 10
75.8757393776
 20
62.9192377055
 40
56.0578314549
100
AcDbArc
 50
179.3972756026
 51
179.8126325459
  0
ARC
  5
314
100
AcDbEntity
  8
0
100
AcDbCircle
 62
7
  6
CONTINUOUS
 10
55.0069282649
 20
63.0862209676
 40
5.0366827192
100
AcDbArc
 50
355.9308142366
 51
0.1858543856
  0
ARC
  5
315
100
AcDbEntity
  8
0
100
AcDbCircle
 62
7
  6
CONTINUOUS
 10
53.76361
 20
62.882769784
 40
4.0
100
AcDbArc
 50
269.9999994037
 51
359.5003950636
  0
ARC
  5
316
100
AcDbEntity
  8
0
100
AcDbCircle
 62
7
  6
CONTINUOUS
 10
46.3744262793
 20
98.4322650313
 40
2.6534752878
100
AcDbArc
 50
78.333809237
 51
79.4913874014
  0
ARC
  5
317
100
AcDbEntity
  8
0
100
AcDbCircle
 62
7
  6
CONTINUOUS
 10
52.9309081813
 20
98.2785699626
 40
1.999979881
100
AcDbArc
 50
0.0
 51
78.9789465133
  0
ARC
  5
318
100
AcDbEntity
  8
0
100
AcDbCircle
 62
7
  6
CONTINUOUS
 10
59.0169607295
 20
80.432769784
 40
1.1
100
AcDbArc
 50
90.0
 51
179.4999999999
  0
ARC
  5
319
100
AcDbEntity
  8
0
100
AcDbCircle
 62
7
  6
CONTINUOUS
 10
58.9782046754
 20
80.3598746335
 40
1.061881547
100
AcDbArc
 50
176.862913309
 51
179.4954721447
  0
ARC
  5
31A
100
AcDbEntity
  8
0
100
AcDbCircle
 62
7
  6
CONTINUOUS
 10
59.5711873916
 20
80.532769784
 40
1.0
100
AcDbArc
 50
14.1102716028
 51
90.0
  0
ARC
  5
31B
100
AcDbEntity
  8
0
100
AcDbCircle
 62
7
  6
CONTINUOUS
 10
56.8443278653
 20
66.5867066948
 40
0.2999999081
100
AcDbArc
 50
8.1081315937
 51
89.9941961573
  0
ARC
  5
31C
100
AcDbEntity
  8
0
100
AcDbCircle
 62
7
  6
CONTINUOUS
 10
56.8443284871
 20
61.5867069062
 40
0.2999999081
100
AcDbArc
 50
1.999805848
 51
89.9943148971
  0
SPLINE
  5
31D
100
AcDbEntity
  8
0
100
AcDbSpline
 62
7
  6
CONTINUOUS
 70
0
 71
3
 72
36
 73
32
 74
0
 42
0.0000001
 43
0.0000001
 44
0.0000000001
 40
0.0
 40
0.0
 40
0.0
 40
0.0
 40
0.1950929791
 40
0.2903030185
 40
0.3826946584
 40
0.4714086111
 40
0.5555935428
 40
0.6344198766
 40
0.7071372973
 40
0.7730367224
 40
0.8314947469
 40
0.8577483691
 40
0.8819353975
 40
0.9040001033
 40
0.92388676
 40
0.9415432989
 40
0.9569323461
 40
0.9700202271
 40
0.9756907124
 40
0.980773287
 40
0.9852641877
 40
0.9891614175
 40
0.9924634319
 40
0.9951687029
 40
0.9972757388
 40
0.9981044792
 40
0.9987831551
 40
0.9993116481
 40
0.9996899332
 40
0.9999183242
 40
1.0
 40
1.0
 40
1.0
 40
1.0
 10
26.7152424379
 20
61.5971774673
 30
0.0
 10
26.4552687498
 20
61.5978560336
 30
0.0
 10
26.0684214186
 20
61.5987678362
 30
0.0
 10
25.5584559128
 20
61.5997690624
 30
0.0
 10
25.1902471855
 20
61.6003900921
 30
0.0
 10
24.8367299757
 20
61.6008808059
 30
0.0
 10
24.5012892999
 20
61.6012368779
 30
0.0
 10
24.1871649687
 20
61.6014541429
 30
0.0
 10
23.8974072425
 20
61.6015315149
 30
0.0
 10
23.6347916604
 20
61.6014679044
 30
0.0
 10
23.4340922881
 20
61.6012942953
 30
0.0
 10
23.2889776063
 20
61.6010762837
 30
0.0
 10
23.1923595071
 20
61.6008844074
 30
0.0
 10
23.1042259155
 20
61.600659115
 30
0.0
 10
23.0247947714
 20
61.600401123
 30
0.0
 10
22.9542595669
 20
61.6001112483
 30
0.0
 10
22.8927844253
 20
61.5997905951
 30
0.0
 10
22.8472816839
 20
61.5994867706
 30
0.0
 10
22.8155131017
 20
61.5992220939
 30
0.0
 10
22.7952004668
 20
61.5990259963
 30
0.0
 10
22.7772508761
 20
61.5988230324
 30
0.0
 10
22.7616746757
 20
61.5986133348
 30
0.0
 10
22.7484770635
 20
61.5983982228
 30
0.0
 10
22.7376689151
 20
61.5981765242
 30
0.0
 10
22.73014863
 20
61.5979793639
 30
0.0
 10
22.7253438476
 20
61.5978066918
 30
0.0
 10
22.7226149982
 20
61.5976944488
 30
0.0
 10
22.720553001
 20
61.5975623431
 30
0.0
 10
22.7189366762
 20
61.5974796105
 30
0.0
 10
22.7182169834
 20
61.5973138731
 30
0.0
 10
22.7176062492
 20
61.5972853068
 30
0.0
 10
22.7176073471
 20
61.5971764738
 30
0.0
  0
SPLINE
  5
31E
100
AcDbEntity
  8
0
100
AcDbSpline
 62
7
  6
CONTINUOUS
 70
0
 71
3
 72
36
 73
32
 74
0
 42
0.0000001
 43
0.0000001
 44
0.0000000001
 40
0.0
 40
0.0
 40
0.0
 40
0.0
 40
0.0000816753
 40
0.0003100671
 40
0.000688354
 40
0.0012168499
 40
0.0018955294
 40
0.0027242741
 40
0.0048313202
 40
0.0075366025
 40
0.0108386283
 40
0.0147358688
 40
0.0192267781
 40
0.0243093652
 40
0.0299798706
 40
0.0430678038
 40
0.0584568991
 40
0.0761134583
 40
0.0960001268
 40
0.1180648606
 40
0.1422519171
 40
0.1685055517
 40
0.226963625
 40
0.2928630987
 40
0.3655805457
 40
0.4444069091
 40
0.5285918932
 40
0.6173059104
 40
0.7096975226
 40
0.8049073675
 40
1.0
 40
1.0
 40
1.0
 40
1.0
 10
57.1441754722
 20
61.597177484
 30
0.0
 10
57.1441765715
 20
61.5972863163
 30
0.0
 10
57.1435658275
 20
61.5973148687
 30
0.0
 10
57.1428461381
 20
61.5974805946
 30
0.0
 10
57.1412297993
 20
61.5975632994
 30
0.0
 10
57.1391677914
 20
61.5976953744
 30
0.0
 10
57.1364389252
 20
61.5978075788
 30
0.0
 10
57.131634117
 20
61.5979801882
 30
0.0
 10
57.1241137952
 20
61.5981772618
 30
0.0
 10
57.1133056011
 20
61.5983988555
 30
0.0
 10
57.100107943
 20
61.5986138627
 30
0.0
 10
57.0845317007
 20
61.5988234641
 30
0.0
 10
57.0665820674
 20
61.5990263491
 30
0.0
 10
57.0462693775
 20
61.5992223921
 30
0.0
 10
57.0145006826
 20
61.5994870208
 30
0.0
 10
56.9689977816
 20
61.5997908319
 30
0.0
 10
56.907522481
 20
61.6001115018
 30
0.0
 10
56.8369871715
 20
61.6004013957
 30
0.0
 10
56.7575559493
 20
61.6006593784
 30
0.0
 10
56.6694222695
 20
61.6008846426
 30
0.0
 10
56.5728040812
 20
61.6010764803
 30
0.0
 10
56.4276892838
 20
61.6012944372
 30
0.0
 10
56.22698977
 20
61.601467995
 30
0.0
 10
55.9643740296
 20
61.601531557
 30
0.0
 10
55.6746161713
 20
61.6014541348
 30
0.0
 10
55.3604917034
 20
61.6012368048
 30
0.0
 10
55.0250508407
 20
61.6008806411
 30
0.0
 10
54.6715335209
 20
61.6003898798
 30
0.0
 10
54.3033250127
 20
61.5997689122
 30
0.0
 10
53.7933602776
 20
61.5987675637
 30
0.0
 10
53.4065136786
 20
61.5978550718
 30
0.0
 10
53.1465404587
 20
61.5971764927
 30
0.0
  0
SPLINE
  5
31F
100
AcDbEntity
  8
0
100
AcDbSpline
 62
7
  6
CONTINUOUS
 70
0
 71
3
 72
15
 73
11
 74
0
 42
0.0000001
 43
0.0000001
 44
0.0000000001
 40
0.0
 40
0.0
 40
0.0
 40
0.0
 40
0.0385345735
 40
0.0844775898
 40
0.1933827897
 40
0.3169275128
 40
0.4484697464
 40
0.5842118346
 40
0.7220719554
 40
1.0
 40
1.0
 40
1.0
 40
1.0
 10
52.3212725491
 20
99.6199104531
 30
0.0
 10
52.3212710943
 20
99.6022006164
 30
0.0
 10
52.3261555199
 20
99.5634365413
 30
0.0
 10
52.3472294357
 20
99.4770684543
 30
0.0
 10
52.3881532211
 20
99.355695385
 30
0.0
 10
52.4431264785
 20
99.1977548944
 30
0.0
 10
52.4977354325
 20
99.0265819074
 30
0.0
 10
52.5455411082
 20
98.8465056527
 30
0.0
 10
52.5948611672
 20
98.5977624858
 30
0.0
 10
52.6109409394
 20
98.4062871854
 30
0.0
 10
52.6109401852
 20
98.2785561678
 30
0.0
  0
SPLINE
  5
320
100
AcDbEntity
  8
0
100
AcDbSpline
 62
7
  6
CONTINUOUS
 70
0
 71
3
 72
19
 73
15
 74
0
 42
0.0000001
 43
0.0000001
 44
0.0000000001
 40
0.0
 40
0.0
 40
0.0
 40
0.0
 40
0.0128326155
 40
0.0286137211
 40
0.0684796204
 40
0.1176333772
 40
0.1737348192
 40
0.2347911485
 40
0.2992831443
 40
0.4345213751
 40
0.5741054938
 40
0.7155176913
 40
0.8576492559
 40
1.0
 40
1.0
 40
1.0
 40
1.0
 10
26.3060364774
 20
99.6744687193
 30
0.0
 10
26.3060359714
 20
99.6682016835
 30
0.0
 10
26.3042350537
 20
99.6542451052
 30
0.0
 10
26.2956147262
 20
99.6218990955
 30
0.0
 10
26.2765433845
 20
99.5742655016
 30
0.0
 10
26.2468587586
 20
99.5099373078
 30
0.0
 10
26.2115663318
 20
99.4367727928
 30
0.0
 10
26.1733885699
 20
99.3566974063
 30
0.0
 10
26.1204874806
 20
99.2408375303
 30
0.0
 10
26.0574482656
 20
99.0874700352
 30
0.0
 10
25.9935241191
 20
98.8942961435
 30
0.0
 10
25.9449103491
 20
98.6931773971
 30
0.0
 10
25.9146708534
 20
98.4870990876
 30
0.0
 10
25.9077611966
 20
98.3480756826
 30
0.0
 10
25.9077611966
 20
98.2785561678
 30
0.0
  0
SPLINE
  5
321
100
AcDbEntity
  8
0
100
AcDbSpline
 62
7
  6
CONTINUOUS
 70
0
 71
3
 72
15
 73
11
 74
0
 42
0.0000001
 43
0.0000001
 44
0.0000000001
 40
0.0
 40
0.0
 40
0.0
 40
0.0
 40
0.0385346258
 40
0.0844776641
 40
0.1933828688
 40
0.3169276
 40
0.4484698271
 40
0.5842119496
 40
0.722072062
 40
1.0
 40
1.0
 40
1.0
 40
1.0
 10
27.5405103029
 20
99.6199104509
 30
0.0
 10
27.540511763
 20
99.6022005901
 30
0.0
 10
27.5356273111
 20
99.5634364824
 30
0.0
 10
27.5145534152
 20
99.4770683547
 30
0.0
 10
27.4736295637
 20
99.3556952863
 30
0.0
 10
27.4186563687
 20
99.1977547737
 30
0.0
 10
27.3640473353
 20
99.0265817874
 30
0.0
 10
27.3162418471
 20
98.8465054876
 30
0.0
 10
27.2669212699
 20
98.5977624188
 30
0.0
 10
27.2508426694
 20
98.406287137
 30
0.0
 10
27.2508426694
 20
98.2785561678
 30
0.0
  0
SPLINE
  5
322
100
AcDbEntity
  8
0
100
AcDbSpline
 62
7
  6
CONTINUOUS
 70
0
 71
3
 72
14
 73
10
 74
0
 42
0.0000001
 43
0.0000001
 44
0.0000000001
 40
0.0
 40
0.0
 40
0.0
 40
0.0
 40
0.0973434772
 40
0.2099248749
 40
0.3324690942
 40
0.4611779356
 40
0.5935902001
 40
0.7281498296
 40
1.0
 40
1.0
 40
1.0
 40
1.0
 10
50.5652270489
 20
99.5350147551
 30
0.0
 10
50.5652246882
 20
99.4936725537
 30
0.0
 10
50.5768538329
 20
99.404746828
 30
0.0
 10
50.6069326892
 20
99.2668892646
 30
0.0
 10
50.6435023253
 20
99.1167164762
 30
0.0
 10
50.6803442878
 20
98.9579949914
 30
0.0
 10
50.7131617952
 20
98.7931250593
 30
0.0
 10
50.7474258698
 20
98.5668147983
 30
0.0
 10
50.7587472639
 20
98.3940121267
 30
0.0
 10
50.7587472639
 20
98.2785561678
 30
0.0
  0
SPLINE
  5
323
100
AcDbEntity
  8
0
100
AcDbSpline
 62
7
  6
CONTINUOUS
 70
0
 71
3
 72
19
 73
15
 74
0
 42
0.0000001
 43
0.0000001
 44
0.0000000001
 40
0.0
 40
0.0
 40
0.0
 40
0.0
 40
0.0128326204
 40
0.0286137538
 40
0.0684796538
 40
0.1176334047
 40
0.173734825
 40
0.234791119
 40
0.2992831022
 40
0.4345213175
 40
0.5741054072
 40
0.7155176056
 40
0.8576492306
 40
1.0
 40
1.0
 40
1.0
 40
1.0
 10
53.5557463768
 20
99.6744687398
 30
0.0
 10
53.5557468817
 20
99.6682017016
 30
0.0
 10
53.557547814
 20
99.6542451088
 30
0.0
 10
53.5661681121
 20
99.6218990751
 30
0.0
 10
53.5852394909
 20
99.5742654797
 30
0.0
 10
53.6149240984
 20
99.5099372933
 30
0.0
 10
53.650216525
 20
99.4367728102
 30
0.0
 10
53.6883942621
 20
99.3566974486
 30
0.0
 10
53.7412953452
 20
99.2408376018
 30
0.0
 10
53.8043345495
 20
99.0874701305
 30
0.0
 10
53.8682587077
 20
98.8942962619
 30
0.0
 10
53.9168724668
 20
98.6931774944
 30
0.0
 10
53.9471120022
 20
98.4870991454
 30
0.0
 10
53.9540216581
 20
98.3480756958
 30
0.0
 10
53.9540216581
 20
98.2785561678
 30
0.0
  0
SPLINE
  5
324
100
AcDbEntity
  8
0
100
AcDbSpline
 62
7
  6
CONTINUOUS
 70
0
 71
3
 72
14
 73
10
 74
0
 42
0.0000001
 43
0.0000001
 44
0.0000000001
 40
0.0
 40
0.0
 40
0.0
 40
0.0
 40
0.271849193
 40
0.4064081622
 40
0.5388206718
 40
0.6675300705
 40
0.7900746342
 40
0.902656334
 40
1.0
 40
1.0
 40
1.0
 40
1.0
 10
29.1030355907
 20
98.2785561678
 30
0.0
 10
29.1030355907
 20
98.394011714
 30
0.0
 10
29.1143562126
 20
98.566813768
 30
0.0
 10
29.1486211357
 20
98.7931233124
 30
0.0
 10
29.1814382528
 20
98.957993376
 30
0.0
 10
29.2182802872
 20
99.1167153526
 30
0.0
 10
29.2548500512
 20
99.2668886409
 30
0.0
 10
29.2849289382
 20
99.404746555
 30
0.0
 10
29.2965582217
 20
99.4936724852
 30
0.0
 10
29.2965558222
 20
99.5350147676
 30
0.0
  0
SPLINE
  5
325
100
AcDbEntity
  8
0
100
AcDbSpline
 62
7
  6
CONTINUOUS
 70
0
 71
3
 72
15
 73
11
 74
0
 42
0.0000001
 43
0.0000001
 44
0.0000000001
 40
0.0
 40
0.0
 40
0.0
 40
0.0
 40
0.4174564995
 40
0.5860002786
 40
0.7258406412
 40
0.8363667559
 40
0.9173491801
 40
0.9470409871
 40
0.9699944523
 40
1.0
 40
1.0
 40
1.0
 40
1.0
 10
46.8271414273
 20
100.9517865823
 30
0.0
 10
46.8604608731
 20
100.9517870989
 30
0.0
 10
46.9072469891
 20
100.9523702474
 30
0.0
 10
46.9651105509
 20
100.9553519836
 30
0.0
 10
46.9984329673
 20
100.9582101455
 30
0.0
 10
47.0246445394
 20
100.9618740652
 30
0.0
 10
47.0419114793
 20
100.9656498356
 30
0.0
 10
47.0519522427
 20
100.96950993
 30
0.0
 10
47.057658454
 20
100.9725310015
 30
0.0
 10
47.0608914273
 20
100.9763254198
 30
0.0
 10
47.0608914273
 20
100.9787203238
 30
0.0
  0
SPLINE
  5
326
100
AcDbEntity
  8
0
100
AcDbSpline
 62
7
  6
CONTINUOUS
 70
0
 71
3
 72
13
 73
9
 74
0
 42
0.0000001
 43
0.0000001
 44
0.0000000001
 40
0.0
 40
0.0
 40
0.0
 40
0.0
 40
0.3573135791
 40
0.494924155
 40
0.6079754318
 40
0.7031109853
 40
0.7919642768
 40
1.0
 40
1.0
 40
1.0
 40
1.0
 10
53.6361310131
 20
99.6944295904
 30
0.0
 10
53.6248916384
 20
99.6990827927
 30
0.0
 10
53.6088177607
 20
99.7047056721
 30
0.0
 10
53.5881886337
 20
99.7072321011
 30
0.0
 10
53.5763384393
 20
99.706276552
 30
0.0
 10
53.5667588492
 20
99.7023652686
 30
0.0
 10
53.5572708072
 20
99.6924106019
 30
0.0
 10
53.5557458062
 20
99.6815511944
 30
0.0
 10
53.5557463768
 20
99.6744687398
 30
0.0
  0
SPLINE
  5
327
100
AcDbEntity
  8
0
100
AcDbSpline
 62
7
  6
CONTINUOUS
 70
0
 71
3
 72
12
 73
8
 74
0
 42
0.0000001
 43
0.0000001
 44
0.0000000001
 40
0.0
 40
0.0
 40
0.0
 40
0.0
 40
0.5103679657
 40
0.6388031305
 40
0.7664086596
 40
0.889802508
 40
1.0
 40
1.0
 40
1.0
 40
1.0
 10
54.334711085
 20
98.2785561678
 30
0.0
 10
54.334711085
 20
98.5407056159
 30
0.0
 10
54.2726012572
 20
98.8759198541
 30
0.0
 10
54.0963634219
 20
99.2284099158
 30
0.0
 10
53.9881794208
 20
99.3912690164
 30
0.0
 10
53.8656757701
 20
99.5312440427
 30
0.0
 10
53.7741494242
 20
99.6098587328
 30
0.0
 10
53.7276816021
 20
99.6421791393
 30
0.0
  0
SPLINE
  5
328
100
AcDbEntity
  8
0
100
AcDbSpline
 62
7
  6
CONTINUOUS
 70
0
 71
3
 72
9
 73
5
 74
0
 42
0.0000001
 43
0.0000001
 44
0.0000000001
 40
0.0
 40
0.0
 40
0.0
 40
0.0
 40
0.545398079
 40
1.0
 40
1.0
 40
1.0
 40
1.0
 10
53.7276816021
 20
99.6421791393
 30
0.0
 10
53.7119281238
 20
99.6531363738
 30
0.0
 10
53.6822976395
 20
99.672174958
 30
0.0
 10
53.6509093583
 20
99.6883114153
 30
0.0
 10
53.6361310131
 20
99.6944297832
 30
0.0
  0
SPLINE
  5
329
100
AcDbEntity
  8
0
100
AcDbSpline
 62
7
  6
CONTINUOUS
 70
0
 71
3
 72
18
 73
14
 74
0
 42
0.0000001
 43
0.0000001
 44
0.0000000001
 40
0.0
 40
0.0
 40
0.0
 40
0.0
 40
0.0392024309
 40
0.0884187024
 40
0.1462936496
 40
0.2095495421
 40
0.2752557362
 40
0.3416176846
 40
0.4734990156
 40
0.6043819188
 40
0.7354327875
 40
0.8673554432
 40
1.0
 40
1.0
 40
1.0
 40
1.0
 10
50.6456119969
 20
99.6944150944
 30
0.0
 10
50.6681973665
 20
99.7037657958
 30
0.0
 10
50.7246340444
 20
99.7109453676
 30
0.0
 10
50.8150531744
 20
99.6948445222
 30
0.0
 10
50.9145814395
 20
99.6561136264
 30
0.0
 10
51.0154896555
 20
99.5970887831
 30
0.0
 10
51.1114791975
 20
99.5215384081
 30
0.0
 10
51.2272732772
 20
99.4040742525
 30
0.0
 10
51.3451611206
 20
99.2340223146
 30
0.0
 10
51.4449867763
 20
99.0084667447
 30
0.0
 10
51.5098733116
 20
98.7708360336
 30
0.0
 10
51.5459679288
 20
98.5263475602
 30
0.0
 10
51.5537322771
 20
98.3612661528
 30
0.0
 10
51.5537322771
 20
98.2785561678
 30
0.0
  0
SPLINE
  5
32A
100
AcDbEntity
  8
0
100
AcDbSpline
 62
7
  6
CONTINUOUS
 70
0
 71
3
 72
10
 73
6
 74
0
 42
0.0000001
 43
0.0000001
 44
0.0000000001
 40
0.0
 40
0.0
 40
0.0
 40
0.0
 40
0.272891373
 40
0.5003837294
 40
1.0
 40
1.0
 40
1.0
 40
1.0
 10
27.4601256128
 20
99.7068384972
 30
0.0
 10
27.472308714
 20
99.7068384972
 30
0.0
 10
27.4950570433
 20
99.7043047528
 30
0.0
 10
27.5344313033
 20
99.6789731553
 30
0.0
 10
27.5405084639
 20
99.6422155736
 30
0.0
 10
27.5405103029
 20
99.6199104509
 30
0.0
  0
SPLINE
  5
32B
100
AcDbEntity
  8
0
100
AcDbSpline
 62
7
  6
CONTINUOUS
 70
0
 71
3
 72
13
 73
9
 74
0
 42
0.0000001
 43
0.0000001
 44
0.0000000001
 40
0.0
 40
0.0
 40
0.0
 40
0.0
 40
0.3573350645
 40
0.4949417498
 40
0.6079923414
 40
0.7031254758
 40
0.791971633
 40
1.0
 40
1.0
 40
1.0
 40
1.0
 10
26.2256518415
 20
99.6944150944
 30
0.0
 10
26.2368923708
 20
99.6990688519
 30
0.0
 10
26.2529626683
 20
99.7047059644
 30
0.0
 10
26.2735939065
 20
99.7072345642
 30
0.0
 10
26.2854440716
 20
99.7062760016
 30
0.0
 10
26.29502366
 20
99.7023650458
 30
0.0
 10
26.3045123135
 20
99.6924108114
 30
0.0
 10
26.3060370492
 20
99.6815512422
 30
0.0
 10
26.3060364774
 20
99.6744687193
 30
0.0
  0
SPLINE
  5
32C
100
AcDbEntity
  8
0
100
AcDbSpline
 62
7
  6
CONTINUOUS
 70
0
 71
3
 72
13
 73
9
 74
0
 42
0.0000001
 43
0.0000001
 44
0.0000000001
 40
0.0
 40
0.0
 40
0.0
 40
0.0
 40
0.1037053727
 40
0.2268625502
 40
0.5056691931
 40
0.7812449525
 40
0.900741225
 40
1.0
 40
1.0
 40
1.0
 40
1.0
 10
45.2946414273
 20
101.1818903814
 30
0.0
 10
45.3489634035
 20
101.1818903814
 30
0.0
 10
45.4677947183
 20
101.1793869598
 30
0.0
 10
45.7324068356
 20
101.1672695621
 30
0.0
 10
46.0863857981
 20
101.1407128522
 30
0.0
 10
46.4375214414
 20
101.1038840251
 30
0.0
 10
46.6941205614
 20
101.0690686411
 30
0.0
 10
46.8072582472
 20
101.0507340966
 30
0.0
 10
46.8583759239
 20
101.0412349131
 30
0.0
  0
SPLINE
  5
32D
100
AcDbEntity
  8
0
100
AcDbSpline
 62
7
  6
CONTINUOUS
 70
0
 71
3
 72
12
 73
8
 74
0
 42
0.0000001
 43
0.0000001
 44
0.0000000001
 40
0.0
 40
0.0
 40
0.0
 40
0.0
 40
0.4096429126
 40
0.7132366399
 40
0.9066911779
 40
0.9637532564
 40
1.0
 40
1.0
 40
1.0
 40
1.0
 10
46.9109840256
 20
101.0309256262
 30
0.0
 10
46.9325942775
 20
101.0264388778
 30
0.0
 10
46.9701604905
 20
101.0180672071
 30
0.0
 10
47.0170907918
 20
101.0049055776
 30
0.0
 10
47.0452654696
 20
100.9940461701
 30
0.0
 10
47.0580301285
 20
100.9853981301
 30
0.0
 10
47.0608914273
 20
100.9806714321
 30
0.0
 10
47.0608914273
 20
100.9787184974
 30
0.0
  0
SPLINE
  5
32E
100
AcDbEntity
  8
0
100
AcDbSpline
 62
7
  6
CONTINUOUS
 70
0
 71
3
 72
9
 73
5
 74
0
 42
0.0000001
 43
0.0000001
 44
0.0000000001
 40
0.0
 40
0.0
 40
0.0
 40
0.0
 40
0.4524636737
 40
1.0
 40
1.0
 40
1.0
 40
1.0
 10
52.4016572418
 20
99.7068384972
 30
0.0
 10
52.416400148
 20
99.7068384972
 30
0.0
 10
52.4489509892
 20
99.7021152007
 30
0.0
 10
52.4800614032
 20
99.6921456572
 30
0.0
 10
52.4967182669
 20
99.685755031
 30
0.0
  0
SPLINE
  5
32F
100
AcDbEntity
  8
0
100
AcDbSpline
 62
7
  6
CONTINUOUS
 70
0
 71
3
 72
14
 73
10
 74
0
 42
0.0000001
 43
0.0000001
 44
0.0000000001
 40
0.0
 40
0.0
 40
0.0
 40
0.0
 40
0.0509746306
 40
0.1082650323
 40
0.232377771
 40
0.3604835837
 40
0.4886491322
 40
0.7437745867
 40
1.0
 40
1.0
 40
1.0
 40
1.0
 10
52.4967182669
 20
99.685755031
 30
0.0
 10
52.5230790105
 20
99.6756413829
 30
0.0
 10
52.5771797526
 20
99.6491865719
 30
0.0
 10
52.6852097741
 20
99.5788304582
 30
0.0
 10
52.8130383415
 20
99.4627721881
 30
0.0
 10
52.9425292303
 20
99.2954301343
 30
0.0
 10
53.079507022
 20
99.0463810415
 30
0.0
 10
53.1849601868
 20
98.7043965216
 30
0.0
 10
53.2108201732
 20
98.4204765802
 30
0.0
 10
53.2108201732
 20
98.2785561678
 30
0.0
  0
SPLINE
  5
330
100
AcDbEntity
  8
0
100
AcDbSpline
 62
7
  6
CONTINUOUS
 70
0
 71
3
 72
11
 73
7
 74
0
 42
0.0000001
 43
0.0000001
 44
0.0000000001
 40
0.0
 40
0.0
 40
0.0
 40
0.0
 40
0.2346182129
 40
0.4644566249
 40
0.7154318419
 40
1.0
 40
1.0
 40
1.0
 40
1.0
 10
50.6456119969
 20
99.6944150941
 30
0.0
 10
50.6318960236
 20
99.6887364635
 30
0.0
 10
50.606282127
 20
99.6725734788
 30
0.0
 10
50.5802895418
 20
99.6342308784
 30
0.0
 10
50.567277237
 20
99.5870029449
 30
0.0
 10
50.5652280771
 20
99.5530202686
 30
0.0
 10
50.5652270489
 20
99.5350147551
 30
0.0
  0
LINE
  5
331
100
AcDbEntity
  8
0
100
AcDbLine
 62
7
  6
CONTINUOUS
 10
47.6728555423
 20
72.032769784
 11
47.0201138675
 21
73.332769784
  0
SPLINE
  5
332
100
AcDbEntity
  8
0
100
AcDbSpline
 62
7
  6
CONTINUOUS
 70
0
 71
3
 72
11
 73
7
 74
0
 42
0.0000001
 43
0.0000001
 44
0.0000000001
 40
0.0
 40
0.0
 40
0.0
 40
0.0
 40
0.2845598101
 40
0.5355310499
 40
0.7653550606
 40
1.0
 40
1.0
 40
1.0
 40
1.0
 10
29.2965558222
 20
99.5350147676
 30
0.0
 10
29.2965547772
 20
99.5530204815
 30
0.0
 10
29.2945049099
 20
99.5870030879
 30
0.0
 10
29.2814946213
 20
99.6342338479
 30
0.0
 10
29.2554938621
 20
99.6725700276
 30
0.0
 10
29.2298889819
 20
99.6887503564
 30
0.0
 10
29.2161708578
 20
99.6944297832
 30
0.0
  0
SPLINE
  5
333
100
AcDbEntity
  8
0
100
AcDbSpline
 62
7
  6
CONTINUOUS
 70
0
 71
3
 72
18
 73
14
 74
0
 42
0.0000001
 43
0.0000001
 44
0.0000000001
 40
0.0
 40
0.0
 40
0.0
 40
0.0
 40
0.0392017853
 40
0.0884180949
 40
0.1462931632
 40
0.2095491671
 40
0.2752553989
 40
0.3416173528
 40
0.4734987074
 40
0.6043816604
 40
0.7354325804
 40
0.8673553464
 40
1.0
 40
1.0
 40
1.0
 40
1.0
 10
29.2161708578
 20
99.6944295904
 30
0.0
 10
29.1935858407
 20
99.7037799907
 30
0.0
 10
29.1371455045
 20
99.7109344724
 30
0.0
 10
29.0467286509
 20
99.6948476199
 30
0.0
 10
28.9471998089
 20
99.6561118203
 30
0.0
 10
28.8462919409
 20
99.5970882095
 30
0.0
 10
28.7503025418
 20
99.5215373253
 30
0.0
 10
28.6345087954
 20
99.404073305
 30
0.0
 10
28.5166212665
 20
99.234021419
 30
0.0
 10
28.416795876
 20
99.0084660975
 30
0.0
 10
28.3519094654
 20
98.7708356131
 30
0.0
 10
28.3158149159
 20
98.5263473607
 30
0.0
 10
28.3080505776
 20
98.3612660834
 30
0.0
 10
28.3080505776
 20
98.2785561678
 30
0.0
  0
SPLINE
  5
334
100
AcDbEntity
  8
0
100
AcDbSpline
 62
7
  6
CONTINUOUS
 70
0
 71
3
 72
9
 73
5
 74
0
 42
0.0000001
 43
0.0000001
 44
0.0000000001
 40
0.0
 40
0.0
 40
0.0
 40
0.0
 40
0.4524686311
 40
1.0
 40
1.0
 40
1.0
 40
1.0
 10
27.4601256128
 20
99.7068384972
 30
0.0
 10
27.4453849567
 20
99.7068384972
 30
0.0
 10
27.4128394149
 20
99.7021166297
 30
0.0
 10
27.3817337726
 20
99.6921497156
 30
0.0
 10
27.3650795606
 20
99.6857607761
 30
0.0
  0
SPLINE
  5
335
100
AcDbEntity
  8
0
100
AcDbSpline
 62
7
  6
CONTINUOUS
 70
0
 71
3
 72
14
 73
10
 74
0
 42
0.0000001
 43
0.0000001
 44
0.0000000001
 40
0.0
 40
0.0
 40
0.0
 40
0.0
 40
0.0509732022
 40
0.1082628128
 40
0.2323751782
 40
0.3604813701
 40
0.4886473594
 40
0.7437736401
 40
1.0
 40
1.0
 40
1.0
 40
1.0
 10
27.3650795606
 20
99.6857607761
 30
0.0
 10
27.338718949
 20
99.6756482381
 30
0.0
 10
27.2846180591
 20
99.6491951461
 30
0.0
 10
27.1765867161
 20
99.5788414152
 30
0.0
 10
27.0487554159
 20
99.4627842397
 30
0.0
 10
26.9192611182
 20
99.2954419104
 30
0.0
 10
26.782279431
 20
99.0463907594
 30
0.0
 10
26.6768233272
 20
98.7044021266
 30
0.0
 10
26.6509626814
 20
98.4204784626
 30
0.0
 10
26.6509626814
 20
98.2785561678
 30
0.0
  0
SPLINE
  5
336
100
AcDbEntity
  8
0
100
AcDbSpline
 62
7
  6
CONTINUOUS
 70
0
 71
3
 72
9
 73
5
 74
0
 42
0.0000001
 43
0.0000001
 44
0.0000000001
 40
0.0
 40
0.0
 40
0.0
 40
0.0
 40
0.4544993434
 40
1.0
 40
1.0
 40
1.0
 40
1.0
 10
26.2256518415
 20
99.6944150941
 30
0.0
 10
26.2108285823
 20
99.6882780295
 30
0.0
 10
26.1793315784
 20
99.6721003802
 30
0.0
 10
26.1496148646
 20
99.6529812234
 30
0.0
 10
26.1338124633
 20
99.641978164
 30
0.0
  0
SPLINE
  5
337
100
AcDbEntity
  8
0
100
AcDbSpline
 62
7
  6
CONTINUOUS
 70
0
 71
3
 72
12
 73
8
 74
0
 42
0.0000001
 43
0.0000001
 44
0.0000000001
 40
0.0
 40
0.0
 40
0.0
 40
0.0
 40
0.1102349235
 40
0.2336348936
 40
0.3612349446
 40
0.4896617484
 40
1.0
 40
1.0
 40
1.0
 40
1.0
 10
26.1338124633
 20
99.641978164
 30
0.0
 10
26.0873555602
 20
99.6096306713
 30
0.0
 10
25.9958561523
 20
99.530994185
 30
0.0
 10
25.8734042628
 20
99.3910029659
 30
0.0
 10
25.7652794547
 20
99.2281629546
 30
0.0
 10
25.5891456854
 20
98.8757452084
 30
0.0
 10
25.5270717696
 20
98.5406314794
 30
0.0
 10
25.5270717696
 20
98.2785561678
 30
0.0
  0
SPLINE
  5
338
100
AcDbEntity
  8
0
100
AcDbSpline
 62
7
  6
CONTINUOUS
 70
0
 71
3
 72
10
 73
6
 74
0
 42
0.0000001
 43
0.0000001
 44
0.0000000001
 40
0.0
 40
0.0
 40
0.0
 40
0.0
 40
0.2728914831
 40
0.5003838111
 40
1.0
 40
1.0
 40
1.0
 40
1.0
 10
52.4016572418
 20
99.7068384972
 30
0.0
 10
52.3894741358
 20
99.7068384972
 30
0.0
 10
52.366725802
 20
99.70430475
 30
0.0
 10
52.32735155
 20
99.6789731454
 30
0.0
 10
52.3212743814
 20
99.642215572
 30
0.0
 10
52.3212725491
 20
99.6199104531
 30
0.0
  0
SPLINE
  5
339
100
AcDbEntity
  8
0
100
AcDbSpline
 62
7
  6
CONTINUOUS
 70
0
 71
3
 72
23
 73
19
 74
0
 42
0.0000001
 43
0.0000001
 44
0.0000000001
 40
0.0
 40
0.0
 40
0.0
 40
0.0
 40
0.1936081274
 40
0.3799160508
 40
0.5515011247
 40
0.6297413607
 40
0.7019198005
 40
0.7673088973
 40
0.8253243293
 40
0.8754291264
 40
0.9171206321
 40
0.9499134526
 40
0.9628827799
 40
0.9736191217
 40
0.9822745168
 40
0.9891300913
 40
0.9947284896
 40
1.0
 40
1.0
 40
1.0
 40
1.0
 10
25.4308914273
 20
43.4827695078
 30
0.0
 10
25.1056469429
 20
43.4835263468
 30
0.0
 10
24.4674228825
 20
43.4860655017
 30
0.0
 10
23.540977857
 20
43.4939067327
 30
0.0
 10
22.8083640194
 20
43.5028833858
 30
0.0
 10
22.2674868052
 20
43.5111147993
 30
0.0
 10
21.905009046
 20
43.5177995287
 30
0.0
 10
21.5765310791
 20
43.5254047342
 30
0.0
 10
21.2852013157
 20
43.5349493314
 30
0.0
 10
21.033854483
 20
43.548607913
 30
0.0
 10
20.8252204227
 20
43.5646260939
 30
0.0
 10
20.678410012
 20
43.5731395348
 30
0.0
 10
20.5834453629
 20
43.570142063
 30
0.0
 10
20.5294410221
 20
43.5628334426
 30
0.0
 10
20.4868438546
 20
43.5506635575
 30
0.0
 10
20.4552648329
 20
43.5335987034
 30
0.0
 10
20.4349779958
 20
43.5105387198
 30
0.0
 10
20.4308653152
 20
43.4918690694
 30
0.0
 10
20.4308917184
 20
43.4830134148
 30
0.0
  0
SPLINE
  5
33A
100
AcDbEntity
  8
0
100
AcDbSpline
 62
7
  6
CONTINUOUS
 70
0
 71
3
 72
15
 73
11
 74
0
 42
0.0000001
 43
0.0000001
 44
0.0000000001
 40
0.0
 40
0.0
 40
0.0
 40
0.0
 40
0.0875313759
 40
0.1807845617
 40
0.2829203331
 40
0.3952575048
 40
0.5193891413
 40
0.6585250075
 40
0.8170770423
 40
1.0
 40
1.0
 40
1.0
 40
1.0
 10
21.1544751298
 20
59.6272220752
 30
0.0
 10
21.0899769794
 20
59.7038898353
 30
0.0
 10
20.955274447
 20
59.8609643216
 30
0.0
 10
20.7551136276
 20
60.1158562747
 30
0.0
 10
20.5615967119
 20
60.4106681897
 30
0.0
 10
20.3737563867
 20
60.7500527725
 30
0.0
 10
20.1935097936
 20
61.1408032226
 30
0.0
 10
20.0301969937
 20
61.5961841553
 30
0.0
 10
19.9015106218
 20
62.1314114744
 30
0.0
 10
19.8403846672
 20
62.5192887076
 30
0.0
 10
19.8310142575
 20
62.7284550286
 30
0.0
  0
SPLINE
  5
33B
100
AcDbEntity
  8
0
100
AcDbSpline
 62
7
  6
CONTINUOUS
 70
0
 71
3
 72
10
 73
6
 74
0
 42
0.0000001
 43
0.0000001
 44
0.0000000001
 40
0.0
 40
0.0
 40
0.0
 40
0.0
 40
0.2420080353
 40
0.4877592126
 40
1.0
 40
1.0
 40
1.0
 40
1.0
 10
22.1077147689
 20
52.9574534919
 30
0.0
 10
22.1446611846
 20
53.5028127054
 30
0.0
 10
22.1589175391
 20
54.6070414699
 30
0.0
 10
21.9491017063
 20
56.8589385567
 30
0.0
 10
21.5285721624
 20
58.5324040399
 30
0.0
 10
21.1544751298
 20
59.6272220752
 30
0.0
  0
SPLINE
  5
33C
100
AcDbEntity
  8
0
100
AcDbSpline
 62
7
  6
CONTINUOUS
 70
0
 71
3
 72
13
 73
9
 74
0
 42
0.0000001
 43
0.0000001
 44
0.0000000001
 40
0.0
 40
0.0
 40
0.0
 40
0.0
 40
0.092945471
 40
0.2002508739
 40
0.4597662777
 40
0.5995732379
 40
0.7395374409
 40
1.0
 40
1.0
 40
1.0
 40
1.0
 10
19.7053300416
 20
62.9721082446
 30
0.0
 10
19.5966438735
 20
62.455913228
 30
0.0
 10
19.3665398277
 20
61.3428962461
 30
0.0
 10
18.872790159
 20
58.7805687672
 30
0.0
 10
18.3903040089
 20
55.9453937561
 30
0.0
 10
17.9513400503
 20
52.916178888
 30
0.0
 10
17.5617131018
 20
49.8748372925
 30
0.0
 10
17.3190818296
 20
47.6148519413
 30
0.0
 10
17.1809635869
 20
46.1430604607
 30
0.0
  0
SPLINE
  5
33D
100
AcDbEntity
  8
0
100
AcDbSpline
 62
7
  6
CONTINUOUS
 70
0
 71
3
 72
17
 73
13
 74
0
 42
0.0000001
 43
0.0000001
 44
0.0000000001
 40
0.0
 40
0.0
 40
0.0
 40
0.0
 40
0.0397391956
 40
0.0837432402
 40
0.1338069664
 40
0.190505501
 40
0.3193793657
 40
0.4553185762
 40
0.5985942371
 40
0.750264564
 40
0.8892465106
 40
1.0
 40
1.0
 40
1.0
 40
1.0
 10
22.0981784501
 20
62.8479803711
 30
0.0
 10
22.0979141634
 20
62.8827309295
 30
0.0
 10
22.0852141402
 20
62.9563257362
 30
0.0
 10
22.0302153858
 20
63.0613385312
 30
0.0
 10
21.9407795873
 20
63.1597689972
 30
0.0
 10
21.7735380446
 20
63.2819358238
 30
0.0
 10
21.5103365382
 20
63.3906242581
 30
0.0
 10
21.1585582562
 20
63.4589044843
 30
0.0
 10
20.7802484129
 20
63.4688394571
 30
0.0
 10
20.4022049923
 20
63.4158507827
 30
0.0
 10
20.0688539803
 20
63.2991488178
 30
0.0
 10
19.8838999444
 20
63.1737191019
 30
0.0
 10
19.8181983688
 20
63.1025587905
 30
0.0
  0
SPLINE
  5
33E
100
AcDbEntity
  8
0
100
AcDbSpline
 62
7
  6
CONTINUOUS
 70
0
 71
3
 72
9
 73
5
 74
0
 42
0.0000001
 43
0.0000001
 44
0.0000000001
 40
0.0
 40
0.0
 40
0.0
 40
0.0
 40
0.7493542343
 40
1.0
 40
1.0
 40
1.0
 40
1.0
 10
19.8210204035
 20
63.5089281487
 30
0.0
 10
19.7911721397
 20
63.3750265078
 30
0.0
 10
19.7525805745
 20
63.1960606529
 30
0.0
 10
19.7147474197
 20
63.0169378046
 30
0.0
 10
19.7052931481
 20
62.9720353256
 30
0.0
  0
SPLINE
  5
33F
100
AcDbEntity
  8
0
100
AcDbSpline
 62
7
  6
CONTINUOUS
 70
0
 71
3
 72
19
 73
15
 74
0
 42
0.0000001
 43
0.0000001
 44
0.0000000001
 40
0.0
 40
0.0
 40
0.0
 40
0.0
 40
0.0349134501
 40
0.0693973631
 40
0.1067818278
 40
0.1488873649
 40
0.2493353917
 40
0.3723150641
 40
0.5146543752
 40
0.671035021
 40
0.7524312764
 40
0.8352958986
 40
0.9195702549
 40
1.0
 40
1.0
 40
1.0
 40
1.0
 10
22.0672381906
 20
66.3932818946
 30
0.0
 10
22.0670882823
 20
66.4146530752
 30
0.0
 10
22.0601883161
 20
66.4575573867
 30
0.0
 10
22.0273325633
 20
66.515466439
 30
0.0
 10
21.9753659541
 20
66.5633221564
 30
0.0
 10
21.8782601116
 20
66.6170059684
 30
0.0
 10
21.7160742112
 20
66.6508887137
 30
0.0
 10
21.4911153373
 20
66.6420489609
 30
0.0
 10
21.2379511018
 20
66.5850345669
 30
0.0
 10
21.0220778339
 20
66.4947252026
 30
0.0
 10
20.8525738187
 20
66.3952623945
 30
0.0
 10
20.7304446577
 20
66.3037940981
 30
0.0
 10
20.6203861886
 20
66.1996576384
 30
0.0
 10
20.5611344853
 20
66.1150540175
 30
0.0
 10
20.5436553515
 20
66.0690274562
 30
0.0
  0
SPLINE
  5
340
100
AcDbEntity
  8
0
100
AcDbSpline
 62
7
  6
CONTINUOUS
 70
0
 71
3
 72
11
 73
7
 74
0
 42
0.0000001
 43
0.0000001
 44
0.0000000001
 40
0.0
 40
0.0
 40
0.0
 40
0.0
 40
0.240957065
 40
0.4893389251
 40
0.7429885148
 40
1.0
 40
1.0
 40
1.0
 40
1.0
 10
20.5436553515
 20
66.0690274562
 30
0.0
 10
20.4578251083
 20
65.8726847646
 30
0.0
 10
20.2954093297
 20
65.4685532501
 30
0.0
 10
20.0938354017
 20
64.8387108633
 30
0.0
 10
19.9328588445
 20
64.1826898175
 30
0.0
 10
19.8533573125
 20
63.735169082
 30
0.0
 10
19.8211800553
 20
63.5088850268
 30
0.0
  0
SPLINE
  5
341
100
AcDbEntity
  8
0
100
AcDbSpline
 62
7
  6
CONTINUOUS
 70
0
 71
3
 72
19
 73
15
 74
0
 42
0.0000001
 43
0.0000001
 44
0.0000000001
 40
0.0
 40
0.0
 40
0.0
 40
0.0
 40
0.023233834
 40
0.0511532312
 40
0.1075343426
 40
0.1639844443
 40
0.2230826601
 40
0.28423428
 40
0.3464564373
 40
0.4731878191
 40
0.602903481
 40
0.7339893135
 40
0.8687895631
 40
1.0
 40
1.0
 40
1.0
 40
1.0
 10
20.198779863
 20
67.0363592867
 30
0.0
 10
20.1994497959
 20
67.0265389875
 30
0.0
 10
20.1954764387
 20
67.004816344
 30
0.0
 10
20.1821574811
 20
66.9614266463
 30
0.0
 10
20.1663832325
 20
66.9038194922
 30
0.0
 10
20.1482843039
 20
66.8332915758
 30
0.0
 10
20.1272888658
 20
66.7614179323
 30
0.0
 10
20.1050831912
 20
66.6873757134
 30
0.0
 10
20.0752873509
 20
66.5856888792
 30
0.0
 10
20.0394724102
 20
66.4555191755
 30
0.0
 10
19.9982163747
 20
66.2965728016
 30
0.0
 10
19.9637825565
 20
66.1324965756
 30
0.0
 10
19.9295595808
 20
65.9678699151
 30
0.0
 10
19.912769258
 20
65.856088674
 30
0.0
 10
19.9095712298
 20
65.8005928203
 30
0.0
  0
SPLINE
  5
342
100
AcDbEntity
  8
0
100
AcDbSpline
 62
7
  6
CONTINUOUS
 70
0
 71
3
 72
14
 73
10
 74
0
 42
0.0000001
 43
0.0000001
 44
0.0000000001
 40
0.0
 40
0.0
 40
0.0
 40
0.0
 40
0.2319186124
 40
0.3740881285
 40
0.5226900357
 40
0.6657998297
 40
0.7943304158
 40
0.9048102762
 40
1.0
 40
1.0
 40
1.0
 40
1.0
 10
20.1987798801
 20
67.0363582204
 30
0.0
 10
20.3422074984
 20
67.1533304458
 30
0.0
 10
20.6279126293
 20
67.2811812221
 30
0.0
 10
21.0469140308
 20
67.3120293911
 30
0.0
 10
21.3917687918
 20
67.2469041467
 30
0.0
 10
21.6950628474
 20
67.0927372904
 30
0.0
 10
21.9165912588
 20
66.8755175972
 30
0.0
 10
22.0398017924
 20
66.6340227272
 30
0.0
 10
22.0667176666
 20
66.4692522285
 30
0.0
 10
22.0673846874
 20
66.3932907761
 30
0.0
  0
SPLINE
  5
343
100
AcDbEntity
  8
0
100
AcDbSpline
 62
7
  6
CONTINUOUS
 70
0
 71
3
 72
13
 73
9
 74
0
 42
0.0000001
 43
0.0000001
 44
0.0000000001
 40
0.0
 40
0.0
 40
0.0
 40
0.0
 40
0.0904310473
 40
0.1923354308
 40
0.4238638034
 40
0.5540434738
 40
0.6935058749
 40
1.0
 40
1.0
 40
1.0
 40
1.0
 10
20.954753648
 20
68.9242043464
 30
0.0
 10
20.8972313136
 20
68.8986540495
 30
0.0
 10
20.7877965079
 20
68.8155976982
 30
0.0
 10
20.609403965
 20
68.5784649779
 30
0.0
 10
20.4873245672
 20
68.2753338559
 30
0.0
 10
20.3887501548
 20
67.9412173636
 30
0.0
 10
20.2896723576
 20
67.5524061279
 30
0.0
 10
20.2313298141
 20
67.2471864491
 30
0.0
 10
20.1987798708
 20
67.0363592924
 30
0.0
  0
SPLINE
  5
344
100
AcDbEntity
  8
0
100
AcDbSpline
 62
7
  6
CONTINUOUS
 70
0
 71
3
 72
12
 73
8
 74
0
 42
0.0000001
 43
0.0000001
 44
0.0000000001
 40
0.0
 40
0.0
 40
0.0
 40
0.0
 40
0.209849589
 40
0.4555700593
 40
0.5895768274
 40
0.7271821665
 40
1.0
 40
1.0
 40
1.0
 40
1.0
 10
22.0547117634
 20
67.8454641539
 30
0.0
 10
22.0536736289
 20
67.964422585
 30
0.0
 10
22.0079749905
 20
68.2239950599
 30
0.0
 10
21.832709218
 20
68.5192892944
 30
0.0
 10
21.6133901363
 20
68.7168598914
 30
0.0
 10
21.3459116911
 20
68.8742084937
 30
0.0
 10
21.1092978662
 20
68.9242495968
 30
0.0
 10
20.9546384454
 20
68.9242043189
 30
0.0
  0
SPLINE
  5
345
100
AcDbEntity
  8
0
100
AcDbSpline
 62
7
  6
CONTINUOUS
 70
0
 71
3
 72
11
 73
7
 74
0
 42
0.0000001
 43
0.0000001
 44
0.0000000001
 40
0.0
 40
0.0
 40
0.0
 40
0.0
 40
0.2510808679
 40
0.5015749458
 40
0.7511799532
 40
1.0
 40
1.0
 40
1.0
 40
1.0
 10
17.9159893672
 20
70.766623535
 30
0.0
 10
17.8015468925
 20
70.7666492598
 30
0.0
 10
17.5710250625
 20
70.7271044519
 30
0.0
 10
17.2669886841
 20
70.5558637
 30
0.0
 10
17.0389180259
 20
70.293031267
 30
0.0
 10
16.9555775343
 20
70.0758344866
 30
0.0
 10
16.933943723
 20
69.9645049791
 30
0.0
  0
SPLINE
  5
346
100
AcDbEntity
  8
0
100
AcDbSpline
 62
7
  6
CONTINUOUS
 70
0
 71
3
 72
11
 73
7
 74
0
 42
0.0000001
 43
0.0000001
 44
0.0000000001
 40
0.0
 40
0.0
 40
0.0
 40
0.0
 40
0.2504753723
 40
0.5014744755
 40
0.7516514031
 40
1.0
 40
1.0
 40
1.0
 40
1.0
 10
17.746199399
 20
68.8366504153
 30
0.0
 10
17.7721035782
 20
68.9436941287
 30
0.0
 10
17.8599356966
 20
69.1509638766
 30
0.0
 10
18.0829992548
 20
69.4023921987
 30
0.0
 10
18.3735599682
 20
69.5696038514
 30
0.0
 10
18.5933633359
 20
69.6125294
 30
0.0
 10
18.7025253675
 20
69.6153451208
 30
0.0
  0
SPLINE
  5
347
100
AcDbEntity
  8
0
100
AcDbSpline
 62
7
  6
CONTINUOUS
 70
0
 71
3
 72
10
 73
6
 74
0
 42
0.0000001
 43
0.0000001
 44
0.0000000001
 40
0.0
 40
0.0
 40
0.0
 40
0.0
 40
0.2089170903
 40
0.5657068775
 40
1.0
 40
1.0
 40
1.0
 40
1.0
 10
16.933943723
 20
69.9645049791
 30
0.0
 10
16.9509614126
 20
69.8673079221
 30
0.0
 10
17.0339184671
 20
69.6098699927
 30
0.0
 10
17.306253237
 20
69.2156361641
 30
0.0
 10
17.5850472654
 20
68.9635608895
 30
0.0
 10
17.746199399
 20
68.8366504153
 30
0.0
  0
SPLINE
  5
348
100
AcDbEntity
  8
0
100
AcDbSpline
 62
7
  6
CONTINUOUS
 70
0
 71
3
 72
11
 73
7
 74
0
 42
0.0000001
 43
0.0000001
 44
0.0000000001
 40
0.0
 40
0.0
 40
0.0
 40
0.0
 40
0.2454088257
 40
0.5016038013
 40
0.7568352256
 40
1.0
 40
1.0
 40
1.0
 40
1.0
 10
20.2720207428
 20
81.4479649502
 30
0.0
 10
20.1647258791
 20
81.4485406038
 30
0.0
 10
19.9444964541
 20
81.4110560298
 30
0.0
 10
19.6439246236
 20
81.2579975392
 30
0.0
 10
19.4193013941
 20
81.0076184213
 30
0.0
 10
19.3279278831
 20
80.8051309617
 30
0.0
 10
19.3020446396
 20
80.7020145449
 30
0.0
  0
SPLINE
  5
349
100
AcDbEntity
  8
0
100
AcDbSpline
 62
7
  6
CONTINUOUS
 70
0
 71
3
 72
10
 73
6
 74
0
 42
0.0000001
 43
0.0000001
 44
0.0000000001
 40
0.0
 40
0.0
 40
0.0
 40
0.0
 40
0.3643775087
 40
0.6453362442
 40
1.0
 40
1.0
 40
1.0
 40
1.0
 10
21.1798566018
 20
14.0840672437
 30
0.0
 10
21.1672111314
 20
14.0793193745
 30
0.0
 10
21.1441600726
 20
14.0717666213
 30
0.0
 10
21.1089206353
 20
14.064311125
 30
0.0
 10
21.0812667713
 20
14.0671326773
 30
0.0
 10
21.0724976977
 20
14.0769283652
 30
0.0
  0
SPLINE
  5
34A
100
AcDbEntity
  8
0
100
AcDbSpline
 62
7
  6
CONTINUOUS
 70
0
 71
3
 72
17
 73
13
 74
0
 42
0.0000001
 43
0.0000001
 44
0.0000000001
 40
0.0
 40
0.0
 40
0.0
 40
0.0
 40
0.2175740503
 40
0.4090091791
 40
0.5741362413
 40
0.712789268
 40
0.8248085383
 40
0.9100485392
 40
0.942592244
 40
0.9684106631
 40
0.9875202812
 40
1.0
 40
1.0
 40
1.0
 40
1.0
 10
17.0774946492
 20
43.2698934984
 30
0.0
 10
16.8501301098
 20
43.2627131706
 30
0.0
 10
16.4227379118
 20
43.2485103257
 30
0.0
 10
15.822890062
 20
43.2259023409
 30
0.0
 10
15.3056219747
 20
43.2033592556
 30
0.0
 10
14.8714609861
 20
43.1809637623
 30
0.0
 10
14.5209672968
 20
43.158697049
 30
0.0
 10
14.2814441039
 20
43.1392194219
 30
0.0
 10
14.1322185354
 20
43.1227755195
 30
0.0
 10
14.0519160774
 20
43.1117592814
 30
0.0
 10
13.9929634275
 20
43.1008218583
 30
0.0
 10
13.9608201803
 20
43.0923849067
 30
0.0
 10
13.9488214315
 20
43.0872590115
 30
0.0
  0
SPLINE
  5
34B
100
AcDbEntity
  8
0
100
AcDbSpline
 62
7
  6
CONTINUOUS
 70
0
 71
3
 72
9
 73
5
 74
0
 42
0.0000001
 43
0.0000001
 44
0.0000000001
 40
0.0
 40
0.0
 40
0.0
 40
0.0
 40
0.3639397535
 40
1.0
 40
1.0
 40
1.0
 40
1.0
 10
13.9488214315
 20
43.0872590115
 30
0.0
 10
13.9463359848
 20
43.0861972226
 30
0.0
 10
13.9400193065
 20
43.0832218392
 30
0.0
 10
13.9321734257
 20
43.0777494731
 30
0.0
 10
13.9322156333
 20
43.0730260505
 30
0.0
  0
SPLINE
  5
34C
100
AcDbEntity
  8
0
100
AcDbSpline
 62
7
  6
CONTINUOUS
 70
0
 71
3
 72
9
 73
5
 74
0
 42
0.0000001
 43
0.0000001
 44
0.0000000001
 40
0.0
 40
0.0
 40
0.0
 40
0.0
 40
0.4970264001
 40
1.0
 40
1.0
 40
1.0
 40
1.0
 10
21.0725272246
 20
14.0768535069
 30
0.0
 10
21.4737383181
 20
13.6286736787
 30
0.0
 10
22.4091163988
 20
12.8341336364
 30
0.0
 10
23.5223907186
 20
12.3199092569
 30
0.0
 10
24.103187115
 20
12.1376402769
 30
0.0
  0
SPLINE
  5
34D
100
AcDbEntity
  8
0
100
AcDbSpline
 62
7
  6
CONTINUOUS
 70
0
 71
3
 72
19
 73
15
 74
0
 42
0.0000001
 43
0.0000001
 44
0.0000000001
 40
0.0
 40
0.0
 40
0.0
 40
0.0
 40
0.2249765202
 40
0.4206405162
 40
0.586921263
 40
0.7238396544
 40
0.7813522093
 40
0.831635166
 40
0.8747938981
 40
0.9110125853
 40
0.9406255776
 40
0.9642749
 40
0.9832508605
 40
1.0
 40
1.0
 40
1.0
 40
1.0
 10
17.4845491958
 20
37.6129891066
 30
0.0
 10
17.2445922282
 20
37.5792031653
 30
0.0
 10
16.7964265155
 20
37.512489572
 30
0.0
 10
16.1732490042
 20
37.4057609447
 30
0.0
 10
15.6464730116
 20
37.2993889007
 30
0.0
 10
15.2689282923
 20
37.206750125
 30
0.0
 10
15.0164517249
 20
37.1308317373
 30
0.0
 10
14.8628420184
 20
37.0773374393
 30
0.0
 10
14.7336790652
 20
37.0239563135
 30
0.0
 10
14.6288892752
 20
36.9706774779
 30
0.0
 10
14.5482279037
 20
36.9173609803
 30
0.0
 10
14.4913027597
 20
36.8635068609
 30
0.0
 10
14.4580897073
 20
36.8072415851
 30
0.0
 10
14.4546814407
 20
36.7672433438
 30
0.0
 10
14.4575059617
 20
36.7494252072
 30
0.0
  0
SPLINE
  5
34E
100
AcDbEntity
  8
0
100
AcDbSpline
 62
7
  6
CONTINUOUS
 70
0
 71
3
 72
12
 73
8
 74
0
 42
0.0000001
 43
0.0000001
 44
0.0000000001
 40
0.0
 40
0.0
 40
0.0
 40
0.0
 40
0.1894300442
 40
0.3588341417
 40
0.508628033
 40
0.6394955785
 40
1.0
 40
1.0
 40
1.0
 40
1.0
 10
19.6821973287
 20
25.9763475821
 30
0.0
 10
19.4446422232
 20
25.8812891767
 30
0.0
 10
18.9977628503
 20
25.6924341841
 30
0.0
 10
18.3795707576
 20
25.3944463535
 30
0.0
 10
17.846823492
 20
25.0935791583
 30
0.0
 10
17.1418106758
 20
24.6183821977
 30
0.0
 10
16.5991030151
 20
24.0587054652
 30
0.0
 10
16.5634300337
 20
23.5730710221
 30
0.0
  0
SPLINE
  5
34F
100
AcDbEntity
  8
0
100
AcDbSpline
 62
7
  6
CONTINUOUS
 70
0
 71
3
 72
11
 73
7
 74
0
 42
0.0000001
 43
0.0000001
 44
0.0000000001
 40
0.0
 40
0.0
 40
0.0
 40
0.0
 40
0.311432417
 40
0.5770054782
 40
0.8029300281
 40
1.0
 40
1.0
 40
1.0
 40
1.0
 10
22.8582818084
 20
18.6491177849
 30
0.0
 10
22.4798827361
 20
18.3994853675
 30
0.0
 10
21.7980506785
 20
17.9057754455
 30
0.0
 10
20.9453939284
 20
17.0997745877
 30
0.0
 10
20.34996855
 20
16.2845988415
 30
0.0
 10
20.1235337313
 20
15.70043081
 30
0.0
 10
20.0672095453
 20
15.4191581542
 30
0.0
  0
SPLINE
  5
350
100
AcDbEntity
  8
0
100
AcDbSpline
 62
7
  6
CONTINUOUS
 70
0
 71
3
 72
9
 73
5
 74
0
 42
0.0000001
 43
0.0000001
 44
0.0000000001
 40
0.0
 40
0.0
 40
0.0
 40
0.0
 40
0.2410347607
 40
1.0
 40
1.0
 40
1.0
 40
1.0
 10
23.7141379054
 20
17.2870377796
 30
0.0
 10
23.7238324197
 20
17.289824278
 30
0.0
 10
23.7643533098
 20
17.3003321519
 30
0.0
 10
23.8058925776
 20
17.3067420704
 30
0.0
 10
23.837518039
 20
17.3096821577
 30
0.0
  0
SPLINE
  5
351
100
AcDbEntity
  8
0
100
AcDbSpline
 62
7
  6
CONTINUOUS
 70
0
 71
3
 72
18
 73
14
 74
0
 42
0.0000001
 43
0.0000001
 44
0.0000000001
 40
0.0
 40
0.0
 40
0.0
 40
0.0
 40
0.031966097
 40
0.071793049
 40
0.1165894314
 40
0.1656498944
 40
0.2189213342
 40
0.2763028284
 40
0.4029242897
 40
0.5425980725
 40
0.6901147659
 40
0.8431031856
 40
1.0
 40
1.0
 40
1.0
 40
1.0
 10
23.8375207758
 20
17.3096787705
 30
0.0
 10
23.8972728066
 20
17.3198636028
 30
0.0
 10
24.0362998427
 20
17.3029225234
 30
0.0
 10
24.2458064354
 20
17.2342732127
 30
0.0
 10
24.4800236684
 20
17.1359666394
 30
0.0
 10
24.7296230739
 20
17.0112106518
 30
0.0
 10
24.9938966583
 20
16.8630867555
 30
0.0
 10
25.3781978676
 20
16.628984444
 30
0.0
 10
25.887526437
 20
16.2860867594
 30
0.0
 10
26.5262501863
 20
15.830358348
 30
0.0
 10
27.2098199455
 20
15.3513525946
 30
0.0
 10
27.9283752329
 20
14.8655370336
 30
0.0
 10
28.4235449124
 20
14.5489788946
 30
0.0
 10
28.6768483076
 20
14.3929423317
 30
0.0
  0
SPLINE
  5
352
100
AcDbEntity
  8
0
100
AcDbSpline
 62
7
  6
CONTINUOUS
 70
0
 71
3
 72
9
 73
5
 74
0
 42
0.0000001
 43
0.0000001
 44
0.0000000001
 40
0.0
 40
0.0
 40
0.0
 40
0.0
 40
0.498837787
 40
1.0
 40
1.0
 40
1.0
 40
1.0
 10
29.0749593037
 20
14.1526679371
 30
0.0
 10
29.6618637453
 20
13.8059755927
 30
0.0
 10
30.8687439917
 20
13.1609543055
 30
0.0
 10
32.1346048909
 20
12.6376099793
 30
0.0
 10
32.7824188781
 20
12.4155068546
 30
0.0
  0
SPLINE
  5
353
100
AcDbEntity
  8
0
100
AcDbSpline
 62
7
  6
CONTINUOUS
 70
0
 71
3
 72
10
 73
6
 74
0
 42
0.0000001
 43
0.0000001
 44
0.0000000001
 40
0.0
 40
0.0
 40
0.0
 40
0.0
 40
0.2946941836
 40
0.5562558814
 40
1.0
 40
1.0
 40
1.0
 40
1.0
 10
32.782366869
 20
12.4153501919
 30
0.0
 10
32.8705799699
 20
12.3886485454
 30
0.0
 10
33.0377012813
 20
12.3401394483
 30
0.0
 10
33.3415292161
 20
12.2657233498
 30
0.0
 10
33.5576747575
 20
12.2212785839
 30
0.0
 10
33.6941363759
 20
12.1960109447
 30
0.0
  0
SPLINE
  5
354
100
AcDbEntity
  8
0
100
AcDbSpline
 62
7
  6
CONTINUOUS
 70
0
 71
3
 72
11
 73
7
 74
0
 42
0.0000001
 43
0.0000001
 44
0.0000000001
 40
0.0
 40
0.0
 40
0.0
 40
0.0
 40
0.3317200425
 40
0.5940174917
 40
0.8112114411
 40
1.0
 40
1.0
 40
1.0
 40
1.0
 10
36.0226860589
 20
13.4312672404
 30
0.0
 10
35.6438829802
 20
13.3944090893
 30
0.0
 10
34.9667094136
 20
13.3100703533
 30
0.0
 10
34.0582084413
 20
13.096314097
 30
0.0
 10
33.3437932313
 20
12.8083586802
 30
0.0
 10
32.9496742509
 20
12.5529180784
 30
0.0
 10
32.782366869
 20
12.4153501919
 30
0.0
  0
SPLINE
  5
355
100
AcDbEntity
  8
0
100
AcDbSpline
 62
7
  6
CONTINUOUS
 70
0
 71
3
 72
13
 73
9
 74
0
 42
0.0000001
 43
0.0000001
 44
0.0000000001
 40
0.0
 40
0.0
 40
0.0
 40
0.0
 40
0.0859614499
 40
0.1773003505
 40
0.3880829308
 40
0.5137964958
 40
0.6562123007
 40
1.0
 40
1.0
 40
1.0
 40
1.0
 10
46.3536638654
 20
12.2692972865
 30
0.0
 10
46.296778895
 20
12.3445110599
 30
0.0
 10
46.1663192959
 20
12.4901636509
 30
0.0
 10
45.8332123513
 20
12.7579276472
 30
0.0
 10
45.4028336112
 20
12.9610181738
 30
0.0
 10
44.8988408395
 20
13.1096026674
 30
0.0
 10
44.2410861177
 20
13.2473153296
 30
0.0
 10
43.7103734749
 20
13.3088561892
 30
0.0
 10
43.3348336897
 20
13.3436408615
 30
0.0
  0
SPLINE
  5
356
100
AcDbEntity
  8
0
100
AcDbSpline
 62
7
  6
CONTINUOUS
 70
0
 71
3
 72
11
 73
7
 74
0
 42
0.0000001
 43
0.0000001
 44
0.0000000001
 40
0.0
 40
0.0
 40
0.0
 40
0.0
 40
0.2481245339
 40
0.5002908622
 40
0.7523455919
 40
1.0
 40
1.0
 40
1.0
 40
1.0
 10
33.6942073392
 20
12.1961666847
 30
0.0
 10
34.6930624332
 20
11.8092426884
 30
0.0
 10
36.7805032043
 20
11.2027494443
 30
0.0
 10
40.0349912957
 20
10.9029929573
 30
0.0
 10
43.2834270931
 20
11.2428444208
 30
0.0
 10
45.3610797907
 20
11.8726469924
 30
0.0
 10
46.3538678681
 20
12.2694461254
 30
0.0
  0
SPLINE
  5
357
100
AcDbEntity
  8
0
100
AcDbSpline
 62
7
  6
CONTINUOUS
 70
0
 71
3
 72
11
 73
7
 74
0
 42
0.0000001
 43
0.0000001
 44
0.0000000001
 40
0.0
 40
0.0
 40
0.0
 40
0.0
 40
0.3245972403
 40
0.5887498971
 40
0.8091725002
 40
1.0
 40
1.0
 40
1.0
 40
1.0
 10
36.4686176318
 20
13.2542090299
 30
0.0
 10
36.1461773595
 20
13.2062590635
 30
0.0
 10
35.5635761546
 20
13.1006875329
 30
0.0
 10
34.7818454294
 20
12.8706186622
 30
0.0
 10
34.1653837162
 20
12.5796565809
 30
0.0
 10
33.8321794428
 20
12.3289962002
 30
0.0
 10
33.6942271435
 20
12.1959677014
 30
0.0
  0
SPLINE
  5
358
100
AcDbEntity
  8
0
100
AcDbSpline
 62
7
  6
CONTINUOUS
 70
0
 71
3
 72
15
 73
11
 74
0
 42
0.0000001
 43
0.0000001
 44
0.0000000001
 40
0.0
 40
0.0
 40
0.0
 40
0.0
 40
0.0959387512
 40
0.213836332
 40
0.3577395045
 40
0.5217053161
 40
0.6787407352
 40
0.8092165704
 40
0.9143246811
 40
1.0
 40
1.0
 40
1.0
 40
1.0
 10
43.3349000946
 20
13.3436918088
 30
0.0
 10
43.1160078053
 20
13.3639453986
 30
0.0
 10
42.6267009784
 20
13.39351132
 30
0.0
 10
41.8071858654
 20
13.4134381883
 30
0.0
 10
40.831597518
 20
13.4188927716
 30
0.0
 10
39.7663470239
 20
13.4157347494
 30
0.0
 10
38.731913435
 20
13.4037264272
 30
0.0
 10
37.8325887476
 20
13.37709945
 30
0.0
 10
37.0977308808
 20
13.3314930752
 30
0.0
 10
36.6629695883
 20
13.2830586617
 30
0.0
 10
36.4687932598
 20
13.2541913019
 30
0.0
  0
SPLINE
  5
359
100
AcDbEntity
  8
0
100
AcDbSpline
 62
7
  6
CONTINUOUS
 70
0
 71
3
 72
11
 73
7
 74
0
 42
0.0000001
 43
0.0000001
 44
0.0000000001
 40
0.0
 40
0.0
 40
0.0
 40
0.0
 40
0.2412488966
 40
0.5005780984
 40
0.7597207426
 40
1.0
 40
1.0
 40
1.0
 40
1.0
 10
57.9179144038
 20
80.417986249
 30
0.0
 10
57.9251684534
 20
80.5505188186
 30
0.0
 10
57.9921135356
 20
80.8252855085
 30
0.0
 10
58.2429687542
 20
81.1731094462
 30
0.0
 10
58.6070165788
 20
81.3981795415
 30
0.0
 10
58.8842401561
 20
81.4480022606
 30
0.0
 10
59.0164376153
 20
81.4479652575
 30
0.0
  0
SPLINE
  5
35A
100
AcDbEntity
  8
0
100
AcDbSpline
 62
7
  6
CONTINUOUS
 70
0
 71
3
 72
14
 73
10
 74
0
 42
0.0000001
 43
0.0000001
 44
0.0000000001
 40
0.0
 40
0.0
 40
0.0
 40
0.0
 40
0.0856239184
 40
0.1763343829
 40
0.3835870973
 40
0.5069814322
 40
0.6481809441
 40
0.8110098072
 40
1.0
 40
1.0
 40
1.0
 40
1.0
 10
47.2144353178
 20
12.4828312121
 30
0.0
 10
47.1425387717
 20
12.5608587529
 30
0.0
 10
46.9825866909
 20
12.7110287759
 30
0.0
 10
46.5915421055
 20
12.9838459715
 30
0.0
 10
46.103268005
 20
13.1859204355
 30
0.0
 10
45.5358213238
 20
13.327499633
 30
0.0
 10
45.0125927612
 20
13.4135549907
 30
0.0
 10
44.4046141108
 20
13.4753992602
 30
0.0
 10
43.9693976469
 20
13.5022866347
 30
0.0
 10
43.7355089601
 20
13.5141100873
 30
0.0
  0
SPLINE
  5
35B
100
AcDbEntity
  8
0
100
AcDbSpline
 62
7
  6
CONTINUOUS
 70
0
 71
3
 72
10
 73
6
 74
0
 42
0.0000001
 43
0.0000001
 44
0.0000000001
 40
0.0
 40
0.0
 40
0.0
 40
0.0
 40
0.4417425938
 40
0.7039686006
 40
1.0
 40
1.0
 40
1.0
 40
1.0
 10
46.3538872014
 20
12.2694051477
 30
0.0
 10
46.482220724
 20
12.2937514697
 30
0.0
 10
46.6859497898
 20
12.3369138115
 30
0.0
 10
46.9726723247
 20
12.4094390243
 30
0.0
 10
47.1308943618
 20
12.4566882924
 30
0.0
 10
47.2144353178
 20
12.4828312121
 30
0.0
  0
SPLINE
  5
35C
100
AcDbEntity
  8
0
100
AcDbSpline
 62
7
  6
CONTINUOUS
 70
0
 71
3
 72
9
 73
5
 74
0
 42
0.0000001
 43
0.0000001
 44
0.0000000001
 40
0.0
 40
0.0
 40
0.0
 40
0.0
 40
0.5258583358
 40
1.0
 40
1.0
 40
1.0
 40
1.0
 10
57.0034873125
 20
18.6491019843
 30
0.0
 10
56.7448962802
 20
18.8072516427
 30
0.0
 10
56.2613745412
 20
19.1218148832
 30
0.0
 10
55.8015599146
 20
19.4706816751
 30
0.0
 10
55.5919225028
 20
19.6460358254
 30
0.0
  0
SPLINE
  5
35D
100
AcDbEntity
  8
0
100
AcDbSpline
 62
7
  6
CONTINUOUS
 70
0
 71
3
 72
11
 73
7
 74
0
 42
0.0000001
 43
0.0000001
 44
0.0000000001
 40
0.0
 40
0.0
 40
0.0
 40
0.0
 40
0.2941648859
 40
0.553152971
 40
0.7847174584
 40
1.0
 40
1.0
 40
1.0
 40
1.0
 10
55.3207294566
 20
19.8833650172
 30
0.0
 10
55.1239314577
 20
20.0639471364
 30
0.0
 10
54.7716091209
 20
20.4242337425
 30
0.0
 10
54.3544594831
 20
21.0062130265
 30
0.0
 10
54.0886874987
 20
21.5948862566
 30
0.0
 10
54.0163933183
 20
21.9996733751
 30
0.0
 10
54.0088140386
 20
22.1949974838
 30
0.0
  0
SPLINE
  5
35E
100
AcDbEntity
  8
0
100
AcDbSpline
 62
7
  6
CONTINUOUS
 70
0
 71
3
 72
11
 73
7
 74
0
 42
0.0000001
 43
0.0000001
 44
0.0000000001
 40
0.0
 40
0.0
 40
0.0
 40
0.0
 40
0.4187234576
 40
0.7217252767
 40
0.9113716369
 40
1.0
 40
1.0
 40
1.0
 40
1.0
 10
47.2144856339
 20
12.4828121615
 30
0.0
 10
47.2192008559
 20
12.4589389831
 30
0.0
 10
47.226896332
 20
12.4181052707
 30
0.0
 10
47.2332073537
 20
12.3641808158
 30
0.0
 10
47.2348636364
 20
12.3328147896
 30
0.0
 10
47.2300645214
 20
12.3135427272
 30
0.0
 10
47.2252231255
 20
12.3117847377
 30
0.0
  0
SPLINE
  5
35F
100
AcDbEntity
  8
0
100
AcDbSpline
 62
7
  6
CONTINUOUS
 70
0
 71
3
 72
9
 73
5
 74
0
 42
0.0000001
 43
0.0000001
 44
0.0000000001
 40
0.0
 40
0.0
 40
0.0
 40
0.0
 40
0.5084458541
 40
1.0
 40
1.0
 40
1.0
 40
1.0
 10
46.3537939592
 20
12.2693756503
 30
0.0
 10
46.2301261712
 20
12.1495090102
 30
0.0
 10
45.9613940009
 20
11.9382495633
 30
0.0
 10
45.6510938973
 20
11.793855837
 30
0.0
 10
45.4928753656
 20
11.7419857168
 30
0.0
  0
SPLINE
  5
360
100
AcDbEntity
  8
0
100
AcDbSpline
 62
7
  6
CONTINUOUS
 70
0
 71
3
 72
14
 73
10
 74
0
 42
0.0000001
 43
0.0000001
 44
0.0000000001
 40
0.0
 40
0.0
 40
0.0
 40
0.0
 40
0.0732673769
 40
0.1628086531
 40
0.2703961106
 40
0.3945205491
 40
0.5331334132
 40
0.6821468047
 40
1.0
 40
1.0
 40
1.0
 40
1.0
 10
53.9223396685
 20
15.2585178417
 30
0.0
 10
53.8483114791
 20
15.2624941683
 30
0.0
 10
53.6826817634
 20
15.2494908019
 30
0.0
 10
53.4165086511
 20
15.1834425358
 30
0.0
 10
53.1112045081
 20
15.0705322962
 30
0.0
 10
52.7691218858
 20
14.9172592517
 30
0.0
 10
52.3963988408
 20
14.7309418394
 30
0.0
 10
51.8540197145
 20
14.4460389722
 30
0.0
 10
51.4381688539
 20
14.2219058532
 30
0.0
 10
51.1535739131
 20
14.0720957801
 30
0.0
  0
SPLINE
  5
361
100
AcDbEntity
  8
0
100
AcDbSpline
 62
7
  6
CONTINUOUS
 70
0
 71
3
 72
9
 73
5
 74
0
 42
0.0000001
 43
0.0000001
 44
0.0000000001
 40
0.0
 40
0.0
 40
0.0
 40
0.0
 40
0.2409285149
 40
1.0
 40
1.0
 40
1.0
 40
1.0
 10
53.9724551624
 20
15.2531935566
 30
0.0
 10
53.96845957
 20
15.2538489239
 30
0.0
 10
53.951834742
 20
15.2563190359
 30
0.0
 10
53.9350716728
 20
15.2578230175
 30
0.0
 10
53.9223335471
 20
15.2585123152
 30
0.0
  0
SPLINE
  5
362
100
AcDbEntity
  8
0
100
AcDbSpline
 62
7
  6
CONTINUOUS
 70
0
 71
3
 72
9
 73
5
 74
0
 42
0.0000001
 43
0.0000001
 44
0.0000000001
 40
0.0
 40
0.0
 40
0.0
 40
0.0
 40
0.2654251964
 40
1.0
 40
1.0
 40
1.0
 40
1.0
 10
25.9724924449
 20
15.2615101764
 30
0.0
 10
25.9661795557
 20
15.2606700005
 30
0.0
 10
25.9424812059
 20
15.2569383048
 30
0.0
 10
25.9191110915
 20
15.2507919234
 30
0.0
 10
25.902617713
 20
15.2445776676
 30
0.0
  0
SPLINE
  5
363
100
AcDbEntity
  8
0
100
AcDbSpline
 62
7
  6
CONTINUOUS
 70
0
 71
3
 72
11
 73
7
 74
0
 42
0.0000001
 43
0.0000001
 44
0.0000000001
 40
0.0
 40
0.0
 40
0.0
 40
0.0
 40
0.2511840285
 40
0.5016997453
 40
0.7512112265
 40
1.0
 40
1.0
 40
1.0
 40
1.0
 10
20.8453452394
 20
81.4479652705
 30
0.0
 10
20.9875574582
 20
81.448006179
 30
0.0
 10
21.2746516939
 20
81.3923015947
 30
0.0
 10
21.6390064772
 20
81.1531756963
 30
0.0
 10
21.8848675317
 20
80.7947891166
 30
0.0
 10
21.9441893715
 20
80.5100758511
 30
0.0
 10
21.9454185573
 20
80.3692251052
 30
0.0
  0
SPLINE
  5
364
100
AcDbEntity
  8
0
100
AcDbSpline
 62
7
  6
CONTINUOUS
 70
0
 71
3
 72
9
 73
5
 74
0
 42
0.0000001
 43
0.0000001
 44
0.0000000001
 40
0.0
 40
0.0
 40
0.0
 40
0.0
 40
0.2527821016
 40
1.0
 40
1.0
 40
1.0
 40
1.0
 10
56.0554777106
 20
17.3484202669
 30
0.0
 10
55.9118373099
 20
17.1407673542
 30
0.0
 10
55.3044081246
 20
16.3473364327
 30
0.0
 10
54.5471191863
 20
15.6668126988
 30
0.0
 10
53.9223400435
 20
15.2585167576
 30
0.0
  0
SPLINE
  5
365
100
AcDbEntity
  8
0
100
AcDbSpline
 62
7
  6
CONTINUOUS
 70
0
 71
3
 72
9
 73
5
 74
0
 42
0.0000001
 43
0.0000001
 44
0.0000000001
 40
0.0
 40
0.0
 40
0.0
 40
0.0
 40
0.2518964082
 40
1.0
 40
1.0
 40
1.0
 40
1.0
 10
23.7141375435
 20
17.2870376586
 30
0.0
 10
23.8634305191
 20
17.083807662
 30
0.0
 10
24.4939836575
 20
16.3056943158
 30
0.0
 10
25.2683236734
 20
15.6427651987
 30
0.0
 10
25.9026194002
 20
15.2445766328
 30
0.0
  0
SPLINE
  5
366
100
AcDbEntity
  8
0
100
AcDbSpline
 62
7
  6
CONTINUOUS
 70
0
 71
3
 72
9
 73
5
 74
0
 42
0.0000001
 43
0.0000001
 44
0.0000000001
 40
0.0
 40
0.0
 40
0.0
 40
0.0
 40
0.252359029
 40
1.0
 40
1.0
 40
1.0
 40
1.0
 10
23.8374985853
 20
17.3096731273
 30
0.0
 10
23.9823088015
 20
17.1062513377
 30
0.0
 10
24.5940711798
 20
16.32805031
 30
0.0
 10
25.3505766721
 20
15.6621042156
 30
0.0
 10
25.9724841333
 20
15.2614999365
 30
0.0
  0
SPLINE
  5
367
100
AcDbEntity
  8
0
100
AcDbSpline
 62
7
  6
CONTINUOUS
 70
0
 71
3
 72
13
 73
9
 74
0
 42
0.0000001
 43
0.0000001
 44
0.0000000001
 40
0.0
 40
0.0
 40
0.0
 40
0.0
 40
0.4300076884
 40
0.7394079745
 40
0.8487622932
 40
0.9279544032
 40
0.9774312466
 40
1.0
 40
1.0
 40
1.0
 40
1.0
 10
32.7824123695
 20
12.4153339611
 30
0.0
 10
32.7739309908
 20
12.3944674882
 30
0.0
 10
32.7591350798
 20
12.3587294564
 30
0.0
 10
32.741010578
 20
12.3179584712
 30
0.0
 10
32.7295225304
 20
12.2947514595
 30
0.0
 10
32.7231491498
 20
12.283640473
 30
0.0
 10
32.7191120533
 20
12.2775650135
 30
0.0
 10
32.7156156466
 20
12.2744530798
 30
0.0
 10
32.7144824478
 20
12.2747898321
 30
0.0
  0
SPLINE
  5
368
100
AcDbEntity
  8
0
100
AcDbSpline
 62
7
  6
CONTINUOUS
 70
0
 71
3
 72
9
 73
5
 74
0
 42
0.0000001
 43
0.0000001
 44
0.0000000001
 40
0.0
 40
0.0
 40
0.0
 40
0.0
 40
0.4751731477
 40
1.0
 40
1.0
 40
1.0
 40
1.0
 10
34.9308250273
 20
7.8828317998
 30
0.0
 10
34.8668468441
 20
7.8828208842
 30
0.0
 10
34.7313982554
 20
7.9120882048
 30
0.0
 10
34.6159844513
 20
7.9855849237
 30
0.0
 10
34.5611376129
 20
8.0301402349
 30
0.0
  0
SPLINE
  5
369
100
AcDbEntity
  8
0
100
AcDbSpline
 62
7
  6
CONTINUOUS
 70
0
 71
3
 72
9
 73
5
 74
0
 42
0.0000001
 43
0.0000001
 44
0.0000000001
 40
0.0
 40
0.0
 40
0.0
 40
0.0
 40
0.5090738098
 40
1.0
 40
1.0
 40
1.0
 40
1.0
 10
33.6942940028
 20
12.1962469502
 30
0.0
 10
33.812943951
 20
12.081155463
 30
0.0
 10
34.0707367472
 20
11.8787317527
 30
0.0
 10
34.3690195042
 20
11.741764619
 30
0.0
 10
34.5208708499
 20
11.6932707651
 30
0.0
  0
SPLINE
  5
36A
100
AcDbEntity
  8
0
100
AcDbSpline
 62
7
  6
CONTINUOUS
 70
0
 71
3
 72
9
 73
5
 74
0
 42
0.0000001
 43
0.0000001
 44
0.0000000001
 40
0.0
 40
0.0
 40
0.0
 40
0.0
 40
0.4709388371
 40
1.0
 40
1.0
 40
1.0
 40
1.0
 10
44.9309019444
 20
7.8827697844
 30
0.0
 10
44.9943238376
 20
7.8827724635
 30
0.0
 10
45.1297804343
 20
7.911800126
 30
0.0
 10
45.2453546084
 20
7.9852214506
 30
0.0
 10
45.3006559129
 20
8.0301461419
 30
0.0
  0
SPLINE
  5
36B
100
AcDbEntity
  8
0
100
AcDbSpline
 62
7
  6
CONTINUOUS
 70
0
 71
3
 72
16
 73
12
 74
0
 42
0.0000001
 43
0.0000001
 44
0.0000000001
 40
0.0
 40
0.0
 40
0.0
 40
0.0
 40
0.0984655067
 40
0.2171487142
 40
0.3596294248
 40
0.4385550647
 40
0.5193802186
 40
0.6727173889
 40
0.8036492769
 40
0.910805975
 40
1.0
 40
1.0
 40
1.0
 40
1.0
 10
43.7355058752
 20
13.5141167388
 30
0.0
 10
43.4824671834
 20
13.5231679086
 30
0.0
 10
42.9239835409
 20
13.5290900543
 30
0.0
 10
41.9992476607
 20
13.5225071786
 30
0.0
 10
41.1248131973
 20
13.5089597752
 30
0.0
 10
40.3476800674
 20
13.5004568961
 30
0.0
 10
39.5425890304
 20
13.4968279549
 30
0.0
 10
38.6037785646
 20
13.4940347349
 30
0.0
 10
37.5971996473
 20
13.4939536943
 30
0.0
 10
36.7557671935
 20
13.475015137
 30
0.0
 10
36.2513319917
 20
13.4494911936
 30
0.0
 10
36.0226962305
 20
13.4312882162
 30
0.0
  0
SPLINE
  5
36C
100
AcDbEntity
  8
0
100
AcDbSpline
 62
7
  6
CONTINUOUS
 70
0
 71
3
 72
15
 73
11
 74
0
 42
0.0000001
 43
0.0000001
 44
0.0000000001
 40
0.0
 40
0.0
 40
0.0
 40
0.0
 40
0.1935355733
 40
0.3652246253
 40
0.5153680644
 40
0.6446514201
 40
0.7544365406
 40
0.8471312774
 40
0.9268355576
 40
1.0
 40
1.0
 40
1.0
 40
1.0
 10
60.1795849091
 20
25.9763597768
 30
0.0
 10
59.9128995051
 20
26.0776623551
 30
0.0
 10
59.4131897915
 20
26.2785192323
 30
0.0
 10
58.7233510159
 20
26.5976364371
 30
0.0
 10
58.1390036743
 20
26.9162926182
 30
0.0
 10
57.6606323874
 20
27.2348008637
 30
0.0
 10
57.2883449579
 20
27.5544482953
 30
0.0
 10
57.0225248745
 20
27.8781999267
 30
0.0
 10
56.8662193525
 20
28.210088805
 30
0.0
 10
56.8416525205
 20
28.4394986191
 30
0.0
 10
56.8495714661
 20
28.547054215
 30
0.0
  0
LINE
  5
36D
100
AcDbEntity
  8
0
100
AcDbLine
 62
7
  6
CONTINUOUS
 10
45.3006504063
 20
8.0301299094
 11
44.946854491
 21
8.0275486323
  0
LINE
  5
36E
100
AcDbEntity
  8
0
100
AcDbLine
 62
7
  6
CONTINUOUS
 10
34.9149082881
 20
8.02754917
 11
34.5611049241
 21
8.0301301007
  0
SPLINE
  5
36F
100
AcDbEntity
  8
0
100
AcDbSpline
 62
7
  6
CONTINUOUS
 70
0
 71
3
 72
9
 73
5
 74
0
 42
0.0000001
 43
0.0000001
 44
0.0000000001
 40
0.0
 40
0.0
 40
0.0
 40
0.0
 40
0.267474245
 40
1.0
 40
1.0
 40
1.0
 40
1.0
 10
22.8583063972
 20
18.6491415045
 30
0.0
 10
22.9848962188
 20
18.732654103
 30
0.0
 10
23.4536529726
 20
19.0515329989
 30
0.0
 10
23.9039449868
 20
19.3986530808
 30
0.0
 10
24.2152367373
 20
19.6736088108
 30
0.0
  0
SPLINE
  5
370
100
AcDbEntity
  8
0
100
AcDbSpline
 62
7
  6
CONTINUOUS
 70
0
 71
3
 72
11
 73
7
 74
0
 42
0.0000001
 43
0.0000001
 44
0.0000000001
 40
0.0
 40
0.0
 40
0.0
 40
0.0
 40
0.2879833938
 40
0.5468170649
 40
0.7817421828
 40
1.0
 40
1.0
 40
1.0
 40
1.0
 10
24.4766129651
 20
19.9141373062
 30
0.0
 10
24.6640597056
 20
20.0941775879
 30
0.0
 10
25.0038602963
 20
20.4537654829
 30
0.0
 10
25.4198812054
 20
21.0265700733
 30
0.0
 10
25.7109316177
 20
21.6030250797
 30
0.0
 10
25.8217304575
 20
22.0004113492
 30
0.0
 10
25.85293042
 20
22.1949026476
 30
0.0
  0
SPLINE
  5
371
100
AcDbEntity
  8
0
100
AcDbSpline
 62
7
  6
CONTINUOUS
 70
0
 71
3
 72
12
 73
8
 74
0
 42
0.0000001
 43
0.0000001
 44
0.0000000001
 40
0.0
 40
0.0
 40
0.0
 40
0.0
 40
0.1900856616
 40
0.3598464408
 40
0.5097549079
 40
0.6405694876
 40
1.0
 40
1.0
 40
1.0
 40
1.0
 10
19.6821692724
 20
25.9763399175
 30
0.0
 10
19.9375405619
 20
26.0783889408
 30
0.0
 10
20.4175602493
 20
26.2812309546
 30
0.0
 10
21.0807235159
 20
26.6020301098
 30
0.0
 10
21.6507427112
 20
26.926823026
 30
0.0
 10
22.4009997086
 20
27.4399068203
 30
0.0
 10
22.9764100905
 20
28.045708559
 30
0.0
 10
23.0058608301
 20
28.5648798738
 30
0.0
  0
SPLINE
  5
372
100
AcDbEntity
  8
0
100
AcDbSpline
 62
7
  6
CONTINUOUS
 70
0
 71
3
 72
19
 73
15
 74
0
 42
0.0000001
 43
0.0000001
 44
0.0000000001
 40
0.0
 40
0.0
 40
0.0
 40
0.0
 40
0.224052503
 40
0.4191040186
 40
0.5850843762
 40
0.7220121242
 40
0.779642652
 40
0.8301159914
 40
0.873532473
 40
0.9100665903
 40
0.940032902
 40
0.96403037
 40
0.9832557404
 40
1.0
 40
1.0
 40
1.0
 40
1.0
 10
17.4845331412
 20
37.6130352278
 30
0.0
 10
17.7389527645
 20
37.6488573442
 30
0.0
 10
18.2143498544
 20
37.7196031122
 30
0.0
 10
18.8757578403
 20
37.8327378594
 30
0.0
 10
19.4356263113
 20
37.9455021613
 30
0.0
 10
19.8374758067
 20
38.0436780567
 30
0.0
 10
20.1067741125
 20
38.1240950918
 30
0.0
 10
20.2710827379
 20
38.1808029032
 30
0.0
 10
20.4096365314
 20
38.2373928028
 30
0.0
 10
20.5225002275
 20
38.2938762301
 30
0.0
 10
20.6099209782
 20
38.3503730771
 30
0.0
 10
20.6722681127
 20
38.4073710778
 30
0.0
 10
20.7097626772
 20
38.4666083213
 30
0.0
 10
20.7154517692
 20
38.5091978545
 30
0.0
 10
20.7132999295
 20
38.528278146
 30
0.0
  0
SPLINE
  5
373
100
AcDbEntity
  8
0
100
AcDbSpline
 62
7
  6
CONTINUOUS
 70
0
 71
3
 72
17
 73
13
 74
0
 42
0.0000001
 43
0.0000001
 44
0.0000000001
 40
0.0
 40
0.0
 40
0.0
 40
0.0
 40
0.2179313631
 40
0.4096230981
 40
0.5749050667
 40
0.7136103408
 40
0.825578321
 40
0.9106628459
 40
0.943089774
 40
0.9687656981
 40
0.9877081099
 40
1.0
 40
1.0
 40
1.0
 40
1.0
 10
17.07749297
 20
43.2699446207
 30
0.0
 10
17.3204239189
 20
43.2776163078
 30
0.0
 10
17.7770128725
 20
43.292790358
 30
0.0
 10
18.417734778
 20
43.3169472023
 30
0.0
 10
18.9700270654
 20
43.3410344047
 30
0.0
 10
19.4333246524
 20
43.3649617907
 30
0.0
 10
19.8070248085
 20
43.3887516546
 30
0.0
 10
20.0621650218
 20
43.4095597302
 30
0.0
 10
20.2208740632
 20
43.4271397391
 30
0.0
 10
20.3060568965
 20
43.4389012439
 30
0.0
 10
20.3683668233
 20
43.4505836468
 30
0.0
 10
20.4022586064
 20
43.4595921468
 30
0.0
 10
20.4148117003
 20
43.4651012288
 30
0.0
  0
SPLINE
  5
374
100
AcDbEntity
  8
0
100
AcDbSpline
 62
7
  6
CONTINUOUS
 70
0
 71
3
 72
10
 73
6
 74
0
 42
0.0000001
 43
0.0000001
 44
0.0000000001
 40
0.0
 40
0.0
 40
0.0
 40
0.0
 40
0.3562008114
 40
0.6367013657
 40
1.0
 40
1.0
 40
1.0
 40
1.0
 10
19.9767294081
 20
15.4223508465
 30
0.0
 10
19.9833297955
 20
15.4134242298
 30
0.0
 10
20.0061868251
 20
15.4086678021
 30
0.0
 10
20.0363268604
 20
15.4119501143
 30
0.0
 10
20.056185292
 20
15.4163409696
 30
0.0
 10
20.0671263338
 20
15.4192571311
 30
0.0
  0
SPLINE
  5
375
100
AcDbEntity
  8
0
100
AcDbSpline
 62
7
  6
CONTINUOUS
 70
0
 71
3
 72
8
 73
4
 74
0
 42
0.0000001
 43
0.0000001
 44
0.0000000001
 40
0.0
 40
0.0
 40
0.0
 40
0.0
 40
1.0
 40
1.0
 40
1.0
 40
1.0
 10
16.5634307838
 20
23.5730676828
 30
0.0
 10
16.2970230387
 20
25.2270063908
 30
0.0
 10
16.0329899913
 20
26.8813273471
 30
0.0
 10
15.7695003358
 20
28.5357334453
 30
0.0
  0
SPLINE
  5
376
100
AcDbEntity
  8
0
100
AcDbSpline
 62
7
  6
CONTINUOUS
 70
0
 71
3
 72
9
 73
5
 74
0
 42
0.0000001
 43
0.0000001
 44
0.0000000001
 40
0.0
 40
0.0
 40
0.0
 40
0.0
 40
0.4998367495
 40
1.0
 40
1.0
 40
1.0
 40
1.0
 10
53.9450260499
 20
10.6875761632
 30
0.0
 10
54.5951150313
 20
10.9119292482
 30
0.0
 10
55.8568832398
 20
11.4834134822
 30
0.0
 10
56.9809094539
 20
12.2977709089
 30
0.0
 10
57.4888759519
 20
12.7620317254
 30
0.0
  0
SPLINE
  5
377
100
AcDbEntity
  8
0
100
AcDbSpline
 62
7
  6
CONTINUOUS
 70
0
 71
3
 72
9
 73
5
 74
0
 42
0.0000001
 43
0.0000001
 44
0.0000000001
 40
0.0
 40
0.0
 40
0.0
 40
0.0
 40
0.5029831512
 40
1.0
 40
1.0
 40
1.0
 40
1.0
 10
55.7904098293
 20
12.1647525083
 30
0.0
 10
56.3722895282
 20
12.3485340131
 30
0.0
 10
57.4872574153
 20
12.8663149926
 30
0.0
 10
58.4229154512
 20
13.6652124221
 30
0.0
 10
58.8238350289
 20
14.1155920111
 30
0.0
  0
SPLINE
  5
378
100
AcDbEntity
  8
0
100
AcDbSpline
 62
7
  6
CONTINUOUS
 70
0
 71
3
 72
10
 73
6
 74
0
 42
0.0000001
 43
0.0000001
 44
0.0000000001
 40
0.0
 40
0.0
 40
0.0
 40
0.0
 40
0.3783492558
 40
0.6529872788
 40
1.0
 40
1.0
 40
1.0
 40
1.0
 10
58.8238129933
 20
14.1156072542
 30
0.0
 10
58.8157478914
 20
14.1065470431
 30
0.0
 10
58.7925968269
 20
14.1009091634
 30
0.0
 10
58.7612031487
 20
14.1042827089
 30
0.0
 10
58.7416244222
 20
14.1089256518
 30
0.0
 10
58.7309343765
 20
14.1120067383
 30
0.0
  0
SPLINE
  5
379
100
AcDbEntity
  8
0
100
AcDbSpline
 62
7
  6
CONTINUOUS
 70
0
 71
3
 72
14
 73
10
 74
0
 42
0.0000001
 43
0.0000001
 44
0.0000000001
 40
0.0
 40
0.0
 40
0.0
 40
0.0
 40
0.2271582268
 40
0.3366017528
 40
0.4470065195
 40
0.5629899858
 40
0.6901239487
 40
0.8343117031
 40
1.0
 40
1.0
 40
1.0
 40
1.0
 10
58.7309437331
 20
14.1120584796
 30
0.0
 10
58.7998542235
 20
14.4636129333
 30
0.0
 10
58.8291512207
 20
15.008167415
 30
0.0
 10
58.6512886602
 20
15.6953071101
 30
0.0
 10
58.4033776535
 20
16.1692244151
 30
0.0
 10
58.028334492
 20
16.5892545992
 30
0.0
 10
57.5202360943
 20
16.9381854794
 30
0.0
 10
56.8762752252
 20
17.1959504079
 30
0.0
 10
56.3966994372
 20
17.298919824
 30
0.0
 10
56.1386657918
 20
17.3401200657
 30
0.0
  0
SPLINE
  5
37A
100
AcDbEntity
  8
0
100
AcDbSpline
 62
7
  6
CONTINUOUS
 70
0
 71
3
 72
9
 73
5
 74
0
 42
0.0000001
 43
0.0000001
 44
0.0000000001
 40
0.0
 40
0.0
 40
0.0
 40
0.0
 40
0.2510479195
 40
1.0
 40
1.0
 40
1.0
 40
1.0
 10
55.7904212294
 20
12.164830986
 30
0.0
 10
56.0677222986
 20
12.2697862673
 30
0.0
 10
57.1471253278
 20
12.7511752098
 30
0.0
 10
58.1214306648
 20
13.471024894
 30
0.0
 10
58.7309401155
 20
14.1120546749
 30
0.0
  0
SPLINE
  5
37B
100
AcDbEntity
  8
0
100
AcDbSpline
 62
7
  6
CONTINUOUS
 70
0
 71
3
 72
9
 73
5
 74
0
 42
0.0000001
 43
0.0000001
 44
0.0000000001
 40
0.0
 40
0.0
 40
0.0
 40
0.0
 40
0.2530134692
 40
1.0
 40
1.0
 40
1.0
 40
1.0
 10
56.1386657918
 20
17.3401200657
 30
0.0
 10
55.9918892143
 20
17.1321534741
 30
0.0
 10
55.3725947907
 20
16.338761393
 30
0.0
 10
54.6042989396
 20
15.6600486287
 30
0.0
 10
53.9724575223
 20
15.2531780868
 30
0.0
  0
SPLINE
  5
37C
100
AcDbEntity
  8
0
100
AcDbSpline
 62
7
  6
CONTINUOUS
 70
0
 71
3
 72
9
 73
5
 74
0
 42
0.0000001
 43
0.0000001
 44
0.0000000001
 40
0.0
 40
0.0
 40
0.0
 40
0.0
 40
0.2558493105
 40
1.0
 40
1.0
 40
1.0
 40
1.0
 10
56.0554700983
 20
17.3484204082
 30
0.0
 10
56.0625928463
 20
17.3480488371
 30
0.0
 10
56.0904145609
 20
17.3462820352
 30
0.0
 10
56.1181585624
 20
17.3432165302
 30
0.0
 10
56.1386707749
 20
17.3401171798
 30
0.0
  0
SPLINE
  5
37D
100
AcDbEntity
  8
0
100
AcDbSpline
 62
7
  6
CONTINUOUS
 70
0
 71
3
 72
9
 73
5
 74
0
 42
0.0000001
 43
0.0000001
 44
0.0000000001
 40
0.0
 40
0.0
 40
0.0
 40
0.0
 40
0.5481871935
 40
1.0
 40
1.0
 40
1.0
 40
1.0
 10
57.0034442015
 20
18.6490989643
 30
0.0
 10
57.4212530393
 20
18.3935759668
 30
0.0
 10
58.1625337437
 20
17.891567382
 30
0.0
 10
58.8235762495
 20
17.2807599527
 30
0.0
 10
59.0834400758
 20
16.9718841533
 30
0.0
  0
SPLINE
  5
37E
100
AcDbEntity
  8
0
100
AcDbSpline
 62
7
  6
CONTINUOUS
 70
0
 71
3
 72
11
 73
7
 74
0
 42
0.0000001
 43
0.0000001
 44
0.0000000001
 40
0.0
 40
0.0
 40
0.0
 40
0.0
 40
0.2789872066
 40
0.5349335698
 40
0.7730648176
 40
1.0
 40
1.0
 40
1.0
 40
1.0
 10
59.0834400758
 20
16.9718841533
 30
0.0
 10
59.1881959835
 20
16.847370614
 30
0.0
 10
59.3768820281
 20
16.5978112387
 30
0.0
 10
59.5997768331
 20
16.2040903675
 30
0.0
 10
59.7478551786
 20
15.808467981
 30
0.0
 10
59.7961587079
 20
15.5396375556
 30
0.0
 10
59.8067314235
 20
15.4077009164
 30
0.0
  0
SPLINE
  5
37F
100
AcDbEntity
  8
0
100
AcDbSpline
 62
7
  6
CONTINUOUS
 70
0
 71
3
 72
11
 73
7
 74
0
 42
0.0000001
 43
0.0000001
 44
0.0000000001
 40
0.0
 40
0.0
 40
0.0
 40
0.0
 40
0.2964024375
 40
0.5456989698
 40
0.8297399312
 40
1.0
 40
1.0
 40
1.0
 40
1.0
 10
63.2998312298
 20
23.5635484931
 30
0.0
 10
63.2998055867
 20
23.5632129428
 30
0.0
 10
63.2997171716
 20
23.5620362075
 30
0.0
 10
63.3001025889
 20
23.5633624332
 30
0.0
 10
63.3003669299
 20
23.5647208371
 30
0.0
 10
63.300404649
 20
23.5638857787
 30
0.0
 10
63.3003970283
 20
23.5636926194
 30
0.0
  0
SPLINE
  5
380
100
AcDbEntity
  8
0
100
AcDbSpline
 62
7
  6
CONTINUOUS
 70
0
 71
3
 72
9
 73
5
 74
0
 42
0.0000001
 43
0.0000001
 44
0.0000000001
 40
0.0
 40
0.0
 40
0.0
 40
0.0
 40
0.5336728756
 40
1.0
 40
1.0
 40
1.0
 40
1.0
 10
60.1796155775
 20
25.9763519076
 30
0.0
 10
60.4541569591
 20
25.8719012924
 30
0.0
 10
60.9645660695
 20
25.6652938755
 30
0.0
 10
61.462358702
 20
25.4292356799
 30
0.0
 10
61.6894606721
 20
25.3096320196
 30
0.0
  0
SPLINE
  5
381
100
AcDbEntity
  8
0
100
AcDbSpline
 62
7
  6
CONTINUOUS
 70
0
 71
3
 72
13
 73
9
 74
0
 42
0.0000001
 43
0.0000001
 44
0.0000000001
 40
0.0
 40
0.0
 40
0.0
 40
0.0
 40
0.331914803
 40
0.5992167131
 40
0.712212659
 40
0.8143049282
 40
0.9088236907
 40
1.0
 40
1.0
 40
1.0
 40
1.0
 10
61.940542109
 20
25.171881297
 30
0.0
 10
62.1524922121
 20
25.0505294636
 30
0.0
 10
62.5251836669
 20
24.8131310266
 30
0.0
 10
62.9204456759
 20
24.4622690163
 30
0.0
 10
63.133818715
 20
24.1770354659
 30
0.0
 10
63.2390881155
 20
23.9735614222
 30
0.0
 10
63.2975841874
 20
23.7684153952
 30
0.0
 10
63.3043588036
 20
23.6304894089
 30
0.0
 10
63.2998318553
 20
23.5635523759
 30
0.0
  0
SPLINE
  5
382
100
AcDbEntity
  8
0
100
AcDbSpline
 62
7
  6
CONTINUOUS
 70
0
 71
3
 72
8
 73
4
 74
0
 42
0.0000001
 43
0.0000001
 44
0.0000000001
 40
0.0
 40
0.0
 40
0.0
 40
0.0
 40
1.0
 40
1.0
 40
1.0
 40
1.0
 10
16.5623082925
 20
23.5578824803
 30
0.0
 10
16.5615972743
 20
23.5629079757
 30
0.0
 10
16.5620945678
 20
23.5681711863
 30
0.0
 10
16.5634307838
 20
23.5730676828
 30
0.0
  0
SPLINE
  5
383
100
AcDbEntity
  8
0
100
AcDbSpline
 62
7
  6
CONTINUOUS
 70
0
 71
3
 72
12
 73
8
 74
0
 42
0.0000001
 43
0.0000001
 44
0.0000000001
 40
0.0
 40
0.0
 40
0.0
 40
0.0
 40
0.2728183024
 40
0.4104237479
 40
0.5444305343
 40
0.7901508016
 40
1.0
 40
1.0
 40
1.0
 40
1.0
 10
58.9071442773
 20
68.9241891822
 30
0.0
 10
58.752484591
 20
68.9242344603
 30
0.0
 10
58.5158704215
 20
68.8741931929
 30
0.0
 10
58.2483918127
 20
68.7168441988
 30
0.0
 10
58.029072947
 20
68.5192734279
 30
0.0
 10
57.8538075862
 20
68.2239793558
 30
0.0
 10
57.8081090917
 20
67.9644072267
 30
0.0
 10
57.8070709591
 20
67.8454490172
 30
0.0
  0
SPLINE
  5
384
100
AcDbEntity
  8
0
100
AcDbSpline
 62
7
  6
CONTINUOUS
 70
0
 71
3
 72
13
 73
9
 74
0
 42
0.0000001
 43
0.0000001
 44
0.0000000001
 40
0.0
 40
0.0
 40
0.0
 40
0.0
 40
0.3065014363
 40
0.4459642012
 40
0.5761427771
 40
0.8076726899
 40
0.9095826413
 40
1.0
 40
1.0
 40
1.0
 40
1.0
 10
59.6630113062
 20
67.0363428592
 30
0.0
 10
59.6304496523
 20
67.2471727486
 30
0.0
 10
59.5721074036
 20
67.5523964258
 30
0.0
 10
59.4730244701
 20
67.9412105308
 30
0.0
 10
59.3744486762
 20
68.2753244581
 30
0.0
 10
59.2523836007
 20
68.5784719947
 30
0.0
 10
59.0739530349
 20
68.8155689458
 30
0.0
 10
58.9645370134
 20
68.8986304143
 30
0.0
 10
58.9070290745
 20
68.9241892097
 30
0.0
  0
SPLINE
  5
385
100
AcDbEntity
  8
0
100
AcDbSpline
 62
7
  6
CONTINUOUS
 70
0
 71
3
 72
11
 73
7
 74
0
 42
0.0000001
 43
0.0000001
 44
0.0000000001
 40
0.0
 40
0.0
 40
0.0
 40
0.0
 40
0.2957588325
 40
0.5564097598
 40
0.7881782361
 40
1.0
 40
1.0
 40
1.0
 40
1.0
 10
61.1586170586
 20
69.6150985994
 30
0.0
 10
61.2668241621
 20
69.7043612476
 30
0.0
 10
61.4623196724
 20
69.8827117593
 30
0.0
 10
61.7021787593
 20
70.1713986409
 30
0.0
 10
61.8680414522
 20
70.4636858988
 30
0.0
 10
61.9294853349
 20
70.6674454239
 30
0.0
 10
61.9455409581
 20
70.7666175526
 30
0.0
  0
SPLINE
  5
386
100
AcDbEntity
  8
0
100
AcDbSpline
 62
7
  6
CONTINUOUS
 70
0
 71
3
 72
13
 73
9
 74
0
 42
0.0000001
 43
0.0000001
 44
0.0000000001
 40
0.0
 40
0.0
 40
0.0
 40
0.0
 40
0.311846572
 40
0.5959576321
 40
0.7214738522
 40
0.8323721234
 40
0.9259934038
 40
1.0
 40
1.0
 40
1.0
 40
1.0
 10
58.9070693214
 20
68.9241851755
 30
0.0
 10
59.1479167579
 20
68.9748628668
 30
0.0
 10
59.607708511
 20
69.0738999838
 30
0.0
 10
60.1607945231
 20
69.2105508049
 30
0.0
 10
60.553967962
 20
69.3299409704
 30
0.0
 10
60.7992683828
 20
69.4182765042
 30
0.0
 10
60.9997634992
 20
69.5086414564
 30
0.0
 10
61.1135829454
 20
69.5780247957
 30
0.0
 10
61.1587196647
 20
69.6150959646
 30
0.0
  0
SPLINE
  5
387
100
AcDbEntity
  8
0
100
AcDbSpline
 62
7
  6
CONTINUOUS
 70
0
 71
3
 72
11
 73
7
 74
0
 42
0.0000001
 43
0.0000001
 44
0.0000000001
 40
0.0
 40
0.0
 40
0.0
 40
0.0
 40
0.2511089181
 40
0.5016196956
 40
0.7511831766
 40
1.0
 40
1.0
 40
1.0
 40
1.0
 10
61.9453754339
 20
70.7666235411
 30
0.0
 10
62.0599589199
 20
70.7666588395
 30
0.0
 10
62.290781989
 20
70.7271713464
 30
0.0
 10
62.5951304422
 20
70.5556160605
 30
0.0
 10
62.8232936996
 20
70.2923981598
 30
0.0
 10
62.9066479184
 20
70.0748952693
 30
0.0
 10
62.9280553833
 20
69.9633941309
 30
0.0
  0
SPLINE
  5
388
100
AcDbEntity
  8
0
100
AcDbSpline
 62
7
  6
CONTINUOUS
 70
0
 71
3
 72
11
 73
7
 74
0
 42
0.0000001
 43
0.0000001
 44
0.0000000001
 40
0.0
 40
0.0
 40
0.0
 40
0.0
 40
0.2483172526
 40
0.4984489519
 40
0.7494640731
 40
1.0
 40
1.0
 40
1.0
 40
1.0
 10
61.1590338669
 20
69.615510729
 30
0.0
 10
61.2682149967
 20
69.6127185437
 30
0.0
 10
61.4880658715
 20
69.5698102806
 30
0.0
 10
61.7786464027
 20
69.4024890899
 30
0.0
 10
62.0017875102
 20
69.1509904964
 30
0.0
 10
62.0896747441
 20
68.943631993
 30
0.0
 10
62.1155965946
 20
68.8365316641
 30
0.0
  0
SPLINE
  5
389
100
AcDbEntity
  8
0
100
AcDbSpline
 62
7
  6
CONTINUOUS
 70
0
 71
3
 72
11
 73
7
 74
0
 42
0.0000001
 43
0.0000001
 44
0.0000000001
 40
0.0
 40
0.0
 40
0.0
 40
0.0
 40
0.2995084994
 40
0.4993377917
 40
0.6804959196
 40
1.0
 40
1.0
 40
1.0
 40
1.0
 10
62.1155965946
 20
68.8365316641
 30
0.0
 10
62.2266325932
 20
68.924112395
 30
0.0
 10
62.4050148847
 20
69.0792901973
 30
0.0
 10
62.6206692783
 20
69.3186056435
 30
0.0
 10
62.8102004983
 20
69.5899764352
 30
0.0
 10
62.9018788437
 20
69.8148220126
 30
0.0
 10
62.9280553833
 20
69.9633941309
 30
0.0
  0
SPLINE
  5
38A
100
AcDbEntity
  8
0
100
AcDbSpline
 62
7
  6
CONTINUOUS
 70
0
 71
3
 72
19
 73
15
 74
0
 42
0.0000001
 43
0.0000001
 44
0.0000000001
 40
0.0
 40
0.0
 40
0.0
 40
0.0
 40
0.0650088683
 40
0.1259377285
 40
0.1873396294
 40
0.2517190499
 40
0.3194308966
 40
0.3896741373
 40
0.5338546211
 40
0.675399903
 40
0.8052855117
 40
0.9155079851
 40
0.9611838526
 40
1.0
 40
1.0
 40
1.0
 40
1.0
 10
59.9522298421
 20
65.8005231253
 30
0.0
 10
60.0366020395
 20
65.8014517487
 30
0.0
 10
60.2010159285
 20
65.8231162418
 30
0.0
 10
60.4262949776
 20
65.9224553606
 30
0.0
 10
60.6168424146
 20
66.0756600029
 30
0.0
 10
60.7794703435
 20
66.2683243244
 30
0.0
 10
60.9225773347
 20
66.4890109685
 30
0.0
 10
61.0973490052
 20
66.8110936561
 30
0.0
 10
61.2843357037
 20
67.2340838695
 30
0.0
 10
61.4862535907
 20
67.7342863706
 30
0.0
 10
61.6807938576
 20
68.1896714715
 30
0.0
 10
61.8512215803
 20
68.5206856081
 30
0.0
 10
61.9984919517
 20
68.7265793832
 30
0.0
 10
62.0758054951
 20
68.8056560381
 30
0.0
 10
62.1155460388
 20
68.8366224583
 30
0.0
  0
SPLINE
  5
38B
100
AcDbEntity
  8
0
100
AcDbSpline
 62
7
  6
CONTINUOUS
 70
0
 71
3
 72
13
 73
9
 74
0
 42
0.0000001
 43
0.0000001
 44
0.0000000001
 40
0.0
 40
0.0
 40
0.0
 40
0.0
 40
0.076470113
 40
0.1728493514
 40
0.2839608873
 40
0.4058497264
 40
0.6800717147
 40
1.0
 40
1.0
 40
1.0
 40
1.0
 10
59.6630123246
 20
67.0363421863
 30
0.0
 10
59.6682740488
 20
67.0043873903
 30
0.0
 10
59.6857298367
 20
66.9331622467
 30
0.0
 10
59.718511663
 20
66.8175041239
 30
0.0
 10
59.7578371629
 20
66.6836536568
 30
0.0
 10
59.8175535883
 20
66.4773164977
 30
0.0
 10
59.8929624433
 20
66.1834769603
 30
0.0
 10
59.9365598806
 20
65.9351277428
 30
0.0
 10
59.9522000481
 20
65.800543816
 30
0.0
  0
SPLINE
  5
38C
100
AcDbEntity
  8
0
100
AcDbSpline
 62
7
  6
CONTINUOUS
 70
0
 71
3
 72
9
 73
5
 74
0
 42
0.0000001
 43
0.0000001
 44
0.0000000001
 40
0.0
 40
0.0
 40
0.0
 40
0.0
 40
0.2449742083
 40
1.0
 40
1.0
 40
1.0
 40
1.0
 10
59.952458895
 20
65.8004219487
 30
0.0
 10
59.9636669444
 20
65.6134574864
 30
0.0
 10
60.0059302555
 20
64.8500600439
 30
0.0
 10
60.0327249123
 20
64.0857386273
 30
0.0
 10
60.0413132528
 20
63.5085318999
 30
0.0
  0
SPLINE
  5
38D
100
AcDbEntity
  8
0
100
AcDbSpline
 62
7
  6
CONTINUOUS
 70
0
 71
3
 72
9
 73
5
 74
0
 42
0.0000001
 43
0.0000001
 44
0.0000000001
 40
0.0
 40
0.0
 40
0.0
 40
0.0
 40
0.5086644901
 40
1.0
 40
1.0
 40
1.0
 40
1.0
 10
60.1564788105
 20
62.9721900528
 30
0.0
 10
60.6434048694
 20
63.904660518
 30
0.0
 10
61.4663985631
 20
65.8125602698
 30
0.0
 10
61.9605792973
 20
67.8324692519
 30
0.0
 10
62.1155926097
 20
68.8366878804
 30
0.0
  0
SPLINE
  5
38E
100
AcDbEntity
  8
0
100
AcDbSpline
 62
7
  6
CONTINUOUS
 70
0
 71
3
 72
14
 73
10
 74
0
 42
0.0000001
 43
0.0000001
 44
0.0000000001
 40
0.0
 40
0.0
 40
0.0
 40
0.0
 40
0.3274039248
 40
0.4795736163
 40
0.6195522412
 40
0.7428320253
 40
0.8474535677
 40
0.9322743842
 40
1.0
 40
1.0
 40
1.0
 40
1.0
 10
28.5374079937
 20
14.1630054237
 30
0.0
 10
28.2666393474
 20
14.3086455884
 30
0.0
 10
27.8719230362
 20
14.5254955225
 30
0.0
 10
27.3582886492
 20
14.798767762
 30
0.0
 10
27.0096788056
 20
14.9740550406
 30
0.0
 10
26.6939050396
 20
15.1145519353
 30
0.0
 10
26.4169325476
 20
15.2137244159
 30
0.0
 10
26.1804315503
 20
15.2661018638
 30
0.0
 10
26.03553836
 20
15.2698686858
 30
0.0
 10
25.9724912288
 20
15.2615129044
 30
0.0
  0
SPLINE
  5
38F
100
AcDbEntity
  8
0
100
AcDbSpline
 62
7
  6
CONTINUOUS
 70
0
 71
3
 72
11
 73
7
 74
0
 42
0.0000001
 43
0.0000001
 44
0.0000000001
 40
0.0
 40
0.0
 40
0.0
 40
0.0
 40
0.240968099
 40
0.4893218569
 40
0.7429803127
 40
1.0
 40
1.0
 40
1.0
 40
1.0
 10
59.317975638
 20
66.0691682523
 30
0.0
 10
59.4038576147
 20
65.8728425298
 30
0.0
 10
59.5664030682
 20
65.4687833419
 30
0.0
 10
59.7677096613
 20
64.8388734485
 30
0.0
 10
59.9287590475
 20
64.182911961
 30
0.0
 10
60.0085874386
 20
63.7354382874
 30
0.0
 10
60.0407554739
 20
63.5091505443
 30
0.0
  0
SPLINE
  5
390
100
AcDbEntity
  8
0
100
AcDbSpline
 62
7
  6
CONTINUOUS
 70
0
 71
3
 72
17
 73
13
 74
0
 42
0.0000001
 43
0.0000001
 44
0.0000000001
 40
0.0
 40
0.0
 40
0.0
 40
0.0
 40
0.0397407422
 40
0.0837461368
 40
0.1338127905
 40
0.190507365
 40
0.3193364386
 40
0.4553511491
 40
0.5987040505
 40
0.7503191749
 40
0.8894429302
 40
1.0
 40
1.0
 40
1.0
 40
1.0
 10
57.7636047
 20
62.8479175491
 30
0.0
 10
57.7638623491
 20
62.8826701647
 30
0.0
 10
57.7765478065
 20
62.956271747
 30
0.0
 10
57.8315370793
 20
63.0612993143
 30
0.0
 10
57.920971722
 20
63.1597348103
 30
0.0
 10
58.0881653717
 20
63.2819015835
 30
0.0
 10
58.3513756883
 20
63.3906630273
 30
0.0
 10
58.7032601682
 20
63.4588827701
 30
0.0
 10
59.0816911974
 20
63.4689335869
 30
0.0
 10
59.4597602265
 20
63.4155876901
 30
0.0
 10
59.7933709088
 20
63.2996044298
 30
0.0
 10
59.9778693341
 20
63.1735828669
 30
0.0
 10
60.0434258079
 20
63.1025199006
 30
0.0
  0
SPLINE
  5
391
100
AcDbEntity
  8
0
100
AcDbSpline
 62
7
  6
CONTINUOUS
 70
0
 71
3
 72
17
 73
13
 74
0
 42
0.0000001
 43
0.0000001
 44
0.0000000001
 40
0.0
 40
0.0
 40
0.0
 40
0.0
 40
0.1727631342
 40
0.3221509163
 40
0.453401373
 40
0.5708664909
 40
0.6785878034
 40
0.7303767044
 40
0.7818766946
 40
0.8338376882
 40
0.8868945904
 40
1.0
 40
1.0
 40
1.0
 40
1.0
 10
55.1859657446
 20
58.5741683692
 30
0.0
 10
55.4030547578
 20
58.5781880264
 30
0.0
 10
55.8077644497
 20
58.5959919913
 30
0.0
 10
56.3751901645
 20
58.6511340186
 30
0.0
 10
56.8697960786
 20
58.7287694908
 30
0.0
 10
57.3078059292
 20
58.8230787366
 30
0.0
 10
57.6423242495
 20
58.9232978692
 30
0.0
 10
57.8845198735
 20
59.0322134825
 30
0.0
 10
58.055568118
 20
59.1264415069
 30
0.0
 10
58.2213419752
 20
59.2325377474
 30
0.0
 10
58.4452434768
 20
59.3907514515
 30
0.0
 10
58.6049309168
 20
59.5266862652
 30
0.0
 10
58.7058490344
 20
59.6267959238
 30
0.0
  0
SPLINE
  5
392
100
AcDbEntity
  8
0
100
AcDbSpline
 62
7
  6
CONTINUOUS
 70
0
 71
3
 72
16
 73
12
 74
0
 42
0.0000001
 43
0.0000001
 44
0.0000000001
 40
0.0
 40
0.0
 40
0.0
 40
0.0
 40
0.1304531182
 40
0.2592126792
 40
0.3854248766
 40
0.5100651974
 40
0.6338089188
 40
0.7558149432
 40
0.8177420378
 40
0.8788514039
 40
1.0
 40
1.0
 40
1.0
 40
1.0
 10
55.1861817165
 20
58.5744200069
 30
0.0
 10
55.367810932
 20
58.3723806433
 30
0.0
 10
55.711229149
 20
57.9547342641
 30
0.0
 10
56.1612806089
 20
57.2886351837
 30
0.0
 10
56.541019242
 20
56.5941760481
 30
0.0
 10
56.8668036673
 20
55.8848554416
 30
0.0
 10
57.1487331314
 20
55.1663427101
 30
0.0
 10
57.3455738167
 20
54.5562474519
 30
0.0
 10
57.4891160487
 20
54.0665471659
 30
0.0
 10
57.6217985395
 20
53.5754842154
 30
0.0
 10
57.6977193864
 20
53.2033882772
 30
0.0
 10
57.7539859929
 20
52.9574415041
 30
0.0
  0
SPLINE
  5
393
100
AcDbEntity
  8
0
100
AcDbSpline
 62
7
  6
CONTINUOUS
 70
0
 71
3
 72
10
 73
6
 74
0
 42
0.0000001
 43
0.0000001
 44
0.0000000001
 40
0.0
 40
0.0
 40
0.0
 40
0.0
 40
0.2420069345
 40
0.487755882
 40
1.0
 40
1.0
 40
1.0
 40
1.0
 10
57.7539859929
 20
52.9574415041
 30
0.0
 10
57.7169268512
 20
53.5027873005
 30
0.0
 10
57.7025246774
 20
54.6070063043
 30
0.0
 10
57.9122977443
 20
56.8589006915
 30
0.0
 10
58.3329659176
 20
58.5323321129
 30
0.0
 10
58.7071363917
 20
59.6271256881
 30
0.0
  0
SPLINE
  5
394
100
AcDbEntity
  8
0
100
AcDbSpline
 62
7
  6
CONTINUOUS
 70
0
 71
3
 72
9
 73
5
 74
0
 42
0.0000001
 43
0.0000001
 44
0.0000000001
 40
0.0
 40
0.0
 40
0.0
 40
0.0
 40
0.2464919264
 40
1.0
 40
1.0
 40
1.0
 40
1.0
 10
57.7408348602
 20
52.7283112176
 30
0.0
 10
57.7399119863
 20
52.7374914892
 30
0.0
 10
57.7369282395
 20
52.7748090511
 30
0.0
 10
57.7369837078
 20
52.8123586969
 30
0.0
 10
57.7386009417
 20
52.8405171693
 30
0.0
  0
SPLINE
  5
395
100
AcDbEntity
  8
0
100
AcDbSpline
 62
7
  6
CONTINUOUS
 70
0
 71
3
 72
9
 73
5
 74
0
 42
0.0000001
 43
0.0000001
 44
0.0000000001
 40
0.0
 40
0.0
 40
0.0
 40
0.0
 40
0.2446518384
 40
1.0
 40
1.0
 40
1.0
 40
1.0
 10
57.7386009417
 20
52.8405171693
 30
0.0
 10
57.7391522316
 20
52.8501159537
 30
0.0
 10
57.7421501891
 20
52.8893057463
 30
0.0
 10
57.7480830945
 20
52.9282576152
 30
0.0
 10
57.7539995813
 20
52.957346546
 30
0.0
  0
SPLINE
  5
396
100
AcDbEntity
  8
0
100
AcDbSpline
 62
7
  6
CONTINUOUS
 70
0
 71
3
 72
9
 73
5
 74
0
 42
0.0000001
 43
0.0000001
 44
0.0000000001
 40
0.0
 40
0.0
 40
0.0
 40
0.0
 40
0.5083724187
 40
1.0
 40
1.0
 40
1.0
 40
1.0
 10
54.4164057917
 20
58.6145854116
 30
0.0
 10
54.3277598675
 20
58.6979025883
 30
0.0
 10
54.121687519
 20
58.8303130203
 30
0.0
 10
53.8812574815
 20
58.8827697949
 30
0.0
 10
53.7636099166
 20
58.882769784
 30
0.0
  0
SPLINE
  5
397
100
AcDbEntity
  8
0
100
AcDbSpline
 62
7
  6
CONTINUOUS
 70
0
 71
3
 72
9
 73
5
 74
0
 42
0.0000001
 43
0.0000001
 44
0.0000000001
 40
0.0
 40
0.0
 40
0.0
 40
0.0
 40
0.5112888735
 40
1.0
 40
1.0
 40
1.0
 40
1.0
 10
55.185969092
 20
58.5741715757
 30
0.0
 10
55.0731119215
 20
58.6978052888
 30
0.0
 10
54.7963706935
 20
58.8966041905
 30
0.0
 10
54.4554240987
 20
58.9397899667
 30
0.0
 10
54.2968448419
 20
58.9184715333
 30
0.0
  0
SPLINE
  5
398
100
AcDbEntity
  8
0
100
AcDbSpline
 62
7
  6
CONTINUOUS
 70
0
 71
3
 72
9
 73
5
 74
0
 42
0.0000001
 43
0.0000001
 44
0.0000000001
 40
0.0
 40
0.0
 40
0.0
 40
0.0
 40
0.2603645062
 40
1.0
 40
1.0
 40
1.0
 40
1.0
 10
54.4164057911
 20
58.6145854117
 30
0.0
 10
54.4829297457
 20
58.6074961723
 30
0.0
 10
54.7387436366
 20
58.5833457237
 30
0.0
 10
54.9959214181
 20
58.5730085189
 30
0.0
 10
55.1859671067
 20
58.5741713087
 30
0.0
  0
SPLINE
  5
399
100
AcDbEntity
  8
0
100
AcDbSpline
 62
7
  6
CONTINUOUS
 70
0
 71
3
 72
9
 73
5
 74
0
 42
0.0000001
 43
0.0000001
 44
0.0000000001
 40
0.0
 40
0.0
 40
0.0
 40
0.0
 40
0.379321636
 40
1.0
 40
1.0
 40
1.0
 40
1.0
 10
59.8815029652
 20
15.4175448931
 30
0.0
 10
59.8756434777
 20
15.4096277191
 30
0.0
 10
59.8479692688
 20
15.4003165641
 30
0.0
 10
59.8225588612
 20
15.4046746868
 30
0.0
 10
59.8067275928
 20
15.4076950116
 30
0.0
  0
SPLINE
  5
39A
100
AcDbEntity
  8
0
100
AcDbSpline
 62
7
  6
CONTINUOUS
 70
0
 71
3
 72
19
 73
15
 74
0
 42
0.0000001
 43
0.0000001
 44
0.0000000001
 40
0.0
 40
0.0
 40
0.0
 40
0.0
 40
0.2238033849
 40
0.4191112334
 40
0.5855605664
 40
0.7229338478
 40
0.7807436246
 40
0.8313498036
 40
0.8748357667
 40
0.9113545631
 40
0.9412013561
 40
0.9649532611
 40
0.9837828733
 40
1.0
 40
1.0
 40
1.0
 40
1.0
 10
62.3772346223
 20
37.6130004318
 30
0.0
 10
62.1229687574
 20
37.6474615747
 30
0.0
 10
61.6472914856
 20
37.7156528275
 30
0.0
 10
60.9848455467
 20
37.8250547631
 30
0.0
 10
60.4230994771
 20
37.9346495542
 30
0.0
 10
60.0195142554
 20
38.0305887495
 30
0.0
 10
59.7488679451
 20
38.1092902273
 30
0.0
 10
59.5837200501
 20
38.1647687149
 30
0.0
 10
59.4444527095
 20
38.2200645031
 30
0.0
 10
59.3310166796
 20
38.2751321663
 30
0.0
 10
59.2431542251
 20
38.3300614771
 30
0.0
 10
59.1804802557
 20
38.3853106591
 30
0.0
 10
59.1425439383
 20
38.4426507647
 30
0.0
 10
59.1365883367
 20
38.4841917887
 30
0.0
 10
59.1386929915
 20
38.502665217
 30
0.0
  0
SPLINE
  5
39B
100
AcDbEntity
  8
0
100
AcDbSpline
 62
7
  6
CONTINUOUS
 70
0
 71
3
 72
20
 73
16
 74
0
 42
0.0000001
 43
0.0000001
 44
0.0000000001
 40
0.0
 40
0.0
 40
0.0
 40
0.0
 40
0.2316754632
 40
0.4332563885
 40
0.604524496
 40
0.7452642692
 40
0.8041204525
 40
0.8552669172
 40
0.8986799825
 40
0.9343386884
 40
0.9622278535
 40
0.9823470743
 40
0.994747987
 40
0.9981541924
 40
1.0
 40
1.0
 40
1.0
 40
1.0
 10
62.7853321003
 20
43.6369488038
 30
0.0
 10
63.0288728774
 20
43.6310685752
 30
0.0
 10
63.4843033854
 20
43.6194193121
 30
0.0
 10
64.1196999056
 20
43.6006844135
 30
0.0
 10
64.6594274898
 20
43.5819423564
 30
0.0
 10
65.0490611258
 20
43.5655914298
 30
0.0
 10
65.3123847721
 20
43.5521640637
 30
0.0
 10
65.4734241721
 20
43.5427342613
 30
0.0
 10
65.6100519212
 20
43.5333437256
 30
0.0
 10
65.7220898609
 20
43.5240564848
 30
0.0
 10
65.8097371972
 20
43.5148380832
 30
0.0
 10
65.8723376951
 20
43.5060536211
 30
0.0
 10
65.909892138
 20
43.4979324068
 30
0.0
 10
65.9267350226
 20
43.4913456147
 30
0.0
 10
65.9313576675
 20
43.4869744918
 30
0.0
 10
65.9314818106
 20
43.4850375595
 30
0.0
  0
SPLINE
  5
39C
100
AcDbEntity
  8
0
100
AcDbSpline
 62
7
  6
CONTINUOUS
 70
0
 71
3
 72
23
 73
19
 74
0
 42
0.0000001
 43
0.0000001
 44
0.0000000001
 40
0.0
 40
0.0
 40
0.0
 40
0.0
 40
0.0052603031
 40
0.0108606703
 40
0.0177210251
 40
0.0263791665
 40
0.0371158842
 40
0.0500846892
 40
0.0828753656
 40
0.1245612093
 40
0.1746560725
 40
0.2326593331
 40
0.2980406606
 40
0.3702108365
 40
0.4484395086
 40
0.6200151072
 40
0.8063629567
 40
1.0
 40
1.0
 40
1.0
 40
1.0
 10
59.4308911912
 20
43.4829648375
 30
0.0
 10
59.430915008
 20
43.491801604
 30
0.0
 10
59.4267780094
 20
43.5104483598
 30
0.0
 10
59.4065004779
 20
43.5334963304
 30
0.0
 10
59.3749300316
 20
43.5506074396
 30
0.0
 10
59.3323287865
 20
43.5628192343
 30
0.0
 10
59.2783179333
 20
43.5701262203
 30
0.0
 10
59.1833535347
 20
43.5730246539
 30
0.0
 10
59.0365686608
 20
43.5643836448
 30
0.0
 10
58.8279629892
 20
43.5483881296
 30
0.0
 10
58.5766480864
 20
43.5350395503
 30
0.0
 10
58.2853731766
 20
43.5254876205
 30
0.0
 10
57.9569464156
 20
43.5178035604
 30
0.0
 10
57.5945186336
 20
43.5110784989
 30
0.0
 10
57.0536944059
 20
43.5028704822
 30
0.0
 10
56.3210550988
 20
43.4938455448
 30
0.0
 10
55.3945163934
 20
43.4861106488
 30
0.0
 10
54.7561818311
 20
43.4835879308
 30
0.0
 10
54.4308914273
 20
43.4827694682
 30
0.0
  0
SPLINE
  5
39D
100
AcDbEntity
  8
0
100
AcDbSpline
 62
7
  6
CONTINUOUS
 70
0
 71
3
 72
9
 73
5
 74
0
 42
0.0000001
 43
0.0000001
 44
0.0000000001
 40
0.0
 40
0.0
 40
0.0
 40
0.0
 40
0.5001665706
 40
1.0
 40
1.0
 40
1.0
 40
1.0
 10
22.3750561587
 20
12.7600658199
 30
0.0
 10
22.8827378704
 20
12.2963666459
 30
0.0
 10
24.0058520073
 20
11.4827560589
 30
0.0
 10
25.2667023912
 20
10.9122657764
 30
0.0
 10
25.9161202014
 20
10.6878006529
 30
0.0
  0
SPLINE
  5
39E
100
AcDbEntity
  8
0
100
AcDbSpline
 62
7
  6
CONTINUOUS
 70
0
 71
3
 72
9
 73
5
 74
0
 42
0.0000001
 43
0.0000001
 44
0.0000000001
 40
0.0
 40
0.0
 40
0.0
 40
0.0
 40
0.5086430134
 40
1.0
 40
1.0
 40
1.0
 40
1.0
 10
19.705246357
 20
62.97168061
 30
0.0
 10
19.2184374794
 20
63.9040255107
 30
0.0
 10
18.3964718962
 20
65.812197548
 30
0.0
 10
17.9033293527
 20
67.832001759
 30
0.0
 10
17.7481206317
 20
68.8361167459
 30
0.0
  0
SPLINE
  5
39F
100
AcDbEntity
  8
0
100
AcDbSpline
 62
7
  6
CONTINUOUS
 70
0
 71
3
 72
19
 73
15
 74
0
 42
0.0000001
 43
0.0000001
 44
0.0000000001
 40
0.0
 40
0.0
 40
0.0
 40
0.0
 40
0.0652365283
 40
0.1262803786
 40
0.1878574951
 40
0.2520439161
 40
0.3896360309
 40
0.5340372685
 40
0.6758533405
 40
0.743165724
 40
0.8061224786
 40
0.8632649233
 40
0.9141599519
 40
1.0
 40
1.0
 40
1.0
 40
1.0
 10
19.9095233448
 20
65.800610898
 30
0.0
 10
19.8249704431
 20
65.7966118514
 30
0.0
 10
19.6582608826
 20
65.8157576672
 30
0.0
 10
19.4360785825
 20
65.9234123975
 30
0.0
 10
19.246860033
 20
66.077397529
 30
0.0
 10
19.0236803782
 20
66.3379390497
 30
0.0
 10
18.79955704
 20
66.730404178
 30
0.0
 10
18.5778335874
 20
67.2334979018
 30
0.0
 10
18.4059886564
 20
67.6588951512
 30
0.0
 10
18.2703584432
 20
67.984851786
 30
0.0
 10
18.1708427895
 20
68.2067858043
 30
0.0
 10
18.0689805025
 20
68.4041419077
 30
0.0
 10
17.9356130641
 20
68.6176500197
 30
0.0
 10
17.8237947148
 20
68.7567753291
 30
0.0
 10
17.7462222078
 20
68.8367023683
 30
0.0
  0
SPLINE
  5
3A0
100
AcDbEntity
  8
0
100
AcDbSpline
 62
7
  6
CONTINUOUS
 70
0
 71
3
 72
9
 73
5
 74
0
 42
0.0000001
 43
0.0000001
 44
0.0000000001
 40
0.0
 40
0.0
 40
0.0
 40
0.0
 40
0.5396978466
 40
1.0
 40
1.0
 40
1.0
 40
1.0
 10
20.5436503245
 20
66.0690377449
 30
0.0
 10
20.4197475342
 20
66.0508901442
 30
0.0
 10
20.1928480568
 20
65.9932034824
 30
0.0
 10
19.98748508
 20
65.8735879347
 30
0.0
 10
19.9094921165
 20
65.8006226873
 30
0.0
  0
SPLINE
  5
3A1
100
AcDbEntity
  8
0
100
AcDbSpline
 62
7
  6
CONTINUOUS
 70
0
 71
3
 72
11
 73
7
 74
0
 42
0.0000001
 43
0.0000001
 44
0.0000000001
 40
0.0
 40
0.0
 40
0.0
 40
0.0
 40
0.2455097851
 40
0.4945867313
 40
0.746219643
 40
1.0
 40
1.0
 40
1.0
 40
1.0
 10
19.9094921165
 20
65.8006226873
 30
0.0
 10
19.8978916027
 20
65.6132806586
 30
0.0
 10
19.8771900556
 20
65.235710104
 30
0.0
 10
19.850879072
 20
64.6657974013
 30
0.0
 10
19.8320212202
 20
64.089247168
 30
0.0
 10
19.8250252298
 20
63.7028993052
 30
0.0
 10
19.8210594916
 20
63.5089158496
 30
0.0
  0
SPLINE
  5
3A2
100
AcDbEntity
  8
0
100
AcDbSpline
 62
7
  6
CONTINUOUS
 70
0
 71
3
 72
11
 73
7
 74
0
 42
0.0000001
 43
0.0000001
 44
0.0000000001
 40
0.0
 40
0.0
 40
0.0
 40
0.0
 40
0.2454144487
 40
0.5016093583
 40
0.7568390376
 40
1.0
 40
1.0
 40
1.0
 40
1.0
 10
59.5898838787
 20
81.4479655856
 30
0.0
 10
59.6971731485
 20
81.4485270572
 30
0.0
 10
59.9173838031
 20
81.4110224949
 30
0.0
 10
60.2179192374
 20
81.2579462709
 30
0.0
 10
60.4425066724
 20
81.0075746042
 30
0.0
 10
60.5338653676
 20
80.805102204
 30
0.0
 10
60.5597432554
 20
80.7019944638
 30
0.0
  0
SPLINE
  5
3A3
100
AcDbEntity
  8
0
100
AcDbSpline
 62
7
  6
CONTINUOUS
 70
0
 71
3
 72
13
 73
9
 74
0
 42
0.0000001
 43
0.0000001
 44
0.0000000001
 40
0.0
 40
0.0
 40
0.0
 40
0.0
 40
0.2452825356
 40
0.3720273537
 40
0.4999991706
 40
0.6279713474
 40
0.754716761
 40
1.0
 40
1.0
 40
1.0
 40
1.0
 10
25.9162914511
 20
10.6878548476
 30
0.0
 10
28.0854991935
 20
9.7941401398
 30
0.0
 10
31.5297664297
 20
8.7834736396
 30
0.0
 10
36.2684158179
 20
8.1063833452
 30
0.0
 10
39.9305658042
 20
7.9317907467
 30
0.0
 10
43.5927244051
 20
8.1063224493
 30
0.0
 10
48.3314012077
 20
8.7833284888
 30
0.0
 10
51.7757015249
 20
9.7939342032
 30
0.0
 10
53.9449255882
 20
10.6876269588
 30
0.0
  0
SPLINE
  5
3A4
100
AcDbEntity
  8
0
100
AcDbSpline
 62
7
  6
CONTINUOUS
 70
0
 71
3
 72
17
 73
13
 74
0
 42
0.0000001
 43
0.0000001
 44
0.0000000001
 40
0.0
 40
0.0
 40
0.0
 40
0.0
 40
0.2169853324
 40
0.4079963414
 40
0.5728663067
 40
0.711431596
 40
0.8235346288
 40
0.9090315143
 40
0.9417685955
 40
0.9678231178
 40
0.9872096951
 40
1.0
 40
1.0
 40
1.0
 40
1.0
 10
62.7842882877
 20
43.2699224837
 30
0.0
 10
62.5425755188
 20
43.2775167092
 30
0.0
 10
62.0881071193
 20
43.2925394282
 30
0.0
 10
61.4500872054
 20
43.3164478298
 30
0.0
 10
60.899536267
 20
43.340288123
 30
0.0
 10
60.437009467
 20
43.3639757033
 30
0.0
 10
60.0630928983
 20
43.387527198
 30
0.0
 10
59.8071586371
 20
43.408131204
 30
0.0
 10
59.6472968822
 20
43.4255056978
 30
0.0
 10
59.5608977199
 20
43.437170054
 30
0.0
 10
59.4970937677
 20
43.4487444549
 30
0.0
 10
59.4621623613
 20
43.4576744596
 30
0.0
 10
59.4489581378
 20
43.4630457559
 30
0.0
  0
SPLINE
  5
3A5
100
AcDbEntity
  8
0
100
AcDbSpline
 62
7
  6
CONTINUOUS
 70
0
 71
3
 72
20
 73
16
 74
0
 42
0.0000001
 43
0.0000001
 44
0.0000000001
 40
0.0
 40
0.0
 40
0.0
 40
0.0
 40
0.2252782688
 40
0.4211854718
 40
0.5876490219
 40
0.6598438463
 40
0.7246963008
 40
0.7822386878
 40
0.8325290364
 40
0.875668271
 40
0.9118335527
 40
0.9413480122
 40
0.9648364511
 40
0.9835695205
 40
1.0
 40
1.0
 40
1.0
 40
1.0
 10
62.3772388106
 20
37.6129575551
 30
0.0
 10
62.6177124091
 20
37.579819571
 30
0.0
 10
63.0668498509
 20
37.5143970471
 30
0.0
 10
63.6913959851
 20
37.4096731613
 30
0.0
 10
64.1509083285
 20
37.3189877799
 30
0.0
 10
64.4695509141
 20
37.2452038954
 30
0.0
 10
64.6725481279
 20
37.1925803672
 30
0.0
 10
64.8510924828
 20
37.1400324373
 30
0.0
 10
65.0051450627
 20
37.0875742036
 30
0.0
 10
65.1347099911
 20
37.0352234233
 30
0.0
 10
65.2398608223
 20
36.9829847162
 30
0.0
 10
65.3208492896
 20
36.9307263866
 30
0.0
 10
65.3780762521
 20
36.8779748722
 30
0.0
 10
65.4116969832
 20
36.8228307771
 30
0.0
 10
65.4153701827
 20
36.7834132574
 30
0.0
 10
65.4126309716
 20
36.7659219621
 30
0.0
  0
SPLINE
  5
3A6
100
AcDbEntity
  8
0
100
AcDbSpline
 62
7
  6
CONTINUOUS
 70
0
 71
3
 72
15
 73
11
 74
0
 42
0.0000001
 43
0.0000001
 44
0.0000000001
 40
0.0
 40
0.0
 40
0.0
 40
0.0
 40
0.182890955
 40
0.3415002564
 40
0.4805604287
 40
0.6047122447
 40
0.7170980787
 40
0.8192120784
 40
0.9124565791
 40
1.0
 40
1.0
 40
1.0
 40
1.0
 10
60.0308734893
 20
62.7286512466
 30
0.0
 10
60.021484043
 20
62.5195072142
 30
0.0
 10
59.9601135975
 20
62.1316254136
 30
0.0
 10
59.8319470369
 20
61.5962764713
 30
0.0
 10
59.6681191072
 20
61.1410276863
 30
0.0
 10
59.487975703
 20
60.7502284422
 30
0.0
 10
59.3003810519
 20
60.410602493
 30
0.0
 10
59.1066568429
 20
60.1158643463
 30
0.0
 10
58.906455372
 20
59.8610085151
 30
0.0
 10
58.7717828082
 20
59.7038831629
 30
0.0
 10
58.7072914213
 20
59.627182182
 30
0.0
  0
SPLINE
  5
3A7
100
AcDbEntity
  8
0
100
AcDbSpline
 62
7
  6
CONTINUOUS
 70
0
 71
3
 72
17
 73
13
 74
0
 42
0.0000001
 43
0.0000001
 44
0.0000000001
 40
0.0
 40
0.0
 40
0.0
 40
0.0
 40
0.217303489
 40
0.4085429976
 40
0.573550928
 40
0.7121628002
 40
0.8242202569
 40
0.9095788294
 40
0.9422119974
 40
0.9681396915
 40
0.9873773622
 40
1.0
 40
1.0
 40
1.0
 40
1.0
 10
62.7842896064
 20
43.2698950312
 30
0.0
 10
63.0113502059
 20
43.2627610358
 30
0.0
 10
63.4382156648
 20
43.2486493268
 30
0.0
 10
64.0373974886
 20
43.2261883575
 30
0.0
 10
64.55424853
 20
43.2037916339
 30
0.0
 10
64.9882458312
 20
43.181540069
 30
0.0
 10
65.338835584
 20
43.1594163913
 30
0.0
 10
65.5786012768
 20
43.1400627865
 30
0.0
 10
65.7281595531
 20
43.1237324561
 30
0.0
 10
65.8088040522
 20
43.1127816231
 30
0.0
 10
65.8681733077
 20
43.101911829
 30
0.0
 10
65.9006067506
 20
43.0935267371
 30
0.0
 10
65.9127892619
 20
43.0884553916
 30
0.0
  0
SPLINE
  5
3A8
100
AcDbEntity
  8
0
100
AcDbSpline
 62
7
  6
CONTINUOUS
 70
0
 71
3
 72
9
 73
5
 74
0
 42
0.0000001
 43
0.0000001
 44
0.0000000001
 40
0.0
 40
0.0
 40
0.0
 40
0.0
 40
0.6389632779
 40
1.0
 40
1.0
 40
1.0
 40
1.0
 10
65.9127892619
 20
43.0884553916
 30
0.0
 10
65.9173707135
 20
43.0865482213
 30
0.0
 10
65.924359209
 20
43.0836386684
 30
0.0
 10
65.9301293853
 20
43.0768014796
 30
0.0
 10
65.9301058965
 20
43.0739975573
 30
0.0
  0
SPLINE
  5
3A9
100
AcDbEntity
  8
0
100
AcDbSpline
 62
7
  6
CONTINUOUS
 70
0
 71
3
 72
18
 73
14
 74
0
 42
0.0000001
 43
0.0000001
 44
0.0000000001
 40
0.0
 40
0.0
 40
0.0
 40
0.0
 40
0.2234398023
 40
0.4191051061
 40
0.58680836
 40
0.7263642506
 40
0.8375920204
 40
0.8825295499
 40
0.9203233518
 40
0.9509578603
 40
0.9744252153
 40
0.9907388923
 40
1.0
 40
1.0
 40
1.0
 40
1.0
 10
62.7853107006
 20
43.6369787095
 30
0.0
 10
62.5355043452
 20
43.6430650155
 30
0.0
 10
62.066957864
 20
43.6550932399
 30
0.0
 10
61.4109892474
 20
43.6742840642
 30
0.0
 10
60.8488714094
 20
43.6933923181
 30
0.0
 10
60.3812499367
 20
43.7124142037
 30
0.0
 10
60.0509328319
 20
43.7290216099
 30
0.0
 10
59.8344677513
 20
43.7427968034
 30
0.0
 10
59.708013741
 20
43.7522970091
 30
0.0
 10
59.6057473625
 20
43.7618181641
 30
0.0
 10
59.5273448688
 20
43.7709161068
 30
0.0
 10
59.4736175269
 20
43.7802943427
 30
0.0
 10
59.4452780001
 20
43.7870290675
 30
0.0
 10
59.436240383
 20
43.7920876547
 30
0.0
  0
SPLINE
  5
3AA
100
AcDbEntity
  8
0
100
AcDbSpline
 62
7
  6
CONTINUOUS
 70
0
 71
3
 72
13
 73
9
 74
0
 42
0.0000001
 43
0.0000001
 44
0.0000000001
 40
0.0
 40
0.0
 40
0.0
 40
0.0
 40
0.2604625725
 40
0.4004267886
 40
0.5402337611
 40
0.7997491662
 40
0.9070545448
 40
1.0
 40
1.0
 40
1.0
 40
1.0
 10
62.6808262822
 20
46.1430585255
 30
0.0
 10
62.5427081231
 20
47.6148511367
 30
0.0
 10
62.3000766397
 20
49.8748382288
 30
0.0
 10
61.9104495385
 20
52.9161822035
 30
0.0
 10
61.4714853189
 20
55.9453993666
 30
0.0
 10
60.9889988008
 20
58.7805763096
 30
0.0
 10
60.4952488205
 20
61.3429053763
 30
0.0
 10
60.2651446405
 20
62.4559229156
 30
0.0
 10
60.1564583776
 20
62.9721182004
 30
0.0
  0
SPLINE
  5
3AB
100
AcDbEntity
  8
0
100
AcDbSpline
 62
7
  6
CONTINUOUS
 70
0
 71
3
 72
9
 73
5
 74
0
 42
0.0000001
 43
0.0000001
 44
0.0000000001
 40
0.0
 40
0.0
 40
0.0
 40
0.0
 40
0.3726569392
 40
1.0
 40
1.0
 40
1.0
 40
1.0
 10
57.7917335982
 20
52.5038176293
 30
0.0
 10
57.7902181627
 20
52.5096985502
 30
0.0
 10
57.7972515088
 20
52.5267738247
 30
0.0
 10
57.8096255954
 20
52.5370466356
 30
0.0
 10
57.8175664499
 20
52.5434858776
 30
0.0
  0
SPLINE
  5
3AC
100
AcDbEntity
  8
0
100
AcDbSpline
 62
7
  6
CONTINUOUS
 70
0
 71
3
 72
9
 73
5
 74
0
 42
0.0000001
 43
0.0000001
 44
0.0000000001
 40
0.0
 40
0.0
 40
0.0
 40
0.0
 40
0.217269141
 40
1.0
 40
1.0
 40
1.0
 40
1.0
 10
57.8175664499
 20
52.5434858776
 30
0.0
 10
57.8201793591
 20
52.5456046867
 30
0.0
 10
57.8324496392
 20
52.5550557963
 30
0.0
 10
57.8454646869
 20
52.5635006121
 30
0.0
 10
57.8558103924
 20
52.5698125792
 30
0.0
  0
SPLINE
  5
3AD
100
AcDbEntity
  8
0
100
AcDbSpline
 62
7
  6
CONTINUOUS
 70
0
 71
3
 72
16
 73
12
 74
0
 42
0.0000001
 43
0.0000001
 44
0.0000000001
 40
0.0
 40
0.0
 40
0.0
 40
0.0
 40
0.121034011
 40
0.1822618889
 40
0.2441978979
 40
0.366158589
 40
0.4899121325
 40
0.61451464
 40
0.7407341844
 40
0.8695611807
 40
1.0
 40
1.0
 40
1.0
 40
1.0
 10
22.1077919387
 20
52.9574057404
 30
0.0
 10
22.1641860403
 20
53.2030880011
 30
0.0
 10
22.2395456365
 20
53.5753401992
 30
0.0
 10
22.3727512299
 20
54.0663150655
 30
0.0
 10
22.5162534825
 20
54.5562193527
 30
0.0
 10
22.7129844124
 20
55.1663240842
 30
0.0
 10
22.9950483267
 20
55.8846477972
 30
0.0
 10
23.3205270841
 20
56.5940841149
 30
0.0
 10
23.7003104741
 20
57.2886681631
 30
0.0
 10
24.1510708626
 20
57.954475231
 30
0.0
 10
24.4944382045
 20
58.3722981618
 30
0.0
 10
24.6759204428
 20
58.5744429823
 30
0.0
  0
SPLINE
  5
3AE
100
AcDbEntity
  8
0
100
AcDbSpline
 62
7
  6
CONTINUOUS
 70
0
 71
3
 72
16
 73
12
 74
0
 42
0.0000001
 43
0.0000001
 44
0.0000000001
 40
0.0
 40
0.0
 40
0.0
 40
0.0
 40
0.1730286467
 40
0.3223967156
 40
0.4534784485
 40
0.5709917109
 40
0.6787591637
 40
0.7817692042
 40
0.8338052921
 40
0.8874142963
 40
1.0
 40
1.0
 40
1.0
 40
1.0
 10
24.6759204428
 20
58.5744429823
 30
0.0
 10
24.4584682005
 20
58.5803475914
 30
0.0
 10
24.0531968023
 20
58.5938811145
 30
0.0
 10
23.4854704785
 20
58.6504956005
 30
0.0
 10
22.9912849664
 20
58.7303132717
 30
0.0
 10
22.553305345
 20
58.8254161197
 30
0.0
 10
22.1569727643
 20
58.9439157292
 30
0.0
 10
21.8575109743
 20
59.0875012534
 30
0.0
 10
21.6368658062
 20
59.2298547561
 30
0.0
 10
21.4188746252
 20
59.396819997
 30
0.0
 10
21.2624742955
 20
59.5355102969
 30
0.0
 10
21.1546006813
 20
59.6271496766
 30
0.0
  0
SPLINE
  5
3AF
100
AcDbEntity
  8
0
100
AcDbSpline
 62
7
  6
CONTINUOUS
 70
0
 71
3
 72
9
 73
5
 74
0
 42
0.0000001
 43
0.0000001
 44
0.0000000001
 40
0.0
 40
0.0
 40
0.0
 40
0.0
 40
0.2472957146
 40
1.0
 40
1.0
 40
1.0
 40
1.0
 10
59.4308858772
 20
46.1427913222
 30
0.0
 10
59.38422616
 20
46.3238629688
 30
0.0
 10
59.1980614296
 20
47.0567194305
 30
0.0
 10
59.0195743235
 20
47.7914960848
 30
0.0
 10
58.8860460122
 20
48.3447501448
 30
0.0
  0
SPLINE
  5
3B0
100
AcDbEntity
  8
0
100
AcDbSpline
 62
7
  6
CONTINUOUS
 70
0
 71
3
 72
9
 73
5
 74
0
 42
0.0000001
 43
0.0000001
 44
0.0000000001
 40
0.0
 40
0.0
 40
0.0
 40
0.0
 40
0.4984728659
 40
1.0
 40
1.0
 40
1.0
 40
1.0
 10
58.8860460122
 20
48.3447501448
 30
0.0
 10
58.7184374717
 20
49.0392104026
 30
0.0
 10
58.3851294994
 20
50.4330933877
 30
0.0
 10
58.0425416393
 20
51.8247414452
 30
0.0
 10
57.8678087279
 20
52.5219570103
 30
0.0
  0
SPLINE
  5
3B1
100
AcDbEntity
  8
0
100
AcDbSpline
 62
7
  6
CONTINUOUS
 70
0
 71
3
 72
18
 73
14
 74
0
 42
0.0000001
 43
0.0000001
 44
0.0000000001
 40
0.0
 40
0.0
 40
0.0
 40
0.0
 40
0.2235763499
 40
0.4193409587
 40
0.5871051746
 40
0.7266826108
 40
0.8378914947
 40
0.8828041462
 40
0.9205626702
 40
0.9511514868
 40
0.9745628704
 40
0.9908109194
 40
1.0
 40
1.0
 40
1.0
 40
1.0
 10
17.0764484645
 20
43.6369766009
 30
0.0
 10
17.326403691
 20
43.643090902
 30
0.0
 10
17.7952066241
 20
43.6551742211
 30
0.0
 10
18.4514963161
 20
43.6744537761
 30
0.0
 10
19.013807512
 20
43.6936500563
 30
0.0
 10
19.4814904805
 20
43.7127594798
 30
0.0
 10
19.8117751923
 20
43.7294434626
 30
0.0
 10
20.0281441223
 20
43.7432842651
 30
0.0
 10
20.1544760805
 20
43.752826966
 30
0.0
 10
20.2565794466
 20
43.7623931705
 30
0.0
 10
20.3347979031
 20
43.7715253209
 30
0.0
 10
20.3882791054
 20
43.780951677
 30
0.0
 10
20.4164805922
 20
43.7877040945
 30
0.0
 10
20.4254013242
 20
43.7928054309
 30
0.0
  0
SPLINE
  5
3B2
100
AcDbEntity
  8
0
100
AcDbSpline
 62
7
  6
CONTINUOUS
 70
0
 71
3
 72
11
 73
7
 74
0
 42
0.0000001
 43
0.0000001
 44
0.0000000001
 40
0.0
 40
0.0
 40
0.0
 40
0.0
 40
0.2784187315
 40
0.549117945
 40
0.7886996601
 40
1.0
 40
1.0
 40
1.0
 40
1.0
 10
45.3006831323
 20
8.0301715252
 30
0.0
 10
46.1720848524
 20
8.0368274683
 30
0.0
 10
47.8927834736
 20
8.187955899
 30
0.0
 10
50.2971427532
 20
8.7878357595
 30
0.0
 10
52.3926810532
 20
9.6481609828
 30
0.0
 10
53.6229733355
 20
10.3472927224
 30
0.0
 10
54.1774745517
 20
10.707730209
 30
0.0
  0
SPLINE
  5
3B3
100
AcDbEntity
  8
0
100
AcDbSpline
 62
7
  6
CONTINUOUS
 70
0
 71
3
 72
11
 73
7
 74
0
 42
0.0000001
 43
0.0000001
 44
0.0000000001
 40
0.0
 40
0.0
 40
0.0
 40
0.0
 40
0.2114416413
 40
0.4511430403
 40
0.7217851862
 40
1.0
 40
1.0
 40
1.0
 40
1.0
 10
25.7034576322
 20
10.6952981465
 30
0.0
 10
26.2574616176
 20
10.3362321225
 30
0.0
 10
27.4863757812
 20
9.6399954556
 30
0.0
 10
29.5782756579
 20
8.7836837994
 30
0.0
 10
31.9767392998
 20
8.1870444174
 30
0.0
 10
33.6924307013
 20
8.0367932658
 30
0.0
 10
34.5610810833
 20
8.0301620485
 30
0.0
  0
SPLINE
  5
3B4
100
AcDbEntity
  8
0
100
AcDbSpline
 62
7
  6
CONTINUOUS
 70
0
 71
3
 72
15
 73
11
 74
0
 42
0.0000001
 43
0.0000001
 44
0.0000000001
 40
0.0
 40
0.0
 40
0.0
 40
0.0
 40
0.1556696802
 40
0.2918697707
 40
0.4144383424
 40
0.5292378812
 40
0.6415732452
 40
0.7558397766
 40
0.874877639
 40
1.0
 40
1.0
 40
1.0
 40
1.0
 10
25.9028580486
 20
15.2444166864
 30
0.0
 10
25.6989074682
 20
15.1892089092
 30
0.0
 10
25.3228780559
 20
15.0574073947
 30
0.0
 10
24.8334258557
 20
14.7724225494
 30
0.0
 10
24.4583625347
 20
14.4244762718
 30
0.0
 10
24.1940619661
 20
14.0247405624
 30
0.0
 10
24.0346817875
 20
13.5854093925
 30
0.0
 10
23.9712676687
 20
13.1175103917
 30
0.0
 10
23.9934147527
 20
12.6294287321
 30
0.0
 10
24.0573962497
 20
12.3030916252
 30
0.0
 10
24.0999214246
 20
12.1386732308
 30
0.0
  0
SPLINE
  5
3B5
100
AcDbEntity
  8
0
100
AcDbSpline
 62
7
  6
CONTINUOUS
 70
0
 71
3
 72
11
 73
7
 74
0
 42
0.0000001
 43
0.0000001
 44
0.0000000001
 40
0.0
 40
0.0
 40
0.0
 40
0.0
 40
0.2118016962
 40
0.443537148
 40
0.7042119126
 40
1.0
 40
1.0
 40
1.0
 40
1.0
 10
17.9161404911
 20
70.7666172143
 30
0.0
 10
17.9321842951
 20
70.6675172557
 30
0.0
 10
17.9932859726
 20
70.4638376028
 30
0.0
 10
18.1589357108
 20
70.1716527251
 30
0.0
 10
18.3986651675
 20
69.883160397
 30
0.0
 10
18.5940335195
 20
69.7048807601
 30
0.0
 10
18.7021880561
 20
69.6156721916
 30
0.0
  0
SPLINE
  5
3B6
100
AcDbEntity
  8
0
100
AcDbSpline
 62
7
  6
CONTINUOUS
 70
0
 71
3
 72
13
 73
9
 74
0
 42
0.0000001
 43
0.0000001
 44
0.0000000001
 40
0.0
 40
0.0
 40
0.0
 40
0.0
 40
0.0739201032
 40
0.1674850264
 40
0.2783564336
 40
0.4038723278
 40
0.6880446904
 40
1.0
 40
1.0
 40
1.0
 40
1.0
 10
18.7023875
 20
69.6156772958
 30
0.0
 10
18.7474288874
 20
69.5785615154
 30
0.0
 10
18.8611428078
 20
69.5091044858
 30
0.0
 10
19.0615531831
 20
69.4186687811
 30
0.0
 10
19.3068691099
 20
69.3302627959
 30
0.0
 10
19.7002093752
 20
69.2107719471
 30
0.0
 10
20.2536412693
 20
69.0740216787
 30
0.0
 10
20.7137458499
 20
68.9749202317
 30
0.0
 10
20.9547724715
 20
68.9242062328
 30
0.0
  0
SPLINE
  5
3B7
100
AcDbEntity
  8
0
100
AcDbSpline
 62
7
  6
CONTINUOUS
 70
0
 71
3
 72
14
 73
10
 74
0
 42
0.0000001
 43
0.0000001
 44
0.0000000001
 40
0.0
 40
0.0
 40
0.0
 40
0.0
 40
0.2319179537
 40
0.3740874071
 40
0.5226894524
 40
0.6657994829
 40
0.7943302846
 40
0.904810259
 40
1.0
 40
1.0
 40
1.0
 40
1.0
 10
59.6630113029
 20
67.0363424534
 30
0.0
 10
59.5195846662
 20
67.1533166325
 30
0.0
 10
59.2338795049
 20
67.2811705762
 30
0.0
 10
58.8148764477
 20
67.3120215158
 30
0.0
 10
58.4700192287
 20
67.2468973497
 30
0.0
 10
58.1667226727
 20
67.0927301716
 30
0.0
 10
57.9451924884
 20
66.8755091837
 30
0.0
 10
57.8219810891
 20
66.6340127739
 30
0.0
 10
57.7950650892
 20
66.4692412738
 30
0.0
 10
57.7943980681
 20
66.3932793973
 30
0.0
  0
SPLINE
  5
3B8
100
AcDbEntity
  8
0
100
AcDbSpline
 62
7
  6
CONTINUOUS
 70
0
 71
3
 72
17
 73
13
 74
0
 42
0.0000001
 43
0.0000001
 44
0.0000000001
 40
0.0
 40
0.0
 40
0.0
 40
0.0
 40
0.0344621505
 40
0.0695287243
 40
0.1485921537
 40
0.1960406675
 40
0.2493532131
 40
0.3726141298
 40
0.514913278
 40
0.671708196
 40
0.8362748936
 40
1.0
 40
1.0
 40
1.0
 40
1.0
 10
57.7943980007
 20
66.3932715864
 30
0.0
 10
57.7945855996
 20
66.4143314151
 30
0.0
 10
57.8020611179
 20
66.4570996805
 30
0.0
 10
57.8469072421
 20
66.5378483376
 30
0.0
 10
57.9335056601
 20
66.595301472
 30
0.0
 10
58.0382975112
 20
66.6282100651
 30
0.0
 10
58.1741062969
 20
66.6495186474
 30
0.0
 10
58.3705503892
 20
66.642561761
 30
0.0
 10
58.6231653198
 20
66.5842029247
 30
0.0
 10
58.8867262462
 20
66.4762579209
 30
0.0
 10
59.1369558855
 20
66.3141849288
 30
0.0
 10
59.27240849
 20
66.1582464249
 30
0.0
 10
59.317975632
 20
66.0691682386
 30
0.0
  0
SPLINE
  5
3B9
100
AcDbEntity
  8
0
100
AcDbSpline
 62
7
  6
CONTINUOUS
 70
0
 71
3
 72
9
 73
5
 74
0
 42
0.0000001
 43
0.0000001
 44
0.0000000001
 40
0.0
 40
0.0
 40
0.0
 40
0.0
 40
0.5395348887
 40
1.0
 40
1.0
 40
1.0
 40
1.0
 10
59.317975632
 20
66.0691682386
 30
0.0
 10
59.4418889379
 20
66.0510772311
 30
0.0
 10
59.6688882445
 20
65.9934286184
 30
0.0
 10
59.8742673616
 20
65.8736265682
 30
0.0
 10
59.9522293111
 20
65.8005229236
 30
0.0
  0
SPLINE
  5
3BA
100
AcDbEntity
  8
0
100
AcDbSpline
 62
7
  6
CONTINUOUS
 70
0
 71
3
 72
9
 73
5
 74
0
 42
0.0000001
 43
0.0000001
 44
0.0000000001
 40
0.0
 40
0.0
 40
0.0
 40
0.0
 40
0.250645813
 40
1.0
 40
1.0
 40
1.0
 40
1.0
 10
60.1565088622
 20
62.972069427
 30
0.0
 10
60.1470512899
 20
63.0169876354
 30
0.0
 10
60.1092048943
 20
63.1961731879
 30
0.0
 10
60.0705994525
 20
63.3752016178
 30
0.0
 10
60.040739923
 20
63.5091499416
 30
0.0
  0
SPLINE
  5
3BB
100
AcDbEntity
  8
0
100
AcDbSpline
 62
7
  6
CONTINUOUS
 70
0
 71
3
 72
15
 73
11
 74
0
 42
0.0000001
 43
0.0000001
 44
0.0000000001
 40
0.0
 40
0.0
 40
0.0
 40
0.0
 40
0.1298433911
 40
0.2500170685
 40
0.361960775
 40
0.4694628233
 40
0.578922089
 40
0.6983622529
 40
0.8363171237
 40
1.0
 40
1.0
 40
1.0
 40
1.0
 10
55.7903011991
 20
12.1647593213
 30
0.0
 10
55.8595757304
 20
12.3380454336
 30
0.0
 10
55.9726098261
 20
12.6806313991
 30
0.0
 10
56.0548975007
 20
13.1970916858
 30
0.0
 10
56.0316019468
 20
13.6890219891
 30
0.0
 10
55.8874890689
 20
14.1457501905
 30
0.0
 10
55.6092758464
 20
14.5501596059
 30
0.0
 10
55.1905650461
 20
14.8820372216
 30
0.0
 10
54.6313000648
 20
15.1263438463
 30
0.0
 10
54.2053049321
 20
15.219031016
 30
0.0
 10
53.9725488345
 20
15.2532396151
 30
0.0
  0
SPLINE
  5
3BC
100
AcDbEntity
  8
0
100
AcDbSpline
 62
7
  6
CONTINUOUS
 70
0
 71
3
 72
9
 73
5
 74
0
 42
0.0000001
 43
0.0000001
 44
0.0000000001
 40
0.0
 40
0.0
 40
0.0
 40
0.0
 40
0.488711554
 40
1.0
 40
1.0
 40
1.0
 40
1.0
 10
25.5651244298
 20
58.9184464617
 30
0.0
 10
25.406568883
 20
58.9397504772
 30
0.0
 10
25.0656822022
 20
58.8965581397
 30
0.0
 10
24.7889843637
 20
58.6977977792
 30
0.0
 10
24.6761400369
 20
58.5741887369
 30
0.0
  0
SPLINE
  5
3BD
100
AcDbEntity
  8
0
100
AcDbSpline
 62
7
  6
CONTINUOUS
 70
0
 71
3
 72
9
 73
5
 74
0
 42
0.0000001
 43
0.0000001
 44
0.0000000001
 40
0.0
 40
0.0
 40
0.0
 40
0.0
 40
0.5039747245
 40
1.0
 40
1.0
 40
1.0
 40
1.0
 10
25.4456024723
 20
58.6147376095
 30
0.0
 10
25.5334609818
 20
58.6972887595
 30
0.0
 10
25.7391252081
 20
58.8298995217
 30
0.0
 10
25.9795181984
 20
58.8827697839
 30
0.0
 10
26.0981728562
 20
58.882769784
 30
0.0
  0
SPLINE
  5
3BE
100
AcDbEntity
  8
0
100
AcDbSpline
 62
7
  6
CONTINUOUS
 70
0
 71
3
 72
9
 73
5
 74
0
 42
0.0000001
 43
0.0000001
 44
0.0000000001
 40
0.0
 40
0.0
 40
0.0
 40
0.0
 40
0.5070893189
 40
1.0
 40
1.0
 40
1.0
 40
1.0
 10
30.3011418891
 20
58.8827697835
 30
0.0
 10
29.592297579
 20
58.8827444136
 30
0.0
 10
28.1941341385
 20
58.8508855455
 30
0.0
 10
26.7994749241
 20
58.7479802145
 30
0.0
 10
26.1135447431
 20
58.682753994
 30
0.0
  0
SPLINE
  5
3BF
100
AcDbEntity
  8
0
100
AcDbSpline
 62
7
  6
CONTINUOUS
 70
0
 71
3
 72
9
 73
5
 74
0
 42
0.0000001
 43
0.0000001
 44
0.0000000001
 40
0.0
 40
0.0
 40
0.0
 40
0.0
 40
0.5149931237
 40
1.0
 40
1.0
 40
1.0
 40
1.0
 10
22.1077832282
 20
52.9573463441
 30
0.0
 10
22.1193815846
 20
52.9003220352
 30
0.0
 10
22.1312074203
 20
52.7869103077
 30
0.0
 10
22.1155085436
 20
52.6736520458
 30
0.0
 10
22.1010790079
 20
52.6207822174
 30
0.0
  0
SPLINE
  5
3C0
100
AcDbEntity
  8
0
100
AcDbSpline
 62
7
  6
CONTINUOUS
 70
0
 71
3
 72
9
 73
5
 74
0
 42
0.0000001
 43
0.0000001
 44
0.0000000001
 40
0.0
 40
0.0
 40
0.0
 40
0.0
 40
0.2618177695
 40
1.0
 40
1.0
 40
1.0
 40
1.0
 10
25.4455231702
 20
58.614657141
 30
0.0
 10
25.3786479963
 20
58.6074024418
 30
0.0
 10
25.1228741033
 20
58.5830437929
 30
0.0
 10
24.8657093297
 20
58.572903978
 30
0.0
 10
24.6760555911
 20
58.5740898999
 30
0.0
  0
SPLINE
  5
3C1
100
AcDbEntity
  8
0
100
AcDbSpline
 62
7
  6
CONTINUOUS
 70
0
 71
3
 72
9
 73
5
 74
0
 42
0.0000001
 43
0.0000001
 44
0.0000000001
 40
0.0
 40
0.0
 40
0.0
 40
0.0
 40
0.2490867922
 40
1.0
 40
1.0
 40
1.0
 40
1.0
 10
21.1798038897
 20
14.0841259733
 30
0.0
 10
21.3818904768
 20
13.8720744947
 30
0.0
 10
22.242035908
 20
13.0686446153
 30
0.0
 10
23.2790579851
 20
12.454839963
 30
0.0
 10
24.1031942889
 20
12.1376474647
 30
0.0
  0
SPLINE
  5
3C2
100
AcDbEntity
  8
0
100
AcDbSpline
 62
7
  6
CONTINUOUS
 70
0
 71
3
 72
9
 73
5
 74
0
 42
0.0000001
 43
0.0000001
 44
0.0000000001
 40
0.0
 40
0.0
 40
0.0
 40
0.0
 40
0.6021267201
 40
1.0
 40
1.0
 40
1.0
 40
1.0
 10
22.0059724539
 20
52.5698125845
 30
0.0
 10
22.0191817292
 20
52.5617535393
 30
0.0
 10
22.0405328323
 20
52.5476270384
 30
0.0
 10
22.0599969203
 20
52.5300518271
 30
0.0
 10
22.0655780572
 20
52.521484759
 30
0.0
  0
SPLINE
  5
3C3
100
AcDbEntity
  8
0
100
AcDbSpline
 62
7
  6
CONTINUOUS
 70
0
 71
3
 72
9
 73
5
 74
0
 42
0.0000001
 43
0.0000001
 44
0.0000000001
 40
0.0
 40
0.0
 40
0.0
 40
0.0
 40
0.2990763804
 40
1.0
 40
1.0
 40
1.0
 40
1.0
 10
22.0655780572
 20
52.521484759
 30
0.0
 10
22.0665844466
 20
52.5199399472
 30
0.0
 10
22.0696635204
 20
52.5146623886
 30
0.0
 10
22.0711274892
 20
52.508001906
 30
0.0
 10
22.0700492565
 20
52.5038176293
 30
0.0
  0
SPLINE
  5
3C4
100
AcDbEntity
  8
0
100
AcDbSpline
 62
7
  6
CONTINUOUS
 70
0
 71
3
 72
9
 73
5
 74
0
 42
0.0000001
 43
0.0000001
 44
0.0000000001
 40
0.0
 40
0.0
 40
0.0
 40
0.0
 40
0.501530695
 40
1.0
 40
1.0
 40
1.0
 40
1.0
 10
21.9940986102
 20
52.5224431797
 30
0.0
 10
21.8193761331
 20
51.8251245274
 30
0.0
 10
21.4766974491
 20
50.4333094271
 30
0.0
 10
21.1433511968
 20
49.0392460868
 30
0.0
 10
20.9757240918
 20
48.344701132
 30
0.0
  0
SPLINE
  5
3C5
100
AcDbEntity
  8
0
100
AcDbSpline
 62
7
  6
CONTINUOUS
 70
0
 71
3
 72
9
 73
5
 74
0
 42
0.0000001
 43
0.0000001
 44
0.0000000001
 40
0.0
 40
0.0
 40
0.0
 40
0.0
 40
0.2522022451
 40
1.0
 40
1.0
 40
1.0
 40
1.0
 10
20.9757240918
 20
48.344701132
 30
0.0
 10
20.9309854871
 20
48.1593315154
 30
0.0
 10
20.7531704342
 20
47.4244337728
 30
0.0
 10
20.5719878077
 20
46.690320337
 30
0.0
 10
20.4308969795
 20
46.1427913302
 30
0.0
  0
SPLINE
  5
3C6
100
AcDbEntity
  8
0
100
AcDbSpline
 62
7
  6
CONTINUOUS
 70
0
 71
3
 72
13
 73
9
 74
0
 42
0.0000001
 43
0.0000001
 44
0.0000000001
 40
0.0
 40
0.0
 40
0.0
 40
0.0
 40
0.3004957538
 40
0.4300728435
 40
0.5506233505
 40
0.6654778765
 40
0.7774285506
 40
1.0
 40
1.0
 40
1.0
 40
1.0
 10
23.7141480208
 20
17.2870448697
 30
0.0
 10
23.2862433712
 20
17.1688777581
 30
0.0
 10
22.6861020657
 20
16.9169755874
 30
0.0
 10
22.0504927108
 20
16.4028839111
 30
0.0
 10
21.6994719561
 20
15.9894166711
 30
0.0
 10
21.4432254541
 20
15.5415096236
 30
0.0
 10
21.2185067444
 20
14.9140551785
 30
0.0
 10
21.1688123345
 20
14.4127242282
 30
0.0
 10
21.1798239853
 20
14.084104887
 30
0.0
  0
SPLINE
  5
3C7
100
AcDbEntity
  8
0
100
AcDbSpline
 62
7
  6
CONTINUOUS
 70
0
 71
3
 72
15
 73
11
 74
0
 42
0.0000001
 43
0.0000001
 44
0.0000000001
 40
0.0
 40
0.0
 40
0.0
 40
0.0
 40
0.1676801318
 40
0.3240524315
 40
0.4667758361
 40
0.5953391139
 40
0.7105149504
 40
0.8141692412
 40
0.9093862354
 40
1.0
 40
1.0
 40
1.0
 40
1.0
 10
25.4593294496
 20
52.5038176293
 30
0.0
 10
25.5316699043
 20
52.981395151
 30
0.0
 10
25.7208540557
 20
53.8978515351
 30
0.0
 10
26.1433477422
 20
55.1776357094
 30
0.0
 10
26.6754154851
 20
56.2928368511
 30
0.0
 10
27.2954149065
 20
57.2227177821
 30
0.0
 10
27.9840270315
 20
57.9561305136
 30
0.0
 10
28.7248225986
 20
58.4872181598
 30
0.0
 10
29.502419089
 20
58.8096520878
 30
0.0
 10
30.0401330972
 20
58.8827697435
 30
0.0
 10
30.301158297
 20
58.882769784
 30
0.0
  0
SPLINE
  5
3C8
100
AcDbEntity
  8
0
100
AcDbSpline
 62
7
  6
CONTINUOUS
 70
0
 71
3
 72
11
 73
7
 74
0
 42
0.0000001
 43
0.0000001
 44
0.0000000001
 40
0.0
 40
0.0
 40
0.0
 40
0.0
 40
0.2558288455
 40
0.4379611163
 40
0.6286868788
 40
1.0
 40
1.0
 40
1.0
 40
1.0
 10
25.4326861331
 20
52.4907623446
 30
0.0
 10
25.4344762235
 20
52.4927010916
 30
0.0
 10
25.4375138588
 20
52.4963276483
 30
0.0
 10
25.4441136203
 20
52.4978929317
 30
0.0
 10
25.4519636684
 20
52.4960287134
 30
0.0
 10
25.4567395591
 20
52.5009960959
 30
0.0
 10
25.4593294496
 20
52.5038176293
 30
0.0
  0
SPLINE
  5
3C9
100
AcDbEntity
  8
0
100
AcDbSpline
 62
7
  6
CONTINUOUS
 70
0
 71
3
 72
24
 73
20
 74
0
 42
0.0000001
 43
0.0000001
 44
0.0000000001
 40
0.0
 40
0.0
 40
0.0
 40
0.0
 40
0.0539228381
 40
0.0707260576
 40
0.0821526305
 40
0.0911075389
 40
0.1012245617
 40
0.1142441372
 40
0.1303967206
 40
0.14940423
 40
0.1708321249
 40
0.2193438583
 40
0.2735048902
 40
0.3325925388
 40
0.4669415194
 40
0.5429586564
 40
0.6248974221
 40
0.8041807527
 40
1.0
 40
1.0
 40
1.0
 40
1.0
 10
22.0668852667
 20
52.4915391348
 30
0.0
 10
22.0575700402
 20
52.4554085507
 30
0.0
 10
22.0455307681
 20
52.4074314386
 30
0.0
 10
22.0432491785
 20
52.3507003684
 30
0.0
 10
22.0493449818
 20
52.3245794668
 30
0.0
 10
22.0667498232
 20
52.3101489587
 30
0.0
 10
22.0897363319
 20
52.3086130724
 30
0.0
 10
22.11641851
 20
52.3137530834
 30
0.0
 10
22.1481938982
 20
52.3241223856
 30
0.0
 10
22.1846665913
 20
52.3383368996
 30
0.0
 10
22.2416426883
 20
52.3616187411
 30
0.0
 10
22.3217388153
 20
52.3927112319
 30
0.0
 10
22.4296351199
 20
52.4233473675
 30
0.0
 10
22.5990465012
 20
52.4511944476
 30
0.0
 10
22.7860337272
 20
52.4545462614
 30
0.0
 10
22.988193225
 20
52.4536955969
 30
0.0
 10
23.2215686947
 20
52.4551176559
 30
0.0
 10
23.5378690087
 20
52.4525897837
 30
0.0
 10
23.7969964248
 20
52.4304814531
 30
0.0
 10
23.9311649615
 20
52.4115483818
 30
0.0
  0
SPLINE
  5
3CA
100
AcDbEntity
  8
0
100
AcDbSpline
 62
7
  6
CONTINUOUS
 70
0
 71
3
 72
12
 73
8
 74
0
 42
0.0000001
 43
0.0000001
 44
0.0000000001
 40
0.0
 40
0.0
 40
0.0
 40
0.0
 40
0.2361430499
 40
0.4838686131
 40
0.7405787745
 40
0.8706307973
 40
1.0
 40
1.0
 40
1.0
 40
1.0
 10
23.9311649615
 20
52.4115483818
 30
0.0
 10
24.0514254525
 20
52.3945779317
 30
0.0
 10
24.2960773285
 20
52.3485141377
 30
0.0
 10
24.6738057336
 20
52.2976016787
 30
0.0
 10
25.0040772017
 20
52.3121623599
 30
0.0
 10
25.2595961504
 20
52.3885446288
 30
0.0
 10
25.3787866382
 20
52.4517499743
 30
0.0
 10
25.4326861475
 20
52.4907622289
 30
0.0
  0
SPLINE
  5
3CB
100
AcDbEntity
  8
0
100
AcDbSpline
 62
7
  6
CONTINUOUS
 70
0
 71
3
 72
15
 73
11
 74
0
 42
0.0000001
 43
0.0000001
 44
0.0000000001
 40
0.0
 40
0.0
 40
0.0
 40
0.0
 40
0.0906429284
 40
0.185836323
 40
0.2895276109
 40
0.4047119013
 40
0.5332926381
 40
0.676039614
 40
0.8323355572
 40
1.0
 40
1.0
 40
1.0
 40
1.0
 10
49.5606245576
 20
58.882769784
 30
0.0
 10
49.8217341228
 20
58.8827697427
 30
0.0
 10
50.3594993656
 20
58.8097782854
 30
0.0
 10
51.1370985732
 20
58.4870076698
 30
0.0
 10
51.877978037
 20
57.9559737921
 30
0.0
 10
52.5667622217
 20
57.2224253247
 30
0.0
 10
53.1864580516
 20
56.292195564
 30
0.0
 10
53.7189541393
 20
55.1773044201
 30
0.0
 10
54.1406964287
 20
53.8974639485
 30
0.0
 10
54.3301180817
 20
52.9813508825
 30
0.0
 10
54.402453405
 20
52.5038176293
 30
0.0
  0
SPLINE
  5
3CC
100
AcDbEntity
  8
0
100
AcDbSpline
 62
7
  6
CONTINUOUS
 70
0
 71
3
 72
11
 73
7
 74
0
 42
0.0000001
 43
0.0000001
 44
0.0000000001
 40
0.0
 40
0.0
 40
0.0
 40
0.0
 40
0.2547278661
 40
0.4380956479
 40
0.6285890683
 40
1.0
 40
1.0
 40
1.0
 40
1.0
 10
54.402453405
 20
52.5038176293
 30
0.0
 10
54.4043979382
 20
52.5018926379
 30
0.0
 10
54.4078134809
 20
52.498361132
 30
0.0
 10
54.4146962014
 20
52.4969907165
 30
0.0
 10
54.4228246195
 20
52.4987701814
 30
0.0
 10
54.4280589141
 20
52.4941032356
 30
0.0
 10
54.4308916265
 20
52.4912938886
 30
0.0
  0
SPLINE
  5
3CD
100
AcDbEntity
  8
0
100
AcDbSpline
 62
7
  6
CONTINUOUS
 70
0
 71
3
 72
25
 73
21
 74
0
 42
0.0000001
 43
0.0000001
 44
0.0000000001
 40
0.0
 40
0.0
 40
0.0
 40
0.0
 40
0.0548958697
 40
0.0720294513
 40
0.0836841169
 40
0.0927162726
 40
0.1027632474
 40
0.1156626913
 40
0.1317124029
 40
0.1506354822
 40
0.1719753581
 40
0.2204018968
 40
0.2746652682
 40
0.3336381031
 40
0.4675559691
 40
0.6251480004
 40
0.7123595227
 40
0.8043827302
 40
0.9003952623
 40
1.0
 40
1.0
 40
1.0
 40
1.0
 10
57.7942421704
 20
52.4940826619
 30
0.0
 10
57.8036376537
 20
52.457621802
 30
0.0
 10
57.8158168081
 20
52.4092247006
 30
0.0
 10
57.818406984
 20
52.3519446226
 30
0.0
 10
57.812671699
 20
52.3256049053
 30
0.0
 10
57.7958044312
 20
52.3106229209
 30
0.0
 10
57.7730960213
 20
52.308523653
 30
0.0
 10
57.7467800685
 20
52.3133282454
 30
0.0
 10
57.7154503453
 20
52.3234429823
 30
0.0
 10
57.6794668085
 20
52.3374468215
 30
0.0
 10
57.6231247808
 20
52.3603908659
 30
0.0
 10
57.5438280159
 20
52.3912503471
 30
0.0
 10
57.4374198384
 20
52.4232207178
 30
0.0
 10
57.2697513088
 20
52.4511091998
 30
0.0
 10
57.0287261158
 20
52.4540013881
 30
0.0
 10
56.7691846232
 20
52.4535640804
 30
0.0
 10
56.5381360683
 20
52.4542508311
 30
0.0
 10
56.3493290573
 20
52.4524704843
 30
0.0
 10
56.1523097941
 20
52.4399941446
 30
0.0
 10
56.0190829249
 20
52.4235757311
 30
0.0
 10
55.9514464283
 20
52.4139582555
 30
0.0
  0
SPLINE
  5
3CE
100
AcDbEntity
  8
0
100
AcDbSpline
 62
7
  6
CONTINUOUS
 70
0
 71
3
 72
11
 73
7
 74
0
 42
0.0000001
 43
0.0000001
 44
0.0000000001
 40
0.0
 40
0.0
 40
0.0
 40
0.0
 40
0.2361227942
 40
0.484044723
 40
0.7412502395
 40
1.0
 40
1.0
 40
1.0
 40
1.0
 10
55.9514464283
 20
52.4139582555
 30
0.0
 10
55.8298747764
 20
52.3966715472
 30
0.0
 10
55.5822608184
 20
52.3517741512
 30
0.0
 10
55.1998685465
 20
52.2972404899
 30
0.0
 10
54.7998279691
 20
52.3134975851
 30
0.0
 10
54.5402239659
 20
52.4128515793
 30
0.0
 10
54.4308914273
 20
52.4912940035
 30
0.0
  0
SPLINE
  5
3CF
100
AcDbEntity
  8
0
100
AcDbSpline
 62
7
  6
CONTINUOUS
 70
0
 71
3
 72
20
 73
16
 74
0
 42
0.0000001
 43
0.0000001
 44
0.0000000001
 40
0.0
 40
0.0
 40
0.0
 40
0.0
 40
0.23202565
 40
0.4338441701
 40
0.605241953
 40
0.746008243
 40
0.8048405373
 40
0.8559392146
 40
0.899281304
 40
0.9348466619
 40
0.9626211717
 40
0.9826062142
 40
0.9948583082
 40
0.9981928335
 40
1.0
 40
1.0
 40
1.0
 40
1.0
 10
17.0764721519
 20
43.6369764329
 30
0.0
 10
16.8325562296
 20
43.6310098388
 30
0.0
 10
16.3764942426
 20
43.6192299412
 30
0.0
 10
15.7403228359
 20
43.6003928236
 30
0.0
 10
15.2001622711
 20
43.5816244916
 30
0.0
 10
14.8103744759
 20
43.5652868559
 30
0.0
 10
14.5470882818
 20
43.5518729953
 30
0.0
 10
14.3861920527
 20
43.5424537434
 30
0.0
 10
14.2497843787
 20
43.5330638596
 30
0.0
 10
14.138031956
 20
43.5237782911
 30
0.0
 10
14.0507582785
 20
43.5145213202
 30
0.0
 10
13.9885491996
 20
43.5057519034
 30
0.0
 10
13.9514411984
 20
43.497506063
 30
0.0
 10
13.9348402631
 20
43.4909306788
 30
0.0
 10
13.9304859499
 20
43.4864012626
 30
0.0
 10
13.9304849571
 20
43.4845009189
 30
0.0
  0
ENDSEC
  0
SECTION
  2
OBJECTS
  0
DICTIONARY
  5
C
100
AcDbDictionary
280
0
281
1
  3
ACAD_GROUP
350
D
  3
ACAD_MLINESTYLE
350
17
  3
ACAD_LAYOUT
350
1A
  3
ACAD_PLOTSETTINGS
350
19
  3
ACAD_PLOTSTYLENAME
350
E
  0
DICTIONARY
  5
D
102
{ACAD_REACTORS
330
C
102
}
100
AcDbDictionary
280
0
281
1
  0
ACDBDICTIONARYWDFLT
  5
E
102
{ACAD_REACTORS
330
C
102
}
100
AcDbDictionary
281
1
  3
Normal
350
F
100
AcDbDictionaryWithDefault
340
F
  0
DICTIONARY
  5
17
102
{ACAD_REACTORS
330
C
102
}
100
AcDbDictionary
280
0
281
1
  3
Standard
350
18
  0
DICTIONARY
  5
19
102
{ACAD_REACTORS
330
C
102
}
100
AcDbDictionary
281
1
  0
DICTIONARY
  5
1A
102
{ACAD_REACTORS
330
C
102
}
100
AcDbDictionary
281
1
  3
Model
350
3D0
  3
Layout1
350
3D1
  0
ACDBPLACEHOLDER
  5
F
102
{ACAD_REACTORS
330
E
102
}
  0
MLINESTYLE
  5
18
102
{ACAD_REACTORS
330
17
102
}
100
AcDbMlineStyle
  2
STANDARD
 70
0
  3

 62
256
 51
90.0
 52
90.0
 71
2
 49
0.5
 62
256
  6
BYLAYER
 49
-0.5
 62
256
  6
BYLAYER
  0
LAYOUT
  5
3D0
102
{ACAD_REACTORS
330
1A
102
}
100
AcDbPlotSettings
  1

  2
none_device
  4

  6

 40
0.0
 41
0.0
 42
0.0
 43
0.0
 44
210.0
 45
297.0
 46
0.0
 47
0.0
 48
0.0
 49
0.0
140
0.0
141
0.0
142
1.0
143
1.0
 70
1024
 72
1
 73
0
 74
0
  7

 75
0
147
1.0
148
0.0
149
0.0
100
AcDbLayout
  1
Model
 70
0
 71
0
 10
0.0
 20
0.0
 11
210.0
 21
297.0
 12
0.0
 22
0.0
 32
0.0
 14
0.0
 24
0.0
 34
0.0
 15
0.0
 25
0.0
 35
0.0
146
0.0
 13
0.0
 23
0.0
 33
0.0
 16
1.0
 26
0.0
 36
0.0
 17
0.0
 27
1.0
 37
0.0
 76
0
330
210
345
0
346
0
  0
LAYOUT
  5
3D1
102
{ACAD_REACTORS
330
1A
102
}
100
AcDbPlotSettings
  1

  2
none_device
  4

  6

 40
0.0
 41
0.0
 42
0.0
 43
0.0
 44
210.0
 45
297.0
 46
0.0
 47
0.0
 48
0.0
 49
0.0
140
0.0
141
0.0
142
1.0
143
1.0
 70
0
 72
1
 73
0
 74
0
  7

 75
0
147
1.0
148
0.0
149
0.0
100
AcDbLayout
  1
Layout1
 70
0
 71
1
 10
0.0
 20
0.0
 11
210.0
 21
297.0
 12
0.0
 22
0.0
 32
0.0
 14
0.0
 24
0.0
 34
0.0
 15
0.0
 25
0.0
 35
0.0
146
0.0
 13
0.0
 23
0.0
 33
0.0
 16
1.0
 26
0.0
 36
0.0
 17
0.0
 27
1.0
 37
0.0
 76
0
330
211
345
0
346
0
  0
ENDSEC
  0
EOF
