999
DXF file: C:\Users\sesa63760\Dev\_Creo\CAD\MCADUE0002366_3D-CAD\drw0001_2.dxf
999
Pro/ENGINEER 2019471 by Parametric Technology Corporation
  0
SECTION
  2
HEADER
  9
$ACADVER
  1
AC1024
  9
$DWGCODEPAGE
  3
ANSI_1252
  9
$EXTMAX
 10
89.2582867698
 20
126.2367198602
 30
0.0
  9
$EXTMIN
 10
0.0
 20
0.0
 30
0.0
  9
$LIMMIN
 10
0.0
 20
0.0
  9
$LIMMAX
 10
89.2582867698
 20
126.2367198602
  9
$VIEWCTR
 10
44.6291433849
 20
63.1183599301
  9
$VIEWSIZE
 40
126.2367198602
  9
$CLAYER
  8
0
  9
$LTSCALE
 40
8.2287639613
  9
$CELTYPE
  6
BYLAYER
  9
$DIMSCALE
 40
1.0
  9
$DIMASZ
 40
1.062598652
  9
$DIMEXO
 40
1.0
  9
$DIMDLI
 40
5.6853278278
  9
$DIMEXE
 40
1.0
  9
$DIMCEN
 40
1.3465250118
  9
$DIMLFAC
 40
1.0
  9
$DIMBLK
  1
_FILLED
  9
$DIMALT
 70
0
  9
$DIMALTF
 40
0.0393700787
  9
$DIMTXT
 40
1.4876381128
  9
$DIMTOL
 70
1
  9
$DIMLIM
 70
0
  9
$DIMTFAC
 40
1.0
  9
$DIMTP
 40
0.01
  9
$DIMTM
 40
0.01
  9
$DIMGAP
 40
0.625
  9
$DIMDSEP
 70
46
  9
$AUNITS
 70
0
  9
$PDMODE
 70
3
  9
$PDSIZE
 40
0.3125
  9
$HANDSEED
  5
23B
  9
$TILEMODE
 70
1
  9
$MEASUREMENT
 70
1
  9
$INSUNITS
 70
4
  0
ENDSEC
  0
SECTION
  2
CLASSES
  0
CLASS
  1
ACDBDICTIONARYWDFLT
  2
AcDbDictionaryWithDefault
  3
AutoCAD 2000
 90
0
 91
1
280
0
281
0
  0
CLASS
  1
ACDBPLACEHOLDER
  2
AcDbPlaceHolder
  3
AutoCAD 2000
 90
0
 91
1
280
0
281
0
  0
CLASS
  1
LAYOUT
  2
AcDbLayout
  3
AutoCAD 2000
 90
0
 91
0
280
0
281
0
  0
ENDSEC
  0
SECTION
  2
TABLES
  0
TABLE
  2
VPORT
  5
8
100
AcDbSymbolTable
 70
2
  0
VPORT
  5
1F4
100
AcDbSymbolTableRecord
100
AcDbViewportTableRecord
  2
*ACTIVE
 70
0
 10
0.0
 20
0.0
 11
1.0
 21
1.0
 12
44.6291433849
 22
63.1183599301
 13
0.0
 23
0.0
 14
1.0
 24
1.0
 15
0.0
 25
0.0
 16
0.0
 26
0.0
 36
1.0
 17
0.0
 27
0.0
 37
0.0
 40
126.2367198602
 41
0.7070707071
 42
50.0
 43
0.0
 44
0.0
 50
0.0
 51
0.0
 71
0
 72
100
 73
1
 74
1
 75
0
 76
0
 77
0
 78
0
  0
ENDTAB
  0
TABLE
  2
LTYPE
  5
5
100
AcDbSymbolTable
 70
6
  0
LTYPE
  5
14
100
AcDbSymbolTableRecord
100
AcDbLinetypeTableRecord
  2
BYBLOCK
 70
0
  3

 72
65
 73
0
 40
0.0
  0
LTYPE
  5
15
100
AcDbSymbolTableRecord
100
AcDbLinetypeTableRecord
  2
BYLAYER
 70
0
  3

 72
65
 73
0
 40
0.0
  0
LTYPE
  5
16
100
AcDbSymbolTableRecord
100
AcDbLinetypeTableRecord
  2
CONTINUOUS
 70
64
  3
Solid line
 72
65
 73
0
 40
0.0
  0
LTYPE
  5
1F5
100
AcDbSymbolTableRecord
100
AcDbLinetypeTableRecord
  2
CENTER
 70
64
  3
____ _ ____ _ ____ _ ____ _ ____ _ ____ _ ____
 72
65
 73
4
 40
0.6
 49
0.375
 74
0
 49
-0.075
 74
0
 49
0.075
 74
0
 49
-0.075
 74
0
  0
LTYPE
  5
1F6
100
AcDbSymbolTableRecord
100
AcDbLinetypeTableRecord
  2
HIDDEN
 70
64
  3
- - - - - - - - - - - - - - - - - - - -
 72
65
 73
2
 40
0.2
 49
0.1
 74
0
 49
-0.1
 74
0
  0
LTYPE
  5
1F7
100
AcDbSymbolTableRecord
100
AcDbLinetypeTableRecord
  2
PHANTOM
 70
64
  3
_____ _ _ _____ _ _ _____ _ _ _____
 72
65
 73
6
 40
0.8
 49
0.45
 74
0
 49
-0.05
 74
0
 49
0.1
 74
0
 49
-0.05
 74
0
 49
0.1
 74
0
 49
-0.05
 74
0
  0
LTYPE
  5
1F8
100
AcDbSymbolTableRecord
100
AcDbLinetypeTableRecord
  2
DOT
 70
64
  3
. . . . . . . . . . . . . . . . . . . .
 72
65
 73
2
 40
0.2
 49
0.1
 74
0
 49
-0.1
 74
0
  0
LTYPE
  5
1F9
100
AcDbSymbolTableRecord
100
AcDbLinetypeTableRecord
  2
DASHED
 70
64
  3
- - - - - - - - - - - - - - - - - - - -
 72
65
 73
2
 40
0.2
 49
0.1
 74
0
 49
-0.1
 74
0
  0
ENDTAB
  0
TABLE
  2
LAYER
  5
2
100
AcDbSymbolTable
 70
36
  0
LAYER
  5
10
100
AcDbSymbolTableRecord
100
AcDbLayerTableRecord
  2
0
 70
0
 62
7
  6
CONTINUOUS
370
-3
390
F
  0
LAYER
  5
1FA
100
AcDbSymbolTableRecord
100
AcDbLayerTableRecord
  2
DEFAULT_1
 70
0
 62
7
  6
CENTER
370
-3
390
F
  0
LAYER
  5
1FB
100
AcDbSymbolTableRecord
100
AcDbLayerTableRecord
  2
DEFAULT_2
 70
0
 62
8
  6
HIDDEN
370
-3
390
F
  0
LAYER
  5
1FC
100
AcDbSymbolTableRecord
100
AcDbLayerTableRecord
  2
DEFAULT_3
 70
0
 62
7
  6
PHANTOM
370
-3
390
F
  0
LAYER
  5
1FD
100
AcDbSymbolTableRecord
100
AcDbLayerTableRecord
  2
00_COMPONENTS
 70
0
 62
7
  6
CONTINUOUS
370
-3
390
F
  0
LAYER
  5
1FE
100
AcDbSymbolTableRecord
100
AcDbLayerTableRecord
  2
01_1_DEFAULT_DATUMS
 70
0
 62
7
  6
CONTINUOUS
370
-3
390
F
  0
LAYER
  5
1FF
100
AcDbSymbolTableRecord
100
AcDbLayerTableRecord
  2
01_PLANES
 70
0
 62
7
  6
CONTINUOUS
370
-3
390
F
  0
LAYER
  5
200
100
AcDbSymbolTableRecord
100
AcDbLayerTableRecord
  2
02_COORD_SYS
 70
0
 62
7
  6
CONTINUOUS
370
-3
390
F
  0
LAYER
  5
201
100
AcDbSymbolTableRecord
100
AcDbLayerTableRecord
  2
03_AXES
 70
0
 62
7
  6
CONTINUOUS
370
-3
390
F
  0
LAYER
  5
202
100
AcDbSymbolTableRecord
100
AcDbLayerTableRecord
  2
04_POINTS
 70
0
 62
7
  6
CONTINUOUS
370
-3
390
F
  0
LAYER
  5
203
100
AcDbSymbolTableRecord
100
AcDbLayerTableRecord
  2
05_CURVES
 70
0
 62
7
  6
CONTINUOUS
370
-3
390
F
  0
LAYER
  5
204
100
AcDbSymbolTableRecord
100
AcDbLayerTableRecord
  2
06_SURFS
 70
0
 62
7
  6
CONTINUOUS
370
-3
390
F
  0
LAYER
  5
205
100
AcDbSymbolTableRecord
100
AcDbLayerTableRecord
  2
07_COSMETICS
 70
0
 62
7
  6
CONTINUOUS
370
-3
390
F
  0
LAYER
  5
206
100
AcDbSymbolTableRecord
100
AcDbLayerTableRecord
  2
10_NOTES
 70
0
 62
7
  6
CONTINUOUS
370
-3
390
F
  0
LAYER
  5
207
100
AcDbSymbolTableRecord
100
AcDbLayerTableRecord
  2
11_NOTES_PUB
 70
0
 62
7
  6
CONTINUOUS
370
-3
390
F
  0
LAYER
  5
208
100
AcDbSymbolTableRecord
100
AcDbLayerTableRecord
  2
13_REF_GTOL
 70
0
 62
7
  6
CONTINUOUS
370
-3
390
F
  0
LAYER
  5
209
100
AcDbSymbolTableRecord
100
AcDbLayerTableRecord
  2
16_MISC
 70
0
 62
7
  6
CONTINUOUS
370
-3
390
F
  0
LAYER
  5
20A
100
AcDbSymbolTableRecord
100
AcDbLayerTableRecord
  2
17_NO_PRINT
 70
0
 62
7
  6
CONTINUOUS
370
-3
390
F
  0
LAYER
  5
20B
100
AcDbSymbolTableRecord
100
AcDbLayerTableRecord
  2
18_DATUM_CAMS_JOINTS
 70
0
 62
7
  6
CONTINUOUS
370
-3
390
F
  0
LAYER
  5
20C
100
AcDbSymbolTableRecord
100
AcDbLayerTableRecord
  2
19_DATUM_FUNCTIONAL
 70
0
 62
7
  6
CONTINUOUS
370
-3
390
F
  0
LAYER
  5
20D
100
AcDbSymbolTableRecord
100
AcDbLayerTableRecord
  2
20_DATUM_KINEMATIC_SCHEME
 70
0
 62
7
  6
CONTINUOUS
370
-3
390
F
  0
ENDTAB
  0
TABLE
  2
STYLE
  5
3
100
AcDbSymbolTable
 70
1
  0
STYLE
  5
11
100
AcDbSymbolTableRecord
100
AcDbTextStyleTableRecord
  2
STANDARD
 70
0
 40
0.0
 41
0.8
 50
0.0
 71
0
 42
0.2
  3
txt
  4

  0
STYLE
  5
20E
100
AcDbSymbolTableRecord
100
AcDbTextStyleTableRecord
  2
TEXTSTYLE_1
 70
0
 40
0.0
 41
0.8
 50
0.0
 71
0
 42
0.2
  3
gdt
  4

  0
ENDTAB
  0
TABLE
  2
VIEW
  5
6
100
AcDbSymbolTable
 70
0
  0
ENDTAB
  0
TABLE
  2
UCS
  5
7
100
AcDbSymbolTable
 70
0
  0
ENDTAB
  0
TABLE
  2
APPID
  5
9
100
AcDbSymbolTable
 70
1
  0
APPID
  5
20F
100
AcDbSymbolTableRecord
100
AcDbRegAppTableRecord
  2
ACAD
 70
0
  0
ENDTAB
  0
TABLE
  2
BLOCK_RECORD
  5
1
100
AcDbSymbolTable
 70
0
  0
BLOCK_RECORD
  5
210
100
AcDbSymbolTableRecord
100
AcDbBlockTableRecord
  2
*Model_Space
  0
BLOCK_RECORD
  5
211
100
AcDbSymbolTableRecord
100
AcDbBlockTableRecord
  2
*Paper_Space
  0
BLOCK_RECORD
  5
212
100
AcDbSymbolTableRecord
100
AcDbBlockTableRecord
  2
_FILLED
  0
ENDTAB
  0
TABLE
  2
DIMSTYLE
  5
A
100
AcDbSymbolTable
 70
1
100
AcDbDimStyleTable
 71
0
  0
DIMSTYLE
105
213
100
AcDbSymbolTableRecord
100
AcDbDimStyleTableRecord
  2
STANDARD
 70
0
  3

  4

 40
1.0
 41
1.062598652
 42
1.0
 43
0.38
 44
1.0
 45
0.0
 46
0.0
 47
0.01
 48
0.01
140
1.4876381128
141
0.09
142
0.0
143
25.4
144
1.0
145
0.0
146
1.0
147
0.625
 71
1
 72
0
 73
0
 74
0
 75
0
 76
0
 77
1
 78
8
 79
2
170
0
171
1
172
0
173
0
174
0
175
0
176
0
177
0
178
0
270
2
179
2
271
2
272
2
273
2
274
2
275
0
280
0
281
0
282
0
283
1
284
8
285
0
286
0
287
3
288
0
340
11
278
46
341
212
342
212
343
212
344
212
  0
ENDTAB
  0
ENDSEC
  0
SECTION
  2
BLOCKS
  0
BLOCK
  5
20
100
AcDbEntity
  8
0
100
AcDbBlockBegin
  2
*Model_Space
 70
0
 10
0.0
 20
0.0
 30
0.0
  3
*Model_Space
  1

  0
ENDBLK
  5
21
100
AcDbEntity
  8
0
100
AcDbBlockEnd
  0
BLOCK
  5
1C
100
AcDbEntity
  8
0
100
AcDbBlockBegin
  2
*Paper_Space
 70
0
 10
0.0
 20
0.0
 30
0.0
  3
*Paper_Space
  1

  0
ENDBLK
  5
1D
100
AcDbEntity
  8
0
100
AcDbBlockEnd
  0
BLOCK
  5
214
100
AcDbEntity
  8
0
100
AcDbBlockBegin
  2
_FILLED
 70
64
 10
0.0
 20
0.0
  3
_FILLED
  1

  0
SOLID
  5
215
100
AcDbEntity
  8
0
  6
BYBLOCK
 62
0
100
AcDbTrace
 10
0.0
 20
0.0
 11
-1.0
 21
0.25
 12
-1.0
 22
-0.25
 13
-1.0
 23
-0.25
  0
ENDBLK
  5
216
100
AcDbEntity
  8
0
  6
BYBLOCK
 62
0
100
AcDbBlockEnd
  0
ENDSEC
  0
SECTION
  2
ENTITIES
  0
LINE
  5
217
100
AcDbEntity
  8
0
100
AcDbLine
 62
7
  6
CONTINUOUS
 10
14.4257354541
 20
60.5799062391
 11
14.4007096239
 21
66.0081778258
  0
LINE
  5
218
100
AcDbEntity
  8
0
100
AcDbLine
 62
7
  6
CONTINUOUS
 10
14.4185343984
 20
60.6364098259
 11
14.4042344606
 21
66.0303497972
  0
LINE
  5
219
100
AcDbEntity
  8
0
100
AcDbLine
 62
7
  6
CONTINUOUS
 10
14.4176860492
 20
60.6430664572
 11
14.4120681302
 21
66.0796252416
  0
LINE
  5
21A
100
AcDbEntity
  8
0
100
AcDbLine
 62
7
  6
CONTINUOUS
 10
14.4116972555
 20
60.6900579455
 11
14.4116674208
 21
66.0771046942
  0
LINE
  5
21B
100
AcDbEntity
  8
0
100
AcDbLine
 62
7
  6
CONTINUOUS
 10
14.4146547411
 20
58.4461928816
 11
14.4181165271
 21
67.3431642776
  0
LINE
  5
21C
100
AcDbEntity
  8
0
100
AcDbLine
 62
7
  6
CONTINUOUS
 10
14.4068640919
 20
60.7279817011
 11
14.4211507129
 21
66.1367566149
  0
LINE
  5
21D
100
AcDbEntity
  8
0
100
AcDbLine
 62
7
  6
CONTINUOUS
 10
14.4085740339
 20
60.7145645213
 11
14.4255056688
 21
66.1641502123
  0
LINE
  5
21E
100
AcDbEntity
  8
0
100
AcDbLine
 62
7
  6
CONTINUOUS
 10
14.4044822118
 20
60.7466712895
 11
14.4283082973
 21
66.1817793401
  0
LINE
  5
21F
100
AcDbEntity
  8
0
100
AcDbLine
 62
7
  6
CONTINUOUS
 10
14.4181165271
 20
67.3431642776
 11
16.7385627907
 21
75.2272398129
  0
LWPOLYLINE
  5
220
100
AcDbEntity
  8
0
100
AcDbPolyline
 62
7
  6
CONTINUOUS
 90
5
 70
0
 10
45.2471848951
 20
31.7381043638
 10
36.4384160517
 20
33.0087358779
 10
28.3808316152
 20
36.6970289316
 10
21.714112736
 20
42.4795694245
 10
16.9267178631
 20
49.917525369
  0
LINE
  5
221
100
AcDbEntity
  8
0
100
AcDbLine
 62
7
  6
CONTINUOUS
 10
16.9267178631
 20
49.917525369
 11
14.4146547411
 21
58.4461928816
  0
LINE
  5
222
100
AcDbEntity
  8
0
100
AcDbLine
 62
7
  6
CONTINUOUS
 10
76.2276308304
 20
59.6690916953
 11
76.1509428151
 21
61.7977925929
  0
CIRCLE
  5
223
100
AcDbEntity
  8
0
100
AcDbCircle
 62
7
  6
CONTINUOUS
 10
45.2471934209
 20
62.8865911666
 40
35.5
  0
CIRCLE
  5
224
100
AcDbEntity
  8
0
100
AcDbCircle
 62
7
  6
CONTINUOUS
 10
45.2471934209
 20
62.8865911666
 40
34.15
  0
ARC
  5
225
100
AcDbEntity
  8
0
100
AcDbCircle
 62
7
  6
CONTINUOUS
 10
45.5086947249
 20
62.7628596704
 40
31.4377121212
100
AcDbArc
 50
154.0395315779
 51
156.5757971663
  0
ARC
  5
226
100
AcDbEntity
  8
0
100
AcDbCircle
 62
7
  6
CONTINUOUS
 10
45.2471934209
 20
62.8865911666
 40
31.15
100
AcDbArc
 50
172.3883978856
 51
180.7297060528
  0
CIRCLE
  5
227
100
AcDbEntity
  8
0
100
AcDbCircle
 62
7
  6
CONTINUOUS
 10
45.2471934209
 20
62.8865911666
 40
29.0
  0
CIRCLE
  5
228
100
AcDbEntity
  8
0
100
AcDbCircle
 62
7
  6
CONTINUOUS
 10
45.2471934209
 20
62.8865911666
 40
6.5
  0
CIRCLE
  5
229
100
AcDbEntity
  8
0
100
AcDbCircle
 62
7
  6
CONTINUOUS
 10
51.8971934209
 20
51.3684532962
 40
4.8
  0
CIRCLE
  5
22A
100
AcDbEntity
  8
0
100
AcDbCircle
 62
7
  6
CONTINUOUS
 10
38.5971934209
 20
51.3684532962
 40
4.8
  0
CIRCLE
  5
22B
100
AcDbEntity
  8
0
100
AcDbCircle
 62
7
  6
CONTINUOUS
 10
38.5971934209
 20
74.4047290369
 40
4.8
  0
CIRCLE
  5
22C
100
AcDbEntity
  8
0
100
AcDbCircle
 62
7
  6
CONTINUOUS
 10
51.8971934209
 20
74.4047290369
 40
4.8
  0
CIRCLE
  5
22D
100
AcDbEntity
  8
0
100
AcDbCircle
 62
7
  6
CONTINUOUS
 10
31.9471934209
 20
62.8865911666
 40
4.8
  0
CIRCLE
  5
22E
100
AcDbEntity
  8
0
100
AcDbCircle
 62
7
  6
CONTINUOUS
 10
58.5471934209
 20
62.8865911666
 40
4.8
  0
CIRCLE
  5
22F
100
AcDbEntity
  8
0
100
AcDbCircle
 62
7
  6
CONTINUOUS
 10
45.2471934209
 20
42.1365911666
 40
4.025
  0
CIRCLE
  5
230
100
AcDbEntity
  8
0
100
AcDbCircle
 62
7
  6
CONTINUOUS
 10
63.2172205495
 20
52.5115911666
 40
4.025
  0
CIRCLE
  5
231
100
AcDbEntity
  8
0
100
AcDbCircle
 62
7
  6
CONTINUOUS
 10
63.2172205495
 20
73.2615911666
 40
4.025
  0
CIRCLE
  5
232
100
AcDbEntity
  8
0
100
AcDbCircle
 62
7
  6
CONTINUOUS
 10
45.2471934209
 20
83.6365911666
 40
4.025
  0
CIRCLE
  5
233
100
AcDbEntity
  8
0
100
AcDbCircle
 62
7
  6
CONTINUOUS
 10
27.2771662924
 20
52.5115911666
 40
4.025
  0
CIRCLE
  5
234
100
AcDbEntity
  8
0
100
AcDbCircle
 62
7
  6
CONTINUOUS
 10
27.2771662924
 20
73.2615911666
 40
4.025
  0
SPLINE
  5
235
100
AcDbEntity
  8
0
100
AcDbSpline
 62
7
  6
CONTINUOUS
 70
0
 71
3
 72
17
 73
13
 74
0
 42
0.0000001
 43
0.0000001
 44
0.0000000001
 40
0.0
 40
0.0
 40
0.0
 40
0.0
 40
0.1249722901
 40
0.1874755278
 40
0.2499811674
 40
0.374966435
 40
0.4999838675
 40
0.624969721
 40
0.6874796517
 40
0.7499919374
 40
0.8749852134
 40
1.0
 40
1.0
 40
1.0
 40
1.0
 10
18.2717345346
 20
78.4608568348
 30
0.0
 10
18.9500360185
 20
79.6374487257
 30
0.0
 10
20.0838549768
 20
81.3393251387
 30
0.0
 10
21.806782939
 20
83.441583705
 30
0.0
 10
23.666561394
 20
85.4244713155
 30
0.0
 10
26.2307968962
 20
87.6672106621
 30
0.0
 10
29.6277697262
 20
89.9376729199
 30
0.0
 10
32.6809631751
 20
91.4490201209
 30
0.0
 10
35.2248745124
 20
92.4079528998
 30
0.0
 10
37.8272724169
 20
93.1949525527
 30
0.0
 10
41.1688217956
 20
93.8555079403
 30
0.0
 10
43.8886029177
 20
94.0343996188
 30
0.0
 10
45.2471737081
 20
94.0355866267
 30
0.0
  0
SPLINE
  5
236
100
AcDbEntity
  8
0
100
AcDbSpline
 62
7
  6
CONTINUOUS
 70
0
 71
3
 72
43
 73
39
 74
0
 42
0.0000001
 43
0.0000001
 44
0.0000000001
 40
0.0
 40
0.0
 40
0.0
 40
0.0
 40
0.0156304567
 40
0.0312626714
 40
0.046893259
 40
0.0625244468
 40
0.0781557455
 40
0.0937868464
 40
0.1250396603
 40
0.1562923779
 40
0.1875448837
 40
0.2187976336
 40
0.2500505214
 40
0.2813033723
 40
0.3125560044
 40
0.343808748
 40
0.3750617008
 40
0.4063146634
 40
0.4375674052
 40
0.4999978592
 40
0.5624289526
 40
0.5936818146
 40
0.6249348503
 40
0.6561879601
 40
0.6874409935
 40
0.7186939023
 40
0.7499471139
 40
0.7812003089
 40
0.8124533854
 40
0.8437062822
 40
0.8749594613
 40
0.9062128254
 40
0.9218439472
 40
0.9374753049
 40
0.9531064407
 40
0.9687371799
 40
0.9843694592
 40
1.0
 40
1.0
 40
1.0
 40
1.0
 10
71.3578593445
 20
47.8115911657
 30
0.0
 10
71.1118754236
 20
47.374626244
 30
0.0
 10
70.5967695853
 20
46.5134721809
 30
0.0
 10
69.7620736796
 20
45.2612224285
 30
0.0
 10
68.8670731916
 20
44.0511871778
 30
0.0
 10
67.9114488351
 20
42.8884810126
 30
0.0
 10
66.8988768884
 20
41.7749813297
 30
0.0
 10
65.4770404681
 20
40.3595702476
 30
0.0
 10
63.5709053064
 20
38.7247731109
 30
0.0
 10
61.1021292679
 20
36.9981254448
 30
0.0
 10
58.4735510887
 20
35.5255497406
 30
0.0
 10
55.7108544929
 20
34.3236007279
 30
0.0
 10
52.8434792534
 20
33.3991639846
 30
0.0
 10
49.8992545089
 20
32.7602642631
 30
0.0
 10
46.9061565611
 20
32.4156020346
 30
0.0
 10
43.8936418103
 20
32.371411008
 30
0.0
 10
40.8915144628
 20
32.622793517
 30
0.0
 10
37.9280265268
 20
33.1661755988
 30
0.0
 10
34.0702563452
 20
34.2740931828
 30
0.0
 10
29.4840856618
 20
36.3706065225
 30
0.0
 10
25.3898240303
 20
39.3139508034
 30
0.0
 10
22.5131969777
 20
42.1129865134
 30
0.0
 10
20.5694260603
 20
44.4149396607
 30
0.0
 10
18.8579288796
 20
46.8941118257
 30
0.0
 10
17.394860053
 20
49.5277432176
 30
0.0
 10
16.1982439378
 20
52.2926965195
 30
0.0
 10
15.2775246235
 20
55.1612029904
 30
0.0
 10
14.6378672194
 20
58.1050869885
 30
0.0
 10
14.2851119651
 20
61.0970131383
 30
0.0
 10
14.2267102432
 20
64.1092329246
 30
0.0
 10
14.4627978905
 20
67.1124938084
 30
0.0
 10
14.8993006208
 20
69.5852264126
 30
0.0
 10
15.3897327973
 20
71.5305812766
 30
0.0
 10
15.8274789738
 20
72.9705277794
 30
0.0
 10
16.3344703987
 20
74.3875522422
 30
0.0
 10
16.9109502595
 20
75.7777983043
 30
0.0
 10
17.5530133916
 20
77.138889855
 30
0.0
 10
18.0240162828
 20
78.0249060601
 30
0.0
 10
18.2705020936
 20
78.4615911674
 30
0.0
  0
SPLINE
  5
237
100
AcDbEntity
  8
0
100
AcDbSpline
 62
7
  6
CONTINUOUS
 70
0
 71
3
 72
39
 73
35
 74
0
 42
0.0000001
 43
0.0000001
 44
0.0000000001
 40
0.0
 40
0.0
 40
0.0
 40
0.0
 40
0.0312517974
 40
0.0624954829
 40
0.0937428265
 40
0.1249993717
 40
0.1562590301
 40
0.1875127551
 40
0.2187574446
 40
0.2500030814
 40
0.2812580116
 40
0.3125178198
 40
0.3749442032
 40
0.406188534
 40
0.4374416625
 40
0.4687011983
 40
0.4999582174
 40
0.5312061676
 40
0.5624496506
 40
0.593700838
 40
0.6249597265
 40
0.6562179832
 40
0.6874678658
 40
0.7030944534
 40
0.7187208983
 40
0.7499701226
 40
0.7812279998
 40
0.812487148
 40
0.8437389955
 40
0.8749826972
 40
0.9062300359
 40
0.9374865783
 40
0.9687462483
 40
1.0
 40
1.0
 40
1.0
 40
1.0
 10
45.2471737081
 20
94.0355866267
 30
0.0
 10
46.2661521398
 20
94.0364769266
 30
0.0
 10
48.3053747097
 20
93.9390877633
 30
0.0
 10
51.3338780336
 20
93.4915797344
 30
0.0
 10
54.3028974483
 20
92.7437580958
 30
0.0
 10
57.1849697724
 20
91.7096144742
 30
0.0
 10
59.953478013
 20
90.4009753931
 30
0.0
 10
62.5816625615
 20
88.8300983372
 30
0.0
 10
65.0426049803
 20
87.0086835229
 30
0.0
 10
67.3087791792
 20
84.9501280207
 30
0.0
 10
69.3627748887
 20
82.6788724083
 30
0.0
 10
71.7924479594
 20
79.4031916199
 30
0.0
 10
73.7345851581
 20
75.7867000451
 30
0.0
 10
75.105226142
 20
71.9454990188
 30
0.0
 10
75.8457155369
 20
68.9742252357
 30
0.0
 10
76.2942325263
 20
65.9451279449
 30
0.0
 10
76.4471934632
 20
62.8868943962
 30
0.0
 10
76.3012173585
 20
59.8286810739
 30
0.0
 10
75.8508467817
 20
56.8003626459
 30
0.0
 10
75.1029589345
 20
53.831333709
 30
0.0
 10
74.0699328902
 20
50.9486591342
 30
0.0
 10
72.7627144084
 20
48.1797102159
 30
0.0
 10
71.4535772036
 20
45.9889828421
 30
0.0
 10
70.2807276894
 20
44.3214650398
 30
0.0
 10
69.0257684322
 20
42.7148571024
 30
0.0
 10
67.3095099201
 20
40.826088307
 30
0.0
 10
65.03923981
 20
38.7714286216
 30
0.0
 10
62.5805095291
 20
36.9461304464
 30
0.0
 10
59.9564485793
 20
35.368506659
 30
0.0
 10
57.1895304338
 20
34.0578759552
 30
0.0
 10
54.3054884765
 20
33.0301895451
 30
0.0
 10
51.3345143891
 20
32.2888408956
 30
0.0
 10
48.3057931175
 20
31.838826241
 30
0.0
 10
46.2662551398
 20
31.7361702669
 30
0.0
 10
45.2472132297
 20
31.73503445
 30
0.0
  0
SPLINE
  5
238
100
AcDbEntity
  8
0
100
AcDbSpline
 62
7
  6
CONTINUOUS
 70
0
 71
3
 72
46
 73
42
 74
0
 42
0.0000001
 43
0.0000001
 44
0.0000000001
 40
0.0
 40
0.0
 40
0.0
 40
0.0
 40
0.0156279004
 40
0.0234438886
 40
0.0312593602
 40
0.0468873202
 40
0.062516127
 40
0.0781452588
 40
0.0937740196
 40
0.1250226067
 40
0.1562712535
 40
0.1875198113
 40
0.2187681383
 40
0.2500161831
 40
0.281264554
 40
0.3125130753
 40
0.3437615643
 40
0.3750098818
 40
0.4062578093
 40
0.4375060342
 40
0.46875445
 40
0.50000288
 40
0.5312511192
 40
0.5624989812
 40
0.593747062
 40
0.6249953207
 40
0.6562436301
 40
0.6874917861
 40
0.7187395807
 40
0.7499874356
 40
0.7812355447
 40
0.8124837417
 40
0.8437317978
 40
0.8749795682
 40
0.9062273307
 40
0.921856057
 40
0.9374850274
 40
0.9531138145
 40
0.9687419529
 40
0.9843719585
 40
1.0
 40
1.0
 40
1.0
 40
1.0
 10
18.2705020936
 20
78.4615911674
 30
0.0
 10
18.5253524188
 20
78.8934025384
 30
0.0
 10
18.9254478113
 20
79.5308482348
 30
0.0
 10
19.4884052165
 20
80.3609348856
 30
0.0
 10
20.0694449865
 20
81.1784975951
 30
0.0
 10
20.8309686171
 20
82.1749545077
 30
0.0
 10
21.803567993
 20
83.3233425517
 30
0.0
 10
22.8315993512
 20
84.4224446512
 30
0.0
 10
24.2719515753
 20
85.8188378097
 30
0.0
 10
26.19709921
 20
87.4307297077
 30
0.0
 10
28.6813384629
 20
89.1343031376
 30
0.0
 10
31.3174858562
 20
90.592145578
 30
0.0
 10
34.0822894236
 20
91.7885161122
 30
0.0
 10
36.9520288517
 20
92.7054135978
 30
0.0
 10
39.8976890898
 20
93.3363415049
 30
0.0
 10
42.8904003487
 20
93.6801684884
 30
0.0
 10
45.9023174972
 20
93.734298777
 30
0.0
 10
48.9054658638
 20
93.496608016
 30
0.0
 10
51.8705009407
 20
92.9628058798
 30
0.0
 10
54.7678661932
 20
92.137695623
 30
0.0
 10
57.5712570016
 20
91.0350780649
 30
0.0
 10
60.2548266393
 20
89.6664079936
 30
0.0
 10
62.7928875802
 20
88.0435719857
 30
0.0
 10
65.1580638775
 20
86.1774225955
 30
0.0
 10
67.3245984174
 20
84.0840530944
 30
0.0
 10
69.2756307248
 20
81.7887300578
 30
0.0
 10
70.9941443768
 20
79.3145144181
 30
0.0
 10
72.4632844364
 20
76.6844964988
 30
0.0
 10
73.6649453841
 20
73.9217634292
 30
0.0
 10
74.5821363451
 20
71.0520446225
 30
0.0
 10
75.2114186684
 20
68.1059690575
 30
0.0
 10
75.5495225847
 20
65.1124940164
 30
0.0
 10
75.5928552933
 20
62.1002205412
 30
0.0
 10
75.3373276289
 20
59.0984280037
 30
0.0
 10
74.872045506
 20
56.630711272
 30
0.0
 10
74.3537927514
 20
54.6927109109
 30
0.0
 10
73.8937052751
 20
53.2598155667
 30
0.0
 10
73.3637066593
 20
51.8513227999
 30
0.0
 10
72.7637901727
 20
50.4711225675
 30
0.0
 10
72.0989205683
 20
49.1211485772
 30
0.0
 10
71.6126467768
 20
48.2434449049
 30
0.0
 10
71.3578593445
 20
47.8115911657
 30
0.0
  0
ENDSEC
  0
SECTION
  2
OBJECTS
  0
DICTIONARY
  5
C
100
AcDbDictionary
280
0
281
1
  3
ACAD_GROUP
350
D
  3
ACAD_MLINESTYLE
350
17
  3
ACAD_LAYOUT
350
1A
  3
ACAD_PLOTSETTINGS
350
19
  3
ACAD_PLOTSTYLENAME
350
E
  0
DICTIONARY
  5
D
102
{ACAD_REACTORS
330
C
102
}
100
AcDbDictionary
280
0
281
1
  0
ACDBDICTIONARYWDFLT
  5
E
102
{ACAD_REACTORS
330
C
102
}
100
AcDbDictionary
281
1
  3
Normal
350
F
100
AcDbDictionaryWithDefault
340
F
  0
DICTIONARY
  5
17
102
{ACAD_REACTORS
330
C
102
}
100
AcDbDictionary
280
0
281
1
  3
Standard
350
18
  0
DICTIONARY
  5
19
102
{ACAD_REACTORS
330
C
102
}
100
AcDbDictionary
281
1
  0
DICTIONARY
  5
1A
102
{ACAD_REACTORS
330
C
102
}
100
AcDbDictionary
281
1
  3
Model
350
239
  3
Layout1
350
23A
  0
ACDBPLACEHOLDER
  5
F
102
{ACAD_REACTORS
330
E
102
}
  0
MLINESTYLE
  5
18
102
{ACAD_REACTORS
330
17
102
}
100
AcDbMlineStyle
  2
STANDARD
 70
0
  3

 62
256
 51
90.0
 52
90.0
 71
2
 49
0.5
 62
256
  6
BYLAYER
 49
-0.5
 62
256
  6
BYLAYER
  0
LAYOUT
  5
239
102
{ACAD_REACTORS
330
1A
102
}
100
AcDbPlotSettings
  1

  2
none_device
  4

  6

 40
0.0
 41
0.0
 42
0.0
 43
0.0
 44
210.0
 45
297.0
 46
0.0
 47
0.0
 48
0.0
 49
0.0
140
0.0
141
0.0
142
1.0
143
1.0
 70
1024
 72
1
 73
0
 74
0
  7

 75
0
147
1.0
148
0.0
149
0.0
100
AcDbLayout
  1
Model
 70
0
 71
0
 10
0.0
 20
0.0
 11
210.0
 21
297.0
 12
0.0
 22
0.0
 32
0.0
 14
0.0
 24
0.0
 34
0.0
 15
0.0
 25
0.0
 35
0.0
146
0.0
 13
0.0
 23
0.0
 33
0.0
 16
1.0
 26
0.0
 36
0.0
 17
0.0
 27
1.0
 37
0.0
 76
0
330
210
345
0
346
0
  0
LAYOUT
  5
23A
102
{ACAD_REACTORS
330
1A
102
}
100
AcDbPlotSettings
  1

  2
none_device
  4

  6

 40
0.0
 41
0.0
 42
0.0
 43
0.0
 44
210.0
 45
297.0
 46
0.0
 47
0.0
 48
0.0
 49
0.0
140
0.0
141
0.0
142
1.0
143
1.0
 70
0
 72
1
 73
0
 74
0
  7

 75
0
147
1.0
148
0.0
149
0.0
100
AcDbLayout
  1
Layout1
 70
0
 71
1
 10
0.0
 20
0.0
 11
210.0
 21
297.0
 12
0.0
 22
0.0
 32
0.0
 14
0.0
 24
0.0
 34
0.0
 15
0.0
 25
0.0
 35
0.0
146
0.0
 13
0.0
 23
0.0
 33
0.0
 16
1.0
 26
0.0
 36
0.0
 17
0.0
 27
1.0
 37
0.0
 76
0
330
211
345
0
346
0
  0
ENDSEC
  0
EOF
