  0
SECTION
  2
HEADER
  9
$ACADVER
  1
AC1009
  9
$DWGCODEPAGE
  3
ansi_1250
  9
$INSBASE
 10
0.0
 20
0.0
 30
0.0
  9
$EXTMIN
 10
-5.364173
 20
-2.047244
 30
0.0
  9
$EXTMAX
 10
5.364173
 20
0.19685
 30
0.0
  9
$LIMMIN
 10
0.0
 20
0.0
  9
$LIMMAX
 10
0.0
 20
0.0
  9
$ORTHOMODE
 70
     0
  9
$REGENMODE
 70
     1
  9
$FILLMODE
 70
     1
  9
$QTEXTMODE
 70
     0
  9
$MIRRTEXT
 70
     1
  9
$DRAGMODE
 70
     2
  9
$LTSCALE
 40
1.0
  9
$OSMODE
 70
     0
  9
$ATTMODE
 70
     1
  9
$TEXTSIZE
 40
0.2
  9
$TRACEWID
 40
0.05
  9
$TEXTSTYLE
  7
STANDARD
  9
$CLAYER
  8
0
  9
$CELTYPE
  6
CONTINUOUS
  9
$CECOLOR
 62
   256
  9
$DIMSCALE
 40
1.0
  9
$DIMASZ
 40
0.18
  9
$DIMEXO
 40
0.0625
  9
$DIMDLI
 40
0.38
  9
$DIMRND
 40
0.0
  9
$DIMDLE
 40
0.0
  9
$DIMEXE
 40
0.18
  9
$DIMTP
 40
0.0
  9
$DIMTM
 40
0.0
  9
$DIMTXT
 40
0.18
  9
$DIMCEN
 40
0.09
  9
$DIMTSZ
 40
0.0
  9
$DIMTOL
 70
     0
  9
$DIMLIM
 70
     0
  9
$DIMTIH
 70
     1
  9
$DIMTOH
 70
     1
  9
$DIMSE1
 70
     0
  9
$DIMSE2
 70
     0
  9
$DIMTAD
 70
     0
  9
$DIMZIN
 70
     0
  9
$DIMBLK
  1

  9
$DIMASO
 70
     1
  9
$DIMSHO
 70
     1
  9
$DIMPOST
  1

  9
$DIMAPOST
  1

  9
$DIMALT
 70
     0
  9
$DIMALTD
 70
     2
  9
$DIMALTF
 40
25.4
  9
$DIMLFAC
 40
1.0
  9
$DIMTOFL
 70
     0
  9
$DIMTVP
 40
0.0
  9
$DIMTIX
 70
     0
  9
$DIMSOXD
 70
     0
  9
$DIMSAH
 70
     0
  9
$DIMBLK1
  1

  9
$DIMBLK2
  1

  9
$DIMSTYLE
  2
STANDARD
  9
$DIMCLRD
 70
     0
  9
$DIMCLRE
 70
     0
  9
$DIMCLRT
 70
     0
  9
$DIMTFAC
 40
1.0
  9
$DIMGAP
 40
0.09
  9
$LUNITS
 70
     2
  9
$LUPREC
 70
     4
  9
$AXISMODE
 70
     0
  9
$AXISUNIT
 10
0.0
 20
0.0
  9
$SKETCHINC
 40
0.1
  9
$FILLETRAD
 40
0.0
  9
$AUNITS
 70
     0
  9
$AUPREC
 70
     0
  9
$MENU
  1
acad
  9
$ELEVATION
 40
0.0
  9
$PELEVATION
 40
0.0
  9
$THICKNESS
 40
0.0
  9
$LIMCHECK
 70
     0
  9
$BLIPMODE
 70
     1
  9
$CHAMFERA
 40
0.0
  9
$CHAMFERB
 40
0.0
  9
$SKPOLY
 70
     0
  9
$TDCREATE
 40
0.000000000
  9
$TDUPDATE
 40
0.000000000
  9
$TDINDWG
 40
0.0000000000
  9
$TDUSRTIMER
 40
0.0000000000
  9
$USRTIMER
 70
     1
  9
$ANGBASE
 50
0.0
  9
$ANGDIR
 70
     0
  9
$PDMODE
 70
     0
  9
$PDSIZE
 40
0.0
  9
$PLINEWID
 40
0.0
  9
$COORDS
 70
     0
  9
$SPLFRAME
 70
     0
  9
$SPLINETYPE
 70
     6
  9
$SPLINESEGS
 70
     8
  9
$ATTDIA
 70
     0
  9
$ATTREQ
 70
     1
  9
$HANDLING
 70
     1
  9
$HANDSEED
  5
158
  9
$SURFTAB1
 70
     6
  9
$SURFTAB2
 70
     6
  9
$SURFTYPE
 70
     6
  9
$SURFU
 70
     6
  9
$SURFV
 70
     6
  9
$UCSNAME
  2

  9
$UCSORG
 10
0.0
 20
0.0
 30
0.0
  9
$UCSXDIR
 10
1.0
 20
0.0
 30
0.0
  9
$UCSYDIR
 10
0.0
 20
1.0
 30
0.0
  9
$PUCSNAME
  2

  9
$PUCSORG
 10
0.0
 20
0.0
 30
0.0
  9
$PUCSXDIR
 10
1.0
 20
0.0
 30
0.0
  9
$PUCSYDIR
 10
0.0
 20
1.0
 30
0.0
  9
$USERI1
 70
     0
  9
$USERI2
 70
     0
  9
$USERI3
 70
     0
  9
$USERI4
 70
     0
  9
$USERI5
 70
     0
  9
$USERR1
 40
0.0
  9
$USERR2
 40
0.0
  9
$USERR3
 40
0.0
  9
$USERR4
 40
0.0
  9
$USERR5
 40
0.0
  9
$WORLDVIEW
 70
     1
  9
$SHADEDGE
 70
     3
  9
$SHADEDIF
 70
    70
  9
$TILEMODE
 70
     1
  9
$MAXACTVP
 70
    16
  9
$PINSBASE
 10
0.0
 20
0.0
 30
0.0
  9
$PLIMCHECK
 70
     0
  9
$PEXTMIN
 10
1.000000E+20
 20
1.000000E+20
 30
1.000000E+20
  9
$PEXTMAX
 10
-1.000000E+20
 20
-1.000000E+20
 30
-1.000000E+20
  9
$PLIMMIN
 10
0.0
 20
0.0
  9
$PLIMMAX
 10
12.0
 20
9.0
  9
$UNITMODE
 70
     0
  9
$VISRETAIN
 70
     0
  9
$PLINEGEN
 70
     1
  9
$PSLTSCALE
 70
     0
  9
$TREEDEPTH
 70
  3020
  0
ENDSEC
  0
SECTION
  2
TABLES
  0
TABLE
  2
VPORT
 70
     1
  0
VPORT
  2
*ACTIVE
 70
     0
 10
0.0
 20
0.0
 11
1.0
 21
1.0
 12
6.591288
 22
4.579184
 13
0.0
 23
0.0
 14
1.0
 24
1.0
 15
0.0
 25
0.0
 16
0.0
 26
0.0
 36
1.0
 17
0.0
 27
0.0
 37
0.0
 40
9.158369
 41
0.688564
 42
50.0
 43
0.0
 44
0.0
 50
0.0
 51
0.0
 71
     0
 72
   100
 73
     1
 74
     1
 75
     0
 76
     0
 77
     0
 78
     0
  0
ENDTAB
  0
TABLE
  2
LTYPE
 70
     5
  0
LTYPE
  2
CONTINUOUS
 70
    64
  3
Solid line
 72
    65
 73
     0
 40
0.0
  0
LTYPE
  2
CENTER
 70
    64
  3
Center ____ _ ____ _ ____ _ ____ _ ____ _ ____
 72
    65
 73
     4
 40
50.8
 49
31.75
 49
-6.35
 49
6.35
 49
-6.35
  0
LTYPE
  2
HIDDEN
 70
    64
  3
Hidden __ __ __ __ __ __ __ __ __ __ __ __ __ __
 72
    65
 73
     2
 40
9.525
 49
6.35
 49
-3.175
  0
LTYPE
  2
CENTER2
 70
    64
  3
Center (.5x) ___ _ ___ _ ___ _ ___ _ ___ _ ___
 72
    65
 73
     4
 40
28.575
 49
19.05
 49
-3.175
 49
3.175
 49
-3.175
  0
LTYPE
  2
HIDDEN2
 70
    64
  3
Hidden (.5x) _ _ _ _ _ _ _ _ _ _ _ _ _ _ _ _ _
 72
    65
 73
     2
 40
4.7625
 49
3.175
 49
-1.5875
  0
ENDTAB
  0
TABLE
  2
LAYER
 70
     1
  0
LAYER
  2
0
 70
     0
 62
     7
  6
CONTINUOUS
  0
ENDTAB
  0
TABLE
  2
STYLE
 70
     1
  0
STYLE
  2
STANDARD
 70
     0
 40
0.0
 41
1.0
 50
0.0
 71
     0
 42
0.0
  3
txt
  4

  0
ENDTAB
  0
TABLE
  2
VIEW
 70
     0
  0
ENDTAB
  0
TABLE
  2
UCS
 70
     0
  0
ENDTAB
  0
TABLE
  2
APPID
 70
     1
  0
APPID
  2
ACAD
 70
     0
  0
ENDTAB
  0
TABLE
  2
DIMSTYLE
 70
     1
  0
DIMSTYLE
  2
STANDARD
 70
     0
  3

  4

  5

  6

  7

 40
1.0
 41
0.18
 42
0.0625
 43
0.38
 44
0.18
 45
0.0
 46
0.0
 47
0.0
 48
0.0
 71
     0
 72
     0
 73
     1
 74
     1
 75
     0
 76
     0
 77
     0
 78
     0
140
0.18
141
0.09
142
0.0
143
25.4
144
1.0
145
0.0
146
1.0
147
0.09
170
     0
171
     2
172
     0
173
     0
174
     0
175
     0
176
     0
177
     0
178
     0
  0
ENDTAB
  0
ENDSEC
  0
SECTION
  2
BLOCKS
  0
ENDSEC
  0
SECTION
  2
ENTITIES
  0
LINE
  8
0
  6
CONTINUOUS
 62
     7
  5
D4
 10
-0.233268
 20
-1.750787
 30
0.0
 11
-0.784449
 21
-1.750787
 31
0.0
  0
LINE
  8
0
  6
CONTINUOUS
 62
     7
  5
D5
 10
-0.233268
 20
-1.494882
 30
0.0
 11
-0.233268
 21
-1.750787
 31
0.0
  0
LINE
  8
0
  6
CONTINUOUS
 62
     7
  5
D6
 10
-0.233268
 20
-1.494882
 30
0.0
 11
-0.784449
 21
-1.494882
 31
0.0
  0
LINE
  8
0
  6
CONTINUOUS
 62
     7
  5
D7
 10
-0.764764
 20
-1.514567
 30
0.0
 11
-0.252953
 21
-1.514567
 31
0.0
  0
LINE
  8
0
  6
CONTINUOUS
 62
     7
  5
D8
 10
-0.252953
 20
-1.731102
 30
0.0
 11
-0.764764
 21
-1.731102
 31
0.0
  0
LINE
  8
0
  6
CONTINUOUS
 62
     7
  5
D9
 10
-0.784449
 20
-1.750787
 30
0.0
 11
-0.784449
 21
-1.494882
 31
0.0
  0
LINE
  8
0
  6
CONTINUOUS
 62
     7
  5
DA
 10
-0.764764
 20
-1.731102
 30
0.0
 11
-0.764764
 21
-1.514567
 31
0.0
  0
LINE
  8
0
  6
CONTINUOUS
 62
     7
  5
DB
 10
-0.252953
 20
-1.514567
 30
0.0
 11
-0.252953
 21
-1.731102
 31
0.0
  0
LINE
  8
0
  6
CONTINUOUS
 62
     7
  5
DC
 10
-0.292323
 20
-1.612992
 30
0.0
 11
-0.292323
 21
-1.691732
 31
0.0
  0
LINE
  8
0
  6
CONTINUOUS
 62
     7
  5
DD
 10
-0.725394
 20
-1.691732
 30
0.0
 11
-0.725394
 21
-1.612992
 31
0.0
  0
LINE
  8
0
  6
CONTINUOUS
 62
     7
  5
DE
 10
-0.292323
 20
-1.612992
 30
0.0
 11
-0.725394
 21
-1.612992
 31
0.0
  0
LINE
  8
0
  6
CONTINUOUS
 62
     7
  5
DF
 10
-0.292323
 20
-1.691732
 30
0.0
 11
-0.725394
 21
-1.691732
 31
0.0
  0
ARC
  8
0
  6
CONTINUOUS
 62
     7
  5
E0
 10
-1.662894
 20
-1.032874
 30
0.0
 40
0.019685
 50
0.0
 51
90.0
  0
LINE
  8
0
  6
CONTINUOUS
 62
     7
  5
E1
 10
-1.643209
 20
-1.032874
 30
0.0
 11
-1.643209
 21
-1.052559
 31
0.0
  0
ARC
  8
0
  6
CONTINUOUS
 62
     7
  5
E2
 10
-1.662894
 20
-1.052559
 30
0.0
 40
0.019685
 50
300.0
 51
0.0
  0
ARC
  8
0
  6
CONTINUOUS
 62
     7
  5
E3
 10
-1.643209
 20
-1.086655
 30
0.0
 40
0.019685
 50
120.0
 51
180.0
  0
LINE
  8
0
  6
CONTINUOUS
 62
     7
  5
E4
 10
-1.662894
 20
-1.086655
 30
0.0
 11
-1.662894
 21
-1.131299
 31
0.0
  0
LINE
  8
0
  6
CONTINUOUS
 62
     7
  5
E5
 10
-1.662894
 20
-1.131299
 30
0.0
 11
-1.899114
 21
-1.131299
 31
0.0
  0
LINE
  8
0
  6
CONTINUOUS
 62
     7
  5
E6
 10
-1.899114
 20
-1.131299
 30
0.0
 11
-1.899114
 21
-1.086655
 31
0.0
  0
ARC
  8
0
  6
CONTINUOUS
 62
     7
  5
E7
 10
-1.918799
 20
-1.086655
 30
0.0
 40
0.019685
 50
0.0
 51
60.0
  0
ARC
  8
0
  6
CONTINUOUS
 62
     7
  5
E8
 10
-1.899114
 20
-1.052559
 30
0.0
 40
0.019685
 50
180.0
 51
240.0
  0
LINE
  8
0
  6
CONTINUOUS
 62
     7
  5
E9
 10
-1.918799
 20
-1.052559
 30
0.0
 11
-1.918799
 21
-1.032874
 31
0.0
  0
ARC
  8
0
  6
CONTINUOUS
 62
     7
  5
EA
 10
-1.899114
 20
-1.032874
 30
0.0
 40
0.019685
 50
90.0
 51
180.0
  0
LINE
  8
0
  6
CONTINUOUS
 62
     7
  5
EB
 10
-1.899114
 20
-1.013189
 30
0.0
 11
-1.662894
 21
-1.013189
 31
0.0
  0
LINE
  8
0
  6
CONTINUOUS
 62
     7
  5
EC
 10
-1.958169
 20
-0.973819
 30
0.0
 11
-1.603839
 21
-0.973819
 31
0.0
  0
LINE
  8
0
  6
CONTINUOUS
 62
     7
  5
ED
 10
-1.603839
 20
-0.973819
 30
0.0
 11
-1.603839
 21
-1.170669
 31
0.0
  0
LINE
  8
0
  6
CONTINUOUS
 62
     7
  5
EE
 10
-4.300394
 20
-1.21874
 30
0.0
 11
-4.412598
 21
-1.21874
 31
0.0
  0
LINE
  8
0
  6
CONTINUOUS
 62
     7
  5
EF
 10
-4.412598
 20
-1.21874
 30
0.0
 11
-4.412598
 21
-0.951024
 31
0.0
  0
LINE
  8
0
  6
CONTINUOUS
 62
     7
  5
F0
 10
-4.412598
 20
-0.951024
 30
0.0
 11
-3.940157
 21
-0.951024
 31
0.0
  0
LINE
  8
0
  6
CONTINUOUS
 62
     7
  5
F1
 10
-3.940157
 20
-0.951024
 30
0.0
 11
-3.940157
 21
-1.21874
 31
0.0
  0
LINE
  8
0
  6
CONTINUOUS
 62
     7
  5
F2
 10
-3.940157
 20
-1.21874
 30
0.0
 11
-4.052362
 21
-1.21874
 31
0.0
  0
LINE
  8
0
  6
CONTINUOUS
 62
     7
  5
F3
 10
-4.052362
 20
-1.21874
 30
0.0
 11
-4.052362
 21
-1.289606
 31
0.0
  0
LINE
  8
0
  6
CONTINUOUS
 62
     7
  5
F4
 10
-4.052362
 20
-1.289606
 30
0.0
 11
-4.095669
 21
-1.289606
 31
0.0
  0
LINE
  8
0
  6
CONTINUOUS
 62
     7
  5
F5
 10
-4.095669
 20
-1.289606
 30
0.0
 11
-4.095669
 21
-1.332913
 31
0.0
  0
LINE
  8
0
  6
CONTINUOUS
 62
     7
  5
F6
 10
-4.095669
 20
-1.332913
 30
0.0
 11
-4.257087
 21
-1.332913
 31
0.0
  0
LINE
  8
0
  6
CONTINUOUS
 62
     7
  5
F7
 10
-4.257087
 20
-1.332913
 30
0.0
 11
-4.257087
 21
-1.289606
 31
0.0
  0
LINE
  8
0
  6
CONTINUOUS
 62
     7
  5
F8
 10
-4.257087
 20
-1.289606
 30
0.0
 11
-4.300394
 21
-1.289606
 31
0.0
  0
LINE
  8
0
  6
CONTINUOUS
 62
     7
  5
F9
 10
-4.300394
 20
-1.289606
 30
0.0
 11
-4.300394
 21
-1.21874
 31
0.0
  0
LINE
  8
0
  6
CONTINUOUS
 62
     7
  5
FA
 10
-4.448228
 20
-0.901024
 30
0.0
 11
-3.897047
 21
-0.901024
 31
0.0
  0
LINE
  8
0
  6
CONTINUOUS
 62
     7
  5
FB
 10
-3.897047
 20
-0.901024
 30
0.0
 11
-3.897047
 21
-1.373465
 31
0.0
  0
LINE
  8
0
  6
CONTINUOUS
 62
     7
  5
FC
 10
-1.268785
 20
-1.719291
 30
0.0
 11
-1.348341
 21
-1.719291
 31
0.0
  0
LINE
  8
0
  6
CONTINUOUS
 62
     7
  5
FD
 10
-1.348341
 20
-1.719291
 30
0.0
 11
-1.388119
 21
-1.650394
 31
0.0
  0
LINE
  8
0
  6
CONTINUOUS
 62
     7
  5
FE
 10
-1.388119
 20
-1.650394
 30
0.0
 11
-1.348341
 21
-1.581496
 31
0.0
  0
LINE
  8
0
  6
CONTINUOUS
 62
     7
  5
FF
 10
-1.348341
 20
-1.581496
 30
0.0
 11
-1.268785
 21
-1.581496
 31
0.0
  0
LINE
  8
0
  6
CONTINUOUS
 62
     7
  5
100
 10
-1.268785
 20
-1.581496
 30
0.0
 11
-1.229007
 21
-1.650394
 31
0.0
  0
LINE
  8
0
  6
CONTINUOUS
 62
     7
  5
101
 10
-1.229007
 20
-1.650394
 30
0.0
 11
-1.268785
 21
-1.719291
 31
0.0
  0
CIRCLE
  8
0
  6
CONTINUOUS
 62
     7
  5
102
 10
-1.633366
 20
-1.594488
 30
0.0
 40
0.01378
  0
CIRCLE
  8
0
  6
CONTINUOUS
 62
     7
  5
103
 10
-1.731791
 20
-1.594488
 30
0.0
 40
0.01378
  0
CIRCLE
  8
0
  6
CONTINUOUS
 62
     7
  5
104
 10
-1.830217
 20
-1.594488
 30
0.0
 40
0.01378
  0
CIRCLE
  8
0
  6
CONTINUOUS
 62
     7
  5
105
 10
-1.928642
 20
-1.594488
 30
0.0
 40
0.01378
  0
CIRCLE
  8
0
  6
CONTINUOUS
 62
     7
  5
106
 10
-1.584154
 20
-1.71063
 30
0.0
 40
0.01378
  0
CIRCLE
  8
0
  6
CONTINUOUS
 62
     7
  5
107
 10
-1.682579
 20
-1.71063
 30
0.0
 40
0.01378
  0
CIRCLE
  8
0
  6
CONTINUOUS
 62
     7
  5
108
 10
-1.781004
 20
-1.71063
 30
0.0
 40
0.01378
  0
CIRCLE
  8
0
  6
CONTINUOUS
 62
     7
  5
109
 10
-1.879429
 20
-1.71063
 30
0.0
 40
0.01378
  0
CIRCLE
  8
0
  6
CONTINUOUS
 62
     7
  5
10A
 10
-1.977854
 20
-1.71063
 30
0.0
 40
0.01378
  0
LINE
  8
0
  6
CONTINUOUS
 62
     7
  5
10B
 10
-2.110551
 20
-1.692658
 30
0.0
 11
-2.089378
 21
-1.572579
 31
0.0
  0
ARC
  8
0
  6
CONTINUOUS
 62
     7
  5
10C
 10
-2.009744
 20
-1.710433
 30
0.0
 40
0.102362
 50
170.0
 51
270.0
  0
LINE
  8
0
  6
CONTINUOUS
 62
     7
  5
10D
 10
-1.552264
 20
-1.812795
 30
0.0
 11
-2.009744
 21
-1.812795
 31
0.0
  0
ARC
  8
0
  6
CONTINUOUS
 62
     7
  5
10E
 10
-1.552264
 20
-1.710433
 30
0.0
 40
0.102362
 50
270.0
 51
10.0
  0
LINE
  8
0
  6
CONTINUOUS
 62
     7
  5
10F
 10
-1.47263
 20
-1.572579
 30
0.0
 11
-1.451457
 21
-1.692658
 31
0.0
  0
ARC
  8
0
  6
CONTINUOUS
 62
     7
  5
110
 10
-1.573437
 20
-1.590354
 30
0.0
 40
0.102362
 50
10.0
 51
90.0
  0
LINE
  8
0
  6
CONTINUOUS
 62
     7
  5
111
 10
-1.988571
 20
-1.487992
 30
0.0
 11
-1.573437
 21
-1.487992
 31
0.0
  0
ARC
  8
0
  6
CONTINUOUS
 62
     7
  5
112
 10
-1.988571
 20
-1.590354
 30
0.0
 40
0.102362
 50
90.0
 51
170.0
  0
LINE
  8
0
  6
CONTINUOUS
 62
     7
  5
113
 10
-1.988571
 20
-1.468307
 30
0.0
 11
-1.573437
 21
-1.468307
 31
0.0
  0
ARC
  8
0
  6
CONTINUOUS
 62
     7
  5
114
 10
-1.573437
 20
-1.590354
 30
0.0
 40
0.122047
 50
10.0
 51
90.0
  0
LINE
  8
0
  6
CONTINUOUS
 62
     7
  5
115
 10
-1.453244
 20
-1.569161
 30
0.0
 11
-1.432071
 21
-1.68924
 31
0.0
  0
ARC
  8
0
  6
CONTINUOUS
 62
     7
  5
116
 10
-1.552264
 20
-1.710433
 30
0.0
 40
0.122047
 50
270.0
 51
10.0
  0
LINE
  8
0
  6
CONTINUOUS
 62
     7
  5
117
 10
-1.552264
 20
-1.83248
 30
0.0
 11
-2.009744
 21
-1.83248
 31
0.0
  0
ARC
  8
0
  6
CONTINUOUS
 62
     7
  5
118
 10
-2.009744
 20
-1.710433
 30
0.0
 40
0.122047
 50
170.0
 51
270.0
  0
LINE
  8
0
  6
CONTINUOUS
 62
     7
  5
119
 10
-2.129937
 20
-1.68924
 30
0.0
 11
-2.108764
 21
-1.569161
 31
0.0
  0
ARC
  8
0
  6
CONTINUOUS
 62
     7
  5
11A
 10
-1.988571
 20
-1.590354
 30
0.0
 40
0.122047
 50
90.0
 51
170.0
  0
LINE
  8
0
  6
CONTINUOUS
 62
     7
  5
11B
 10
-2.213667
 20
-1.719291
 30
0.0
 11
-2.293223
 21
-1.719291
 31
0.0
  0
LINE
  8
0
  6
CONTINUOUS
 62
     7
  5
11C
 10
-2.293223
 20
-1.719291
 30
0.0
 11
-2.333001
 21
-1.650394
 31
0.0
  0
LINE
  8
0
  6
CONTINUOUS
 62
     7
  5
11D
 10
-2.333001
 20
-1.650394
 30
0.0
 11
-2.293223
 21
-1.581496
 31
0.0
  0
LINE
  8
0
  6
CONTINUOUS
 62
     7
  5
11E
 10
-2.293223
 20
-1.581496
 30
0.0
 11
-2.213667
 21
-1.581496
 31
0.0
  0
LINE
  8
0
  6
CONTINUOUS
 62
     7
  5
11F
 10
-2.213667
 20
-1.581496
 30
0.0
 11
-2.173889
 21
-1.650394
 31
0.0
  0
LINE
  8
0
  6
CONTINUOUS
 62
     7
  5
120
 10
-2.173889
 20
-1.650394
 30
0.0
 11
-2.213667
 21
-1.719291
 31
0.0
  0
LINE
  8
0
  6
CONTINUOUS
 62
     7
  5
121
 10
5.087583
 20
-2.047244
 30
0.0
 11
-5.087583
 21
-2.047244
 31
0.0
  0
LINE
  8
0
  6
CONTINUOUS
 62
     7
  5
122
 10
5.087583
 20
-1.496063
 30
0.0
 11
5.087583
 21
-2.047244
 31
0.0
  0
LINE
  8
0
  6
CONTINUOUS
 62
     7
  5
123
 10
-5.087583
 20
-2.047244
 30
0.0
 11
-5.087583
 21
-1.496063
 31
0.0
  0
LINE
  8
0
  6
CONTINUOUS
 62
     7
  5
124
 10
-1.603839
 20
-1.170669
 30
0.0
 11
-1.958169
 21
-1.170669
 31
0.0
  0
LINE
  8
0
  6
CONTINUOUS
 62
     7
  5
125
 10
-1.958169
 20
-1.170669
 30
0.0
 11
-1.958169
 21
-0.973819
 31
0.0
  0
LINE
  8
0
  6
CONTINUOUS
 62
     7
  5
126
 10
-3.897047
 20
-1.373465
 30
0.0
 11
-4.448228
 21
-1.373465
 31
0.0
  0
LINE
  8
0
  6
CONTINUOUS
 62
     7
  5
127
 10
-4.448228
 20
-1.373465
 30
0.0
 11
-4.448228
 21
-0.901024
 31
0.0
  0
LINE
  8
0
  6
CONTINUOUS
 62
     7
  5
128
 10
-3.481398
 20
-1.414173
 30
0.0
 11
-2.930217
 21
-1.414173
 31
0.0
  0
LINE
  8
0
  6
CONTINUOUS
 62
     7
  5
129
 10
-2.930217
 20
-1.414173
 30
0.0
 11
-2.930217
 21
-1.886614
 31
0.0
  0
LINE
  8
0
  6
CONTINUOUS
 62
     7
  5
12A
 10
-2.930217
 20
-1.886614
 30
0.0
 11
-3.481398
 21
-1.886614
 31
0.0
  0
LINE
  8
0
  6
CONTINUOUS
 62
     7
  5
12B
 10
-3.481398
 20
-1.886614
 30
0.0
 11
-3.481398
 21
-1.414173
 31
0.0
  0
LINE
  8
0
  6
CONTINUOUS
 62
     7
  5
12C
 10
-3.333563
 20
-1.73189
 30
0.0
 11
-3.445768
 21
-1.73189
 31
0.0
  0
LINE
  8
0
  6
CONTINUOUS
 62
     7
  5
12D
 10
-3.445768
 20
-1.73189
 30
0.0
 11
-3.445768
 21
-1.464173
 31
0.0
  0
LINE
  8
0
  6
CONTINUOUS
 62
     7
  5
12E
 10
-3.445768
 20
-1.464173
 30
0.0
 11
-2.973327
 21
-1.464173
 31
0.0
  0
LINE
  8
0
  6
CONTINUOUS
 62
     7
  5
12F
 10
-2.973327
 20
-1.464173
 30
0.0
 11
-2.973327
 21
-1.73189
 31
0.0
  0
LINE
  8
0
  6
CONTINUOUS
 62
     7
  5
130
 10
-2.973327
 20
-1.73189
 30
0.0
 11
-3.085531
 21
-1.73189
 31
0.0
  0
LINE
  8
0
  6
CONTINUOUS
 62
     7
  5
131
 10
-3.085531
 20
-1.73189
 30
0.0
 11
-3.085531
 21
-1.802756
 31
0.0
  0
LINE
  8
0
  6
CONTINUOUS
 62
     7
  5
132
 10
-3.085531
 20
-1.802756
 30
0.0
 11
-3.128839
 21
-1.802756
 31
0.0
  0
LINE
  8
0
  6
CONTINUOUS
 62
     7
  5
133
 10
-3.128839
 20
-1.802756
 30
0.0
 11
-3.128839
 21
-1.846063
 31
0.0
  0
LINE
  8
0
  6
CONTINUOUS
 62
     7
  5
134
 10
-3.128839
 20
-1.846063
 30
0.0
 11
-3.290256
 21
-1.846063
 31
0.0
  0
LINE
  8
0
  6
CONTINUOUS
 62
     7
  5
135
 10
-3.290256
 20
-1.846063
 30
0.0
 11
-3.290256
 21
-1.802756
 31
0.0
  0
LINE
  8
0
  6
CONTINUOUS
 62
     7
  5
136
 10
-3.290256
 20
-1.802756
 30
0.0
 11
-3.333563
 21
-1.802756
 31
0.0
  0
LINE
  8
0
  6
CONTINUOUS
 62
     7
  5
137
 10
-3.333563
 20
-1.802756
 30
0.0
 11
-3.333563
 21
-1.73189
 31
0.0
  0
LINE
  8
0
  6
CONTINUOUS
 62
     7
  5
138
 10
4.255512
 20
-1.047244
 30
0.0
 11
4.255512
 21
-1.440945
 31
0.0
  0
LINE
  8
0
  6
CONTINUOUS
 62
     7
  5
139
 10
3.54685
 20
-1.440945
 30
0.0
 11
3.54685
 21
-1.047244
 31
0.0
  0
LINE
  8
0
  6
CONTINUOUS
 62
     7
  5
13A
 10
4.255512
 20
-1.440945
 30
0.0
 11
3.54685
 21
-1.440945
 31
0.0
  0
LINE
  8
0
  6
CONTINUOUS
 62
     7
  5
13B
 10
1.417717
 20
-1.047244
 30
0.0
 11
4.688583
 21
-1.047244
 31
0.0
  0
LINE
  8
0
  6
CONTINUOUS
 62
     7
  5
13C
 10
3.31063
 20
-1.496063
 30
0.0
 11
3.31063
 21
-1.047244
 31
0.0
  0
LINE
  8
0
  6
CONTINUOUS
 62
     7
  5
13D
 10
4.491732
 20
-1.047244
 30
0.0
 11
4.491732
 21
-1.496063
 31
0.0
  0
LINE
  8
0
  6
CONTINUOUS
 62
     7
  5
13E
 10
3.31063
 20
-1.496063
 30
0.0
 11
2.944291
 21
-1.496063
 31
0.0
  0
LINE
  8
0
  6
CONTINUOUS
 62
     7
  5
13F
 10
4.937583
 20
-1.496063
 30
0.0
 11
5.087583
 21
-1.496063
 31
0.0
  0
LINE
  8
0
  6
CONTINUOUS
 62
     7
  5
140
 10
4.688583
 20
-1.496063
 30
0.0
 11
4.937583
 21
-1.496063
 31
0.0
  0
LINE
  8
0
  6
CONTINUOUS
 62
     7
  5
141
 10
4.688583
 20
-1.496063
 30
0.0
 11
4.491732
 21
-1.496063
 31
0.0
  0
LINE
  8
0
  6
CONTINUOUS
 62
     7
  5
142
 10
2.944291
 20
-1.496063
 30
0.0
 11
2.944291
 21
-1.047244
 31
0.0
  0
LINE
  8
0
  6
CONTINUOUS
 62
     7
  5
143
 10
4.688583
 20
-1.047244
 30
0.0
 11
4.688583
 21
-1.496063
 31
0.0
  0
LINE
  8
0
  6
CONTINUOUS
 62
     7
  5
144
 10
-4.688583
 20
-1.496063
 30
0.0
 11
-4.688583
 21
-0.747244
 31
0.0
  0
LINE
  8
0
  6
CONTINUOUS
 62
     7
  5
145
 10
1.417717
 20
-0.747244
 30
0.0
 11
1.417717
 21
-1.047244
 31
0.0
  0
LINE
  8
0
  6
CONTINUOUS
 62
     7
  5
146
 10
-4.688583
 20
-0.747244
 30
0.0
 11
1.417717
 21
-0.747244
 31
0.0
  0
LINE
  8
0
  6
CONTINUOUS
 62
     7
  5
147
 10
-4.937583
 20
-1.496063
 30
0.0
 11
-4.688583
 21
-1.496063
 31
0.0
  0
LINE
  8
0
  6
CONTINUOUS
 62
     7
  5
148
 10
-5.087583
 20
-1.496063
 30
0.0
 11
-4.937583
 21
-1.496063
 31
0.0
  0
LINE
  8
0
  6
CONTINUOUS
 62
     7
  5
149
 10
5.087583
 20
-0.647244
 30
0.0
 11
5.087583
 21
-1.496063
 31
0.0
  0
LINE
  8
0
  6
CONTINUOUS
 62
     7
  5
14A
 10
-5.087583
 20
-0.647244
 30
0.0
 11
-5.087583
 21
-1.496063
 31
0.0
  0
LINE
  8
0
  6
CONTINUOUS
 62
     7
  5
14B
 10
4.938583
 20
-0.647244
 30
0.0
 11
5.088583
 21
-0.647244
 31
0.0
  0
LINE
  8
0
  6
CONTINUOUS
 62
     7
  5
14C
 10
-4.938583
 20
-0.647244
 30
0.0
 11
4.938583
 21
-0.647244
 31
0.0
  0
LINE
  8
0
  6
CONTINUOUS
 62
     7
  5
14D
 10
-5.088583
 20
-0.647244
 30
0.0
 11
-4.938583
 21
-0.647244
 31
0.0
  0
LINE
  8
0
  6
CONTINUOUS
 62
     7
  5
14E
 10
-5.088583
 20
0.0
 30
0.0
 11
-5.088583
 21
-0.647244
 31
0.0
  0
LINE
  8
0
  6
CONTINUOUS
 62
     7
  5
14F
 10
5.088583
 20
0.0
 30
0.0
 11
5.088583
 21
-0.647244
 31
0.0
  0
LINE
  8
0
  6
CONTINUOUS
 62
     7
  5
150
 10
5.364173
 20
0.09685
 30
0.0
 11
5.364173
 21
0.0
 31
0.0
  0
ARC
  8
0
  6
CONTINUOUS
 62
     7
  5
151
 10
5.264173
 20
0.09685
 30
0.0
 40
0.1
 50
0.0
 51
90.0
  0
LINE
  8
0
  6
CONTINUOUS
 62
     7
  5
152
 10
-5.264173
 20
0.19685
 30
0.0
 11
5.264173
 21
0.19685
 31
0.0
  0
ARC
  8
0
  6
CONTINUOUS
 62
     7
  5
153
 10
-5.264173
 20
0.09685
 30
0.0
 40
0.1
 50
90.0
 51
180.0
  0
LINE
  8
0
  6
CONTINUOUS
 62
     7
  5
154
 10
-5.364173
 20
0.0
 30
0.0
 11
-5.364173
 21
0.09685
 31
0.0
  0
LINE
  8
0
  6
CONTINUOUS
 62
     7
  5
155
 10
5.364173
 20
0.0
 30
0.0
 11
-5.364173
 21
0.0
 31
0.0
  0
ENDSEC
  0
EOF
